  0
SECTION
  2
HEADER
  9
$ACADVER
  1
AC1009
  9
$INSBASE
 10
0.0
 20
0.0
 30
0.0
  9
$EXTMIN
 10
0.0
 20
-2.960436562073669
 30
0.0
  9
$EXTMAX
 10
178.22266600334839
 20
151.61425929588779
 30
0.0
  9
$LIMMIN
 10
0.0
 20
0.0
  9
$LIMMAX
 10
390.0
 20
270.0
  9
$ORTHOMODE
 70
     1
  9
$REGENMODE
 70
     1
  9
$FILLMODE
 70
     1
  9
$QTEXTMODE
 70
     0
  9
$MIRRTEXT
 70
     1
  9
$DRAGMODE
 70
     2
  9
$LTSCALE
 40
5.0
  9
$OSMODE
 70
    37
  9
$ATTMODE
 70
     1
  9
$TEXTSIZE
 40
2.5
  9
$TRACEWID
 40
1.0
  9
$TEXTSTYLE
  7
STANDARD
  9
$CLAYER
  8
4
  9
$CELTYPE
  6
BYLAYER
  9
$CECOLOR
 62
   256
  9
$DIMSCALE
 40
2.0
  9
$DIMASZ
 40
3.0
  9
$DIMEXO
 40
1.0
  9
$DIMDLI
 40
6.0
  9
$DIMRND
 40
0.0
  9
$DIMDLE
 40
0.0
  9
$DIMEXE
 40
1.0
  9
$DIMTP
 40
495.0
  9
$DIMTM
 40
0.0
  9
$DIMTXT
 40
2.5
  9
$DIMCEN
 40
0.0
  9
$DIMTSZ
 40
0.0
  9
$DIMTOL
 70
     0
  9
$DIMLIM
 70
     0
  9
$DIMTIH
 70
     0
  9
$DIMTOH
 70
     0
  9
$DIMSE1
 70
     0
  9
$DIMSE2
 70
     0
  9
$DIMTAD
 70
     1
  9
$DIMZIN
 70
     8
  9
$DIMBLK
  1

  9
$DIMASO
 70
     0
  9
$DIMSHO
 70
     1
  9
$DIMPOST
  1

  9
$DIMAPOST
  1

  9
$DIMALT
 70
     0
  9
$DIMALTD
 70
     2
  9
$DIMALTF
 40
25.399999999999999
  9
$DIMLFAC
 40
1.0
  9
$DIMTOFL
 70
     1
  9
$DIMTVP
 40
0.0
  9
$DIMTIX
 70
     1
  9
$DIMSOXD
 70
     0
  9
$DIMSAH
 70
     0
  9
$DIMBLK1
  1

  9
$DIMBLK2
  1

  9
$DIMSTYLE
  2
ITM
  9
$DIMCLRD
 70
   256
  9
$DIMCLRE
 70
   256
  9
$DIMCLRT
 70
   256
  9
$DIMTFAC
 40
1.0
  9
$DIMGAP
 40
1.0
  9
$LUNITS
 70
     2
  9
$LUPREC
 70
     2
  9
$SKETCHINC
 40
1.0
  9
$FILLETRAD
 40
0.4
  9
$AUNITS
 70
     0
  9
$AUPREC
 70
     0
  9
$MENU
  1
.
  9
$ELEVATION
 40
0.0
  9
$PELEVATION
 40
0.0
  9
$THICKNESS
 40
0.0
  9
$LIMCHECK
 70
     0
  9
$BLIPMODE
 70
     0
  9
$CHAMFERA
 40
1.1999999999999991
  9
$CHAMFERB
 40
1.1999999999999991
  9
$SKPOLY
 70
     0
  9
$TDCREATE
 40
2453354.0921258219
  9
$TDUPDATE
 40
2457162.6020959029
  9
$TDINDWG
 40
513.79000119210002
  9
$TDUSRTIMER
 40
513.7897232176
  9
$USRTIMER
 70
     1
  9
$ANGBASE
 50
0.0
  9
$ANGDIR
 70
     0
  9
$PDMODE
 70
     0
  9
$PDSIZE
 40
0.0
  9
$PLINEWID
 40
0.0
  9
$COORDS
 70
     1
  9
$SPLFRAME
 70
     0
  9
$SPLINETYPE
 70
     6
  9
$SPLINESEGS
 70
     8
  9
$ATTDIA
 70
     0
  9
$ATTREQ
 70
     1
  9
$HANDLING
 70
     1
  9
$HANDSEED
  5
58AE5
  9
$SURFTAB1
 70
     6
  9
$SURFTAB2
 70
     6
  9
$SURFTYPE
 70
     6
  9
$SURFU
 70
     6
  9
$SURFV
 70
     6
  9
$UCSNAME
  2

  9
$UCSORG
 10
0.0
 20
0.0
 30
0.0
  9
$UCSXDIR
 10
1.0
 20
0.0
 30
0.0
  9
$UCSYDIR
 10
0.0
 20
1.0
 30
0.0
  9
$PUCSNAME
  2

  9
$PUCSORG
 10
0.0
 20
0.0
 30
0.0
  9
$PUCSXDIR
 10
1.0
 20
0.0
 30
0.0
  9
$PUCSYDIR
 10
0.0
 20
1.0
 30
0.0
  9
$USERI1
 70
     4
  9
$USERI2
 70
     1
  9
$USERI3
 70
     1
  9
$USERI4
 70
     0
  9
$USERI5
 70
     0
  9
$USERR1
 40
1.0
  9
$USERR2
 40
3.0
  9
$USERR3
 40
3.2000000000000002
  9
$USERR4
 40
3.0
  9
$USERR5
 40
10.0
  9
$WORLDVIEW
 70
     1
  9
$SHADEDGE
 70
     3
  9
$SHADEDIF
 70
    70
  9
$TILEMODE
 70
     1
  9
$MAXACTVP
 70
    16
  9
$PLIMCHECK
 70
     0
  9
$PEXTMIN
 10
0.0
 20
0.0
 30
0.0
  9
$PEXTMAX
 10
0.0
 20
0.0
 30
0.0
  9
$PLIMMIN
 10
0.0
 20
0.0
  9
$PLIMMAX
 10
12.0
 20
9.0
  9
$UNITMODE
 70
     0
  9
$VISRETAIN
 70
     0
  9
$PLINEGEN
 70
     0
  9
$PSLTSCALE
 70
     1
  0
ENDSEC
  0
SECTION
  2
TABLES
  0
TABLE
  2
VPORT
 70
     1
  0
VPORT
  2
*ACTIVE
 70
     0
 10
0.0
 20
0.0
 11
1.0
 21
1.0
 12
230.89816099347701
 22
150.30180753261629
 13
0.0
 23
0.0
 14
5.0
 24
5.0
 15
10.0
 25
10.0
 16
0.0
 26
0.0
 36
1.0
 17
0.0
 27
0.0
 37
0.0
 40
309.00091271621642
 41
1.816239316239316
 42
50.0
 43
0.0
 44
0.0
 50
0.0
 51
0.0
 71
    16
 72
   500
 73
     1
 74
     1
 75
     0
 76
     0
 77
     0
 78
     1
  0
ENDTAB
  0
TABLE
  2
LTYPE
 70
     4
  0
LTYPE
  2
CONTINUOUS
 70
     0
  3
Solid line
 72
    65
 73
     0
 40
0.0
  0
LTYPE
  2
CENTER
 70
     0
  3
____ _ ____ _ ____ _ ____ _ ____ _ ____ _ ____
 72
    65
 73
     4
 40
2.0
 49
1.25
 49
-0.25
 49
0.25
 49
-0.25
  0
LTYPE
  2
HIDDEN
 70
     0
  3
_ _ _ _ _ _ _ _ _ _ _ _ _ _ _ _ _ _ _ _ _ _ _
 72
    65
 73
     2
 40
0.375
 49
0.25
 49
-0.125
  0
LTYPE
  2
PHANTOM2
 70
     0
  3
___ _ _ ___ _ _ ___ _ _ ___ _ _
 72
    65
 73
     6
 40
1.25
 49
0.625
 49
-0.125
 49
0.125
 49
-0.125
 49
0.125
 49
-0.125
  0
ENDTAB
  0
TABLE
  2
LAYER
 70
     7
  0
LAYER
  2
0
 70
     0
 62
     7
  6
CONTINUOUS
  0
LAYER
  2
1
 70
     0
 62
     1
  6
CENTER
  0
LAYER
  2
WAKU
 70
     0
 62
     5
  6
CONTINUOUS
  0
LAYER
  2
DEFPOINTS
 70
     0
 62
     7
  6
CONTINUOUS
  0
LAYER
  2
4
 70
     0
 62
     4
  6
CONTINUOUS
  0
LAYER
  2
3
 70
     0
 62
     3
  6
CONTINUOUS
  0
LAYER
  2
2
 70
     0
 62
     2
  6
HIDDEN
  0
ENDTAB
  0
TABLE
  2
STYLE
 70
     3
  0
STYLE
  2
STANDARD
 70
     0
 40
0.0
 41
1.0
 50
0.0
 71
     0
 42
2.5
  3
ROMANS
  4
EXTFONT
  0
STYLE
  2
K
 70
     0
 40
0.0
 41
0.75
 50
0.0
 71
     0
 42
3.2000000000000002
  3
ROMANS.shx
  4
EXTFONT.shx
  0
STYLE
  2
STANDARD1
 70
     0
 40
0.0
 41
1.0
 50
0.0
 71
     0
 42
3.0
  3
txt
  4

  0
ENDTAB
  0
TABLE
  2
VIEW
 70
     2
  0
VIEW
  2
OLE1
 70
     0
 40
151.81220504325799
 10
73.676474473531471
 20
85.209442582639014
 41
295.93771616027522
 11
0.0
 21
0.0
 31
1.0
 12
0.0
 22
0.0
 32
0.0
 42
50.0
 43
0.0
 44
0.0
 50
0.0
 71
    16
  0
VIEW
  2
OLE2
 70
     0
 40
12.66566269640963
 10
177.82767580922561
 20
80.089748755761136
 41
24.690026015785861
 11
0.0
 21
0.0
 31
1.0
 12
0.0
 22
0.0
 32
0.0
 42
50.0
 43
0.0
 44
0.0
 50
0.0
 71
    16
  0
ENDTAB
  0
TABLE
  2
UCS
 70
     0
  0
ENDTAB
  0
TABLE
  2
APPID
 70
    47
  0
APPID
  2
ACAD
 70
     0
  0
APPID
  2
COMM
 70
     0
  0
APPID
  2
DCO15
 70
     0
  0
APPID
  2
GENIUS_GENOREF_13
 70
     0
  0
APPID
  2
GENIUS_GENOENT_13
 70
     0
  0
APPID
  2
GENIUS_GENBH_13
 70
     0
  0
APPID
  2
GENIUS_GENOBJ_13
 70
     0
  0
APPID
  2
GENIUS_GENODEF_13
 70
     0
  0
APPID
  2
GENIUS_GENOLIS_13
 70
     0
  0
APPID
  2
GENIUS_GENOBJ-NBEHI-BHF_13
 70
     0
  0
APPID
  2
GENIUS_GENOBJ-NBEHI-BHB_13
 70
     0
  0
APPID
  2
GENIUS_GENOBJ-F-PART_13
 70
     0
  0
APPID
  2
GENIUS_GEFSTDP_13
 70
     0
  0
APPID
  2
GENIUS_GENOBJ-N-RSSYM_13
 70
     0
  0
APPID
  2
GENIUS_GENSYMENT_13
 70
     0
  0
APPID
  2
GENIUS_GENOBJ-N-TIT_13
 70
     0
  0
APPID
  2
GENIUS_GENTITLE_13
 70
     0
  0
APPID
  2
GENIUS_GENZVEED_13
 70
     0
  0
APPID
  2
GENIUS_GENOBJ-N-LEADER_13
 70
     0
  0
APPID
  2
GENIUS_GENOBJ-N-FIL_13
 70
     0
  0
APPID
  2
GENIUS_GENOBJ-N-SEC_13
 70
     0
  0
APPID
  2
GENIUS_GENOBJ-N-CRS_13
 70
     0
  0
APPID
  2
GENIUS_GENOBJ-N-ZOO_13
 70
     0
  0
APPID
  2
GENIUS_GENZOO_13
 70
     0
  0
APPID
  2
GENIUS_GENOBJ-F-TOL_13
 70
     0
  0
APPID
  2
GENIUS_GENFIL_13
 70
     0
  0
APPID
  2
GENIUS_GENOBJ-N-CHA_13
 70
     0
  0
APPID
  2
_CALL_MAC$
 70
     0
  0
APPID
  2
ASM_BASE
 70
     0
  0
APPID
  2
ASM_EXPLO_VER_2_00
 70
     0
  0
APPID
  2
ASM_CADM_VER_12_00
 70
     0
  0
APPID
  2
ASM_BASEFORO
 70
     0
  0
APPID
  2
ASM_BASETRAVI
 70
     0
  0
APPID
  2
ASM_BASETRAVI1
 70
     0
  0
APPID
  2
ASM_GRUPPI
 70
     0
  0
APPID
  2
ASM_CADM_ALBERO
 70
     0
  0
APPID
  2
ASM_GOLE
 70
     0
  0
APPID
  2
GENIUS_GEFINERT_13
 70
     0
  0
APPID
  2
GENIUS_GENOBJ-F-INER_13
 70
     0
  0
APPID
  2
GENIUS_GENDTOL_13
 70
     0
  0
APPID
  2
AD_SKETCHDIM
 70
     0
  0
APPID
  2
GENIUS_GENSCREG_15
 70
     0
  0
APPID
  2
GENIUS_GENOBJ-N-SDF_13
 70
     0
  0
APPID
  2
GENIUS_GENOBJ-N-CEN_13
 70
     0
  0
APPID
  2
ACAD_MLEADERVER
 70
     0
  0
APPID
  2
ACAD_EXEMPT_FROM_CAD_STANDARDS
 70
     0
  0
APPID
  2
ACAD_NAV_VCDISPLAY
 70
     0
  0
ENDTAB
  0
TABLE
  2
DIMSTYLE
 70
     2
  0
DIMSTYLE
  2
ITM
 70
     0
  3

  4

  5

  6

  7

 40
0.0
 41
2.5
 42
1.0
 43
6.0
 44
1.0
 45
0.0
 46
0.0
 47
495.0
 48
0.0
140
3.0
141
0.0
142
0.0
143
25.399999999999999
144
1.0
145
0.0
146
1.0
147
1.0
 71
     0
 72
     0
 73
     0
 74
     0
 75
     0
 76
     0
 77
     3
 78
     8
170
     0
171
     2
172
     1
173
     0
174
     0
175
     0
176
     0
177
     0
178
     0
  0
DIMSTYLE
  2
STANDARD
 70
     0
  3

  4

  5

  6

  7

 40
1.0
 41
0.18
 42
0.0625
 43
0.38
 44
0.18
 45
0.0
 46
0.0
 47
0.0
 48
0.0
140
0.18
141
0.09
142
0.0
143
25.399999999999999
144
1.0
145
0.0
146
1.0
147
0.09
 71
     0
 72
     0
 73
     1
 74
     1
 75
     0
 76
     0
 77
     0
 78
     0
170
     0
171
     2
172
     0
173
     0
174
     0
175
     0
176
     0
177
     0
178
     0
  0
ENDTAB
  0
ENDSEC
  0
SECTION
  2
BLOCKS
  0
BLOCK
  8
0
  2
$MODEL_SPACE
 70
     0
 10
0.0
 20
0.0
 30
0.0
  3
$MODEL_SPACE
  1

  0
ENDBLK
  5
21
  8
0
  0
BLOCK
 67
     1
  8
0
  2
$PAPER_SPACE
 70
     0
 10
0.0
 20
0.0
 30
0.0
  3
$PAPER_SPACE
  1

  0
ENDBLK
  5
76
 67
     1
  8
0
  0
BLOCK
  8
0
  2
ARROW1
 70
     0
 10
0.0
 20
0.0
 30
0.0
  3
ARROW1
  1

  0
SOLID
  5
18C
  8
WAKU
  6
CONTINUOUS
 62
     4
 10
-1.0
 20
0.1666666666666714
 30
0.0
 11
-1.0
 21
-0.1666666666666714
 31
0.0
 12
0.0
 22
0.0
 32
0.0
 13
0.0
 23
0.0
 33
0.0
  0
ENDBLK
  5
3534A
  8
0
  0
ENDSEC
  0
SECTION
  2
ENTITIES
  0
ARC
  5
58598
  8
0
 10
29.111259468264048
 20
93.899863149215363
 30
0.0
 40
1.1143859031821211
 50
99.172266470030664
 51
170.8277335299681
  0
ARC
  5
58599
  8
0
 10
35.910985766694701
 20
93.899863149215363
 30
0.0
 40
1.1143859031821211
 50
9.1722664700318344
 51
80.827733529969336
  0
ARC
  5
5859A
  8
0
 10
170.47266600335041
 20
92.500518348917765
 30
0.0
 40
4.5005183489177707
 50
180.8696041994906
 51
359.13039580045893
  0
ARC
  5
5859B
  8
0
 10
173.35104438172669
 20
93.378378378378358
 30
0.0
 40
1.6216216216216339
 50
0.0
 51
90.0
  0
ARC
  5
5859C
  8
0
 10
167.59428762497009
 20
93.378378378378358
 30
0.0
 40
1.6216216216216339
 50
90.0
 51
180.0
  0
LINE
  5
5859D
  8
0
 10
167.59428762497009
 20
95.000000000000014
 30
0.0
 11
173.35104438172669
 21
95.000000000000014
 31
0.0
  0
ARC
  5
5859E
  8
3
 10
126.7418943104139
 20
138.86425929588779
 30
0.0
 40
3.577499999999957
 50
270.0
 51
90.0
  0
LINE
  5
5859F
  8
3
 10
111.0049169635983
 20
135.2867592958878
 30
0.0
 11
126.7418943103936
 21
135.2867592958878
 31
0.0
  0
LINE
  5
585A0
  8
3
 10
126.7418943104139
 20
142.44175929588781
 30
0.0
 11
111.0049169635983
 21
142.44175929588781
 31
0.0
  0
POLYLINE
  5
585A1
  8
3
 66
     1
 10
0.0
 20
0.0
 30
0.0
  0
VERTEX
  5
58858
  8
3
 10
110.9994747702485
 20
135.2867432429197
 30
0.0
  0
VERTEX
  5
58859
  8
3
 10
110.8998388252847
 20
135.2861554407375
 30
0.0
  0
VERTEX
  5
5885A
  8
3
 10
110.6967020697867
 20
135.28134623343681
 30
0.0
  0
VERTEX
  5
5885B
  8
3
 10
110.4922458384479
 20
135.27162653375271
 30
0.0
  0
VERTEX
  5
5885C
  8
3
 10
110.3854381387733
 20
135.26462301011799
 30
0.0
  0
VERTEX
  5
5885D
  8
3
 10
110.2783362675214
 20
135.25630358651159
 30
0.0
  0
VERTEX
  5
5885E
  8
3
 10
110.0718519413705
 20
135.23648799223321
 30
0.0
  0
VERTEX
  5
5885F
  8
3
 10
109.86198826173811
 20
135.2111869190602
 30
0.0
  0
VERTEX
  5
58860
  8
3
 10
109.65176120606939
 20
135.1806139079537
 30
0.0
  0
VERTEX
  5
58861
  8
3
 10
109.4414220354259
 20
135.1447314689336
 30
0.0
  0
VERTEX
  5
58862
  8
3
 10
109.2340235551852
 20
135.1040656900382
 30
0.0
  0
VERTEX
  5
58863
  8
3
 10
109.1262638112985
 20
135.0808539910677
 30
0.0
  0
VERTEX
  5
58864
  8
3
 10
109.0186135439575
 20
135.0562661545336
 30
0.0
  0
VERTEX
  5
58865
  8
3
 10
108.8121700521566
 20
135.00504924669221
 30
0.0
  0
VERTEX
  5
58866
  8
3
 10
108.60381111376481
 20
134.94781742365501
 30
0.0
  0
VERTEX
  5
58867
  8
3
 10
108.3965483578263
 20
134.8852881163605
 30
0.0
  0
VERTEX
  5
58868
  8
3
 10
108.1906183111965
 20
134.8175044223849
 30
0.0
  0
VERTEX
  5
58869
  8
3
 10
107.9889720433813
 20
134.7454933525122
 30
0.0
  0
VERTEX
  5
5886A
  8
3
 10
107.88474810062991
 20
134.70605241759469
 30
0.0
  0
VERTEX
  5
5886B
  8
3
 10
107.7810101561473
 20
134.66530372659949
 30
0.0
  0
VERTEX
  5
5886C
  8
3
 10
107.58309663808571
 20
134.5832401507017
 30
0.0
  0
VERTEX
  5
5886D
  8
3
 10
107.38730334078529
 20
134.49624908591909
 30
0.0
  0
VERTEX
  5
5886E
  8
3
 10
107.29157037756561
 20
134.45154411977421
 30
0.0
  0
SEQEND
  5
5886F
  8
3
  0
POLYLINE
  5
585A2
  8
3
 66
     1
 10
0.0
 20
0.0
 30
0.0
  0
VERTEX
  5
58870
  8
3
 10
107.28412183302849
 20
134.4480252354017
 30
0.0
  0
VERTEX
  5
58871
  8
3
 10
107.24338594762111
 20
134.42855760092209
 30
0.0
  0
VERTEX
  5
58872
  8
3
 10
107.1600945819807
 20
134.38792223500371
 30
0.0
  0
VERTEX
  5
58873
  8
3
 10
107.0759145314521
 20
134.3457093770775
 30
0.0
  0
VERTEX
  5
58874
  8
3
 10
107.03178572817239
 20
134.3231208840254
 30
0.0
  0
VERTEX
  5
58875
  8
3
 10
106.9874042727857
 20
134.30008893869541
 30
0.0
  0
VERTEX
  5
58876
  8
3
 10
106.9015123283324
 20
134.2545857536573
 30
0.0
  0
VERTEX
  5
58877
  8
3
 10
106.81374851857061
 20
134.20679725175259
 30
0.0
  0
VERTEX
  5
58878
  8
3
 10
106.7253231560623
 20
134.1573097271594
 30
0.0
  0
VERTEX
  5
58879
  8
3
 10
106.63631301207479
 20
134.10611085201231
 30
0.0
  0
VERTEX
  5
5887A
  8
3
 10
106.54800437431889
 20
134.05390534918899
 30
0.0
  0
VERTEX
  5
5887B
  8
3
 10
106.5019000259701
 20
134.0260855451364
 30
0.0
  0
VERTEX
  5
5887C
  8
3
 10
106.45566816912179
 20
133.9978047244239
 30
0.0
  0
VERTEX
  5
5887D
  8
3
 10
106.3665591888256
 20
133.94216472761281
 30
0.0
  0
VERTEX
  5
5887E
  8
3
 10
106.275998216752
 20
133.88405260842509
 30
0.0
  0
VERTEX
  5
5887F
  8
3
 10
106.18524799505551
 20
133.82420829735031
 30
0.0
  0
VERTEX
  5
58880
  8
3
 10
106.09438158744589
 20
133.76263128288991
 30
0.0
  0
VERTEX
  5
58881
  8
3
 10
106.0046621937359
 20
133.7001519752537
 30
0.0
  0
VERTEX
  5
58882
  8
3
 10
105.9579853341515
 20
133.66697654047721
 30
0.0
  0
VERTEX
  5
58883
  8
3
 10
105.91129607387781
 20
133.63333707519001
 30
0.0
  0
VERTEX
  5
58884
  8
3
 10
105.82161929238551
 20
133.5673897128458
 30
0.0
  0
VERTEX
  5
58885
  8
3
 10
105.7321210412
 20
133.49975525224809
 30
0.0
  0
VERTEX
  5
58886
  8
3
 10
105.65757224631309
 20
133.45483385649391
 30
0.0
  0
SEQEND
  5
58887
  8
3
  0
POLYLINE
  5
585A3
  8
3
 66
     1
 10
0.0
 20
0.0
 30
0.0
  0
VERTEX
  5
58888
  8
3
 10
107.28412183302849
 20
143.28049335637391
 30
0.0
  0
VERTEX
  5
58889
  8
3
 10
107.24338594762111
 20
143.29996099085349
 30
0.0
  0
VERTEX
  5
5888A
  8
3
 10
107.1600945819807
 20
143.3405963567719
 30
0.0
  0
VERTEX
  5
5888B
  8
3
 10
107.0759145314521
 20
143.38280921469811
 30
0.0
  0
VERTEX
  5
5888C
  8
3
 10
107.03178572817239
 20
143.40539770775021
 30
0.0
  0
VERTEX
  5
5888D
  8
3
 10
106.9874042727857
 20
143.4284296530802
 30
0.0
  0
VERTEX
  5
5888E
  8
3
 10
106.9015123283324
 20
143.47393283811829
 30
0.0
  0
VERTEX
  5
5888F
  8
3
 10
106.81374851857061
 20
143.52172134002299
 30
0.0
  0
VERTEX
  5
58890
  8
3
 10
106.7253231560623
 20
143.57120886461621
 30
0.0
  0
VERTEX
  5
58891
  8
3
 10
106.63631301207479
 20
143.6224077397633
 30
0.0
  0
VERTEX
  5
58892
  8
3
 10
106.54800437431889
 20
143.67461324258659
 30
0.0
  0
VERTEX
  5
58893
  8
3
 10
106.5019000259701
 20
143.70243304663919
 30
0.0
  0
VERTEX
  5
58894
  8
3
 10
106.45566816912179
 20
143.73071386735171
 30
0.0
  0
VERTEX
  5
58895
  8
3
 10
106.3665591888256
 20
143.78635386416281
 30
0.0
  0
VERTEX
  5
58896
  8
3
 10
106.275998216752
 20
143.84446598335049
 30
0.0
  0
VERTEX
  5
58897
  8
3
 10
106.18524799505551
 20
143.9043102944253
 30
0.0
  0
VERTEX
  5
58898
  8
3
 10
106.09438158744589
 20
143.9658873088857
 30
0.0
  0
VERTEX
  5
58899
  8
3
 10
106.0046621937359
 20
144.02836661652191
 30
0.0
  0
VERTEX
  5
5889A
  8
3
 10
105.9579853341515
 20
144.0615420512984
 30
0.0
  0
VERTEX
  5
5889B
  8
3
 10
105.91129607387781
 20
144.09518151658551
 30
0.0
  0
VERTEX
  5
5889C
  8
3
 10
105.82161929238551
 20
144.16112887892979
 30
0.0
  0
VERTEX
  5
5889D
  8
3
 10
105.7321210412
 20
144.2287633395274
 30
0.0
  0
VERTEX
  5
5889E
  8
3
 10
105.65757224631309
 20
144.27368473528171
 30
0.0
  0
SEQEND
  5
5889F
  8
3
  0
POLYLINE
  5
585A4
  8
3
 66
     1
 10
0.0
 20
0.0
 30
0.0
  0
VERTEX
  5
588A0
  8
3
 10
110.9994747702485
 20
142.44177534885591
 30
0.0
  0
VERTEX
  5
588A1
  8
3
 10
110.8998388252847
 20
142.44236315103811
 30
0.0
  0
VERTEX
  5
588A2
  8
3
 10
110.6967020697867
 20
142.4471723583388
 30
0.0
  0
VERTEX
  5
588A3
  8
3
 10
110.4922458384479
 20
142.4568920580229
 30
0.0
  0
VERTEX
  5
588A4
  8
3
 10
110.3854381387733
 20
142.4638955816576
 30
0.0
  0
VERTEX
  5
588A5
  8
3
 10
110.2783362675214
 20
142.47221500526399
 30
0.0
  0
VERTEX
  5
588A6
  8
3
 10
110.0718519413705
 20
142.4920305995424
 30
0.0
  0
VERTEX
  5
588A7
  8
3
 10
109.86198826173811
 20
142.5173316727155
 30
0.0
  0
VERTEX
  5
588A8
  8
3
 10
109.65176120606939
 20
142.54790468382191
 30
0.0
  0
VERTEX
  5
588A9
  8
3
 10
109.4414220354259
 20
142.58378712284201
 30
0.0
  0
VERTEX
  5
588AA
  8
3
 10
109.2340235551852
 20
142.62445290173741
 30
0.0
  0
VERTEX
  5
588AB
  8
3
 10
109.1262638112985
 20
142.64766460070791
 30
0.0
  0
VERTEX
  5
588AC
  8
3
 10
109.0186135439575
 20
142.67225243724201
 30
0.0
  0
VERTEX
  5
588AD
  8
3
 10
108.8121700521566
 20
142.7234693450834
 30
0.0
  0
VERTEX
  5
588AE
  8
3
 10
108.60381111376481
 20
142.7807011681206
 30
0.0
  0
VERTEX
  5
588AF
  8
3
 10
108.3965483578263
 20
142.84323047541511
 30
0.0
  0
VERTEX
  5
588B0
  8
3
 10
108.1906183111965
 20
142.91101416939071
 30
0.0
  0
VERTEX
  5
588B1
  8
3
 10
107.9889720433813
 20
142.9830252392635
 30
0.0
  0
VERTEX
  5
588B2
  8
3
 10
107.88474810062991
 20
143.02246617418089
 30
0.0
  0
VERTEX
  5
588B3
  8
3
 10
107.7810101561473
 20
143.06321486517601
 30
0.0
  0
VERTEX
  5
588B4
  8
3
 10
107.58309663808571
 20
143.14527844107391
 30
0.0
  0
VERTEX
  5
588B5
  8
3
 10
107.38730334078529
 20
143.23226950585649
 30
0.0
  0
VERTEX
  5
588B6
  8
3
 10
107.29157037756561
 20
143.2769744720014
 30
0.0
  0
SEQEND
  5
588B7
  8
3
  0
ARC
  5
585A5
  8
3
 10
93.722027391283916
 20
138.86425929588779
 30
0.0
 40
14.48250673635196
 50
342.75155316026019
 51
17.248446839739842
  0
ARC
  5
585A6
  8
3
 10
101.4918943104139
 20
138.86425929588779
 30
0.0
 40
6.8274999999999988
 50
52.400933895312832
 51
307.59906610468789
  0
LINE
  5
585A7
  8
0
 10
124.63561515724329
 20
90.279423857804375
 30
0.0
 11
121.2265659034983
 21
89.688015517601485
 31
0.0
  0
POLYLINE
  5
585A8
  8
0
 66
     1
 10
0.0
 20
0.0
 30
0.0
  0
VERTEX
  5
588B8
  8
0
 10
128.51189431041391
 20
88.000000000000014
 30
0.0
  0
VERTEX
  5
588B9
  8
0
 10
128.59328225778481
 20
88.000000000000014
 30
0.0
  0
VERTEX
  5
588BA
  8
0
 10
128.61894663948749
 20
88.000000000000014
 30
0.0
  0
VERTEX
  5
588BB
  8
0
 10
128.68285088402959
 20
88.000000000000014
 30
0.0
  0
VERTEX
  5
588BC
  8
0
 10
128.74622096728919
 20
88.000000000000014
 30
0.0
  0
VERTEX
  5
588BD
  8
0
 10
128.84739435782959
 20
88.000000000000014
 30
0.0
  0
VERTEX
  5
588BE
  8
0
 10
128.8949199416154
 20
88.000000000000014
 30
0.0
  0
VERTEX
  5
588BF
  8
0
 10
129.03531452093759
 20
88.006345905903046
 30
0.0
  0
VERTEX
  5
588C0
  8
0
 10
129.22065863647049
 20
88.039747835624567
 30
0.0
  0
VERTEX
  5
588C1
  8
0
 10
129.47002123577809
 20
88.094493194176849
 30
0.0
  0
VERTEX
  5
588C2
  8
0
 10
129.69631361830241
 20
88.18054852813512
 30
0.0
  0
VERTEX
  5
588C3
  8
0
 10
130.0097767693498
 20
88.338804414188544
 30
0.0
  0
VERTEX
  5
588C4
  8
0
 10
130.35425796364251
 20
88.686115928941632
 30
0.0
  0
VERTEX
  5
588C5
  8
0
 10
130.61399395370631
 20
89.101636405661026
 30
0.0
  0
VERTEX
  5
588C6
  8
0
 10
130.8340783506232
 20
89.529904851641405
 30
0.0
  0
VERTEX
  5
588C7
  8
0
 10
131.02342555910781
 20
90.076684668262175
 30
0.0
  0
VERTEX
  5
588C8
  8
0
 10
131.14965520769849
 20
90.518314671104832
 30
0.0
  0
VERTEX
  5
588C9
  8
0
 10
131.21422445870391
 20
91.058626306277944
 30
0.0
  0
VERTEX
  5
588CA
  8
0
 10
131.2418943104139
 20
91.976111155545738
 30
0.0
  0
SEQEND
  5
588CB
  8
0
  0
LINE
  5
585A9
  8
0
 10
173.97266600334851
 20
65.200000000000031
 30
0.0
 11
173.97266600334851
 21
65.000000000000014
 31
0.0
  0
LINE
  5
585AA
  8
0
 10
166.97266600334839
 20
65.200000000000031
 30
0.0
 11
166.97266600334839
 21
65.000000000000014
 31
0.0
  0
LINE
  5
585AB
  8
0
 10
166.97266600334839
 20
65.000000000000014
 30
0.0
 11
173.97266600334851
 21
65.000000000000014
 31
0.0
  0
LINE
  5
585AC
  8
0
 10
176.47266600334839
 20
71.000000000000014
 30
0.0
 11
176.47266600334839
 21
65.700000000000145
 31
0.0
  0
LINE
  5
585AD
  8
0
 10
175.97266600334851
 20
65.200000000000031
 30
0.0
 11
176.47266600334839
 21
65.700000000000145
 31
0.0
  0
LINE
  5
585AE
  8
0
 10
164.47266600334839
 20
71.000000000000014
 30
0.0
 11
164.47266600334839
 21
65.700000000000145
 31
0.0
  0
LINE
  5
585AF
  8
0
 10
164.97266600334831
 20
65.200000000000031
 30
0.0
 11
175.97266600334851
 21
65.200000000000031
 31
0.0
  0
LINE
  5
585B0
  8
0
 10
164.97266600334831
 20
65.200000000000031
 30
0.0
 11
164.47266600334839
 21
65.700000000000145
 31
0.0
  0
LINE
  5
585B1
  8
0
 10
176.47266600334839
 20
70.200000000000031
 30
0.0
 11
164.47266600334839
 21
70.200000000000031
 31
0.0
  0
LINE
  5
585B2
  8
0
 10
38.511122617479373
 20
70.200000000000017
 30
0.0
 11
26.511122617479369
 21
70.200000000000017
 31
0.0
  0
LINE
  5
585B3
  8
0
 10
27.01112261747932
 20
65.200000000000017
 30
0.0
 11
26.511122617479369
 21
65.700000000000131
 31
0.0
  0
LINE
  5
585B4
  8
0
 10
27.01112261747932
 20
65.200000000000017
 30
0.0
 11
38.01112261747943
 21
65.200000000000017
 31
0.0
  0
LINE
  5
585B5
  8
0
 10
26.511122617479369
 20
71.0
 30
0.0
 11
26.511122617479369
 21
65.700000000000131
 31
0.0
  0
LINE
  5
585B6
  8
0
 10
38.01112261747943
 20
65.200000000000017
 30
0.0
 11
38.511122617479373
 21
65.700000000000131
 31
0.0
  0
LINE
  5
585B7
  8
0
 10
38.511122617479373
 20
71.0
 30
0.0
 11
38.511122617479373
 21
65.700000000000131
 31
0.0
  0
LINE
  5
585B8
  8
0
 10
29.011122617479369
 20
65.0
 30
0.0
 11
36.01112261747943
 21
65.0
 31
0.0
  0
LINE
  5
585B9
  8
0
 10
29.011122617479369
 20
65.200000000000017
 30
0.0
 11
29.011122617479369
 21
65.0
 31
0.0
  0
LINE
  5
585BA
  8
0
 10
36.01112261747943
 20
65.200000000000017
 30
0.0
 11
36.01112261747943
 21
65.0
 31
0.0
  0
ARC
  5
585BB
  8
0
 10
128.68913904700341
 20
92.447244736589454
 30
0.0
 40
2.560195098730937
 50
4.3690597804379996
 51
85.630940219576473
  0
POLYLINE
  5
585BC
  8
0
 66
     1
 10
0.0
 20
0.0
 30
0.0
  0
VERTEX
  5
588CC
  8
0
 10
128.48189431041391
 20
88.000000000000014
 30
0.0
  0
VERTEX
  5
588CD
  8
0
 10
128.38884679464331
 20
88.004226099032763
 30
0.0
  0
VERTEX
  5
588CE
  8
0
 10
128.3275456322753
 20
88.017677520597687
 30
0.0
  0
VERTEX
  5
588CF
  8
0
 10
128.27670844419339
 20
88.034116991148181
 30
0.0
  0
VERTEX
  5
588D0
  8
0
 10
128.20195075227431
 20
88.066998532813983
 30
0.0
  0
VERTEX
  5
588D1
  8
0
 10
128.1421431486819
 20
88.102868123465583
 30
0.0
  0
VERTEX
  5
588D2
  8
0
 10
128.07340138100611
 20
88.140439783796097
 30
0.0
  0
VERTEX
  5
588D3
  8
0
 10
127.9922761260061
 20
88.187744057989605
 30
0.0
  0
VERTEX
  5
588D4
  8
0
 10
127.917909949494
 20
88.238426465892545
 30
0.0
  0
VERTEX
  5
588D5
  8
0
 10
127.8570655551013
 20
88.306004743473196
 30
0.0
  0
VERTEX
  5
588D6
  8
0
 10
127.816503833887
 20
88.373581720771568
 30
0.0
  0
VERTEX
  5
588D7
  8
0
 10
127.7348746840573
 20
88.54327117626363
 30
0.0
  0
VERTEX
  5
588D8
  8
0
 10
127.6584004870892
 20
88.786933698244553
 30
0.0
  0
VERTEX
  5
588D9
  8
0
 10
127.5819262901209
 20
89.006708732012072
 30
0.0
  0
VERTEX
  5
588DA
  8
0
 10
127.4719938389792
 20
89.207372214869707
 30
0.0
  0
VERTEX
  5
588DB
  8
0
 10
127.3620632004088
 20
89.417591473182171
 30
0.0
  0
VERTEX
  5
588DC
  8
0
 10
127.24181721840159
 20
89.594110011908612
 30
0.0
  0
VERTEX
  5
588DD
  8
0
 10
127.0714101374183
 20
89.817676669193048
 30
0.0
  0
VERTEX
  5
588DE
  8
0
 10
126.9489328801041
 20
89.961398184610445
 30
0.0
  0
VERTEX
  5
588DF
  8
0
 10
126.9287027714943
 20
89.984107616957459
 30
0.0
  0
SEQEND
  5
588E0
  8
0
  0
ARC
  5
585BD
  8
0
 10
126.06809788965199
 20
73.757223691596266
 30
0.0
 40
16.650242045581901
 50
106.9045679124864
 51
141.50226456205559
  0
LINE
  5
585BE
  8
0
 10
109.2418943104139
 20
71.000000000000028
 30
0.0
 11
109.2418943104139
 21
78.72432376208819
 31
0.0
  0
ARC
  5
585BF
  8
2
 10
131.8541772616301
 20
23.5945449355577
 30
0.0
 40
68.85572414054829
 50
93.278675296640387
 51
108.16445797253181
  0
LINE
  5
585C0
  8
2
 10
109.2418958553873
 20
87.500018860459249
 30
0.0
 11
109.2418943104139
 21
78.724323762087948
 31
0.0
  0
ARC
  5
585C1
  8
2
 10
110.8267729643452
 20
87.49574676946439
 30
0.0
 40
1.5848828667319399
 50
106.04549319204069
 51
179.8455576211627
  0
ARC
  5
585C2
  8
2
 10
127.93233371109611
 20
91.37770053141125
 30
0.0
 40
0.9599999999999999
 50
1.0000000000001461
 51
90.965973498775256
  0
LINE
  5
585C3
  8
2
 10
128.89789109824741
 20
88.000134297780605
 30
0.0
 11
128.85089168584329
 21
90.692728831075627
 31
0.0
  0
CIRCLE
  5
585C4
  8
0
 10
111.7418943104139
 20
138.86425929588779
 30
0.0
 40
0.5
  0
CIRCLE
  5
585C5
  8
0
 10
115.7418943104138
 20
138.86425929588779
 30
0.0
 40
0.5
  0
CIRCLE
  5
585C6
  8
0
 10
117.7418943104138
 20
138.86425929588779
 30
0.0
 40
0.5
  0
CIRCLE
  5
585C7
  8
0
 10
109.7418943104139
 20
138.86425929588779
 30
0.0
 40
0.5
  0
CIRCLE
  5
585C8
  8
0
 10
113.7418943104139
 20
138.86425929588779
 30
0.0
 40
0.5
  0
LINE
  5
585C9
  8
0
 10
27.25362276397334
 20
92.25826600503845
 30
0.0
 11
28.636122617479369
 21
92.25826600503845
 31
0.0
  0
LINE
  5
585CA
  8
0
 10
37.768622470985413
 20
92.25826600503845
 30
0.0
 11
36.386122617479373
 21
92.25826600503845
 31
0.0
  0
LINE
  5
585CB
  8
0
 10
36.386122617479373
 20
94.205000000000027
 30
0.0
 11
36.386122617479373
 21
90.075000000000017
 31
0.0
  0
LINE
  5
585CC
  8
0
 10
36.091122617479421
 20
94.500000000000014
 30
0.0
 11
28.931122617479389
 21
94.500000000000014
 31
0.0
  0
ARC
  5
585CD
  8
0
 10
36.091122617479421
 20
94.205000000000027
 30
0.0
 40
0.2950000000000048
 50
0.0
 51
90.0
  0
LINE
  5
585CE
  8
0
 10
28.636122617479369
 20
94.205000000000027
 30
0.0
 11
28.636122617479369
 21
90.075000000000017
 31
0.0
  0
ARC
  5
585CF
  8
0
 10
28.931122617479389
 20
94.205000000000027
 30
0.0
 40
0.2950000000000088
 50
90.0
 51
180.0
  0
LINE
  5
585D0
  8
0
 10
24.76112261747938
 20
90.075000000000017
 30
0.0
 11
40.261122617479373
 21
90.075000000000017
 31
0.0
  0
LINE
  5
585D1
  8
0
 10
40.261122617479373
 20
90.075000000000003
 30
0.0
 11
40.261122617479373
 21
71.0
 31
0.0
  0
LINE
  5
585D2
  8
0
 10
24.76112261747938
 20
71.0
 30
0.0
 11
24.76112261747938
 21
90.075000000000003
 31
0.0
  0
LINE
  5
585D3
  8
1
 10
32.511122617479373
 20
100.0
 30
0.0
 11
32.511122617479373
 21
50.000000000000007
 31
0.0
  0
LINE
  5
585D4
  8
0
 10
28.011122617479369
 20
94.077499999999773
 30
0.0
 11
28.011122617479369
 21
92.418330606450155
 31
0.0
  0
POLYLINE
  5
585D5
  8
0
 66
     1
 10
0.0
 20
0.0
 30
0.0
  0
VERTEX
  5
588E1
  8
0
 10
27.262552503325761
 20
92.277500000000018
 30
0.0
  0
VERTEX
  5
588E2
  8
0
 10
27.24469302462359
 20
92.23903201008244
 30
0.0
  0
VERTEX
  5
588E3
  8
0
 10
27.20790101651971
 20
92.163071953892512
 30
0.0
  0
VERTEX
  5
588E4
  8
0
 10
27.169659369231798
 20
92.088445494284372
 30
0.0
  0
VERTEX
  5
588E5
  8
0
 10
27.149988355652631
 20
92.051644124791082
 30
0.0
  0
VERTEX
  5
588E6
  8
0
 10
27.129947330826329
 20
92.015190051656134
 30
0.0
  0
VERTEX
  5
588E7
  8
0
 10
27.08874648690437
 20
91.943341220501495
 30
0.0
  0
VERTEX
  5
588E8
  8
0
 10
27.046040841154309
 20
91.872932472948307
 30
0.0
  0
VERTEX
  5
588E9
  8
0
 10
27.001816872849531
 20
91.803994888773985
 30
0.0
  0
VERTEX
  5
588EA
  8
0
 10
26.956063568250102
 20
91.736556911812784
 30
0.0
  0
VERTEX
  5
588EB
  8
0
 10
26.90877242317185
 20
91.670644133254385
 30
0.0
  0
VERTEX
  5
588EC
  8
0
 10
26.884548182670422
 20
91.638266863444514
 30
0.0
  0
VERTEX
  5
588ED
  8
0
 10
26.859937414057871
 20
91.606279102329751
 30
0.0
  0
VERTEX
  5
588EE
  8
0
 10
26.809554935017669
 20
91.543481164862925
 30
0.0
  0
VERTEX
  5
588EF
  8
0
 10
26.75762369847542
 20
91.482266330128155
 30
0.0
  0
VERTEX
  5
588F0
  8
0
 10
26.704144597305969
 20
91.422647166393546
 30
0.0
  0
VERTEX
  5
588F1
  8
0
 10
26.649117670774331
 20
91.364629797180683
 30
0.0
  0
VERTEX
  5
588F2
  8
0
 10
26.592522784884299
 20
91.308196127676595
 30
0.0
  0
VERTEX
  5
588F3
  8
0
 10
26.56363724254863
 20
91.280573406469998
 30
0.0
  0
VERTEX
  5
588F4
  8
0
 10
26.534361087206779
 20
91.253347778821549
 30
0.0
  0
VERTEX
  5
588F5
  8
0
 10
26.474642401223601
 20
91.200089814682514
 30
0.0
  0
VERTEX
  5
588F6
  8
0
 10
26.413379427814
 20
91.148424465157774
 30
0.0
  0
VERTEX
  5
588F7
  8
0
 10
26.38217355236009
 20
91.123188921215728
 30
0.0
  0
SEQEND
  5
588F8
  8
0
  0
POLYLINE
  5
585D6
  8
0
 66
     1
 10
0.0
 20
0.0
 30
0.0
  0
VERTEX
  5
588F9
  8
0
 10
28.011122617479369
 20
92.418330606450169
 30
0.0
  0
VERTEX
  5
588FA
  8
0
 10
28.01058317283832
 20
92.412938168108354
 30
0.0
  0
VERTEX
  5
588FB
  8
0
 10
28.00622817084491
 20
92.402350504665591
 30
0.0
  0
VERTEX
  5
588FC
  8
0
 10
27.997424201289959
 20
92.392042817669051
 30
0.0
  0
VERTEX
  5
588FD
  8
0
 10
27.99132665389067
 20
92.386999991843624
 30
0.0
  0
VERTEX
  5
588FE
  8
0
 10
27.984085890856591
 20
92.382034189124923
 30
0.0
  0
VERTEX
  5
588FF
  8
0
 10
27.966141184488269
 20
92.372342043354479
 30
0.0
  0
VERTEX
  5
58900
  8
0
 10
27.943531236934291
 20
92.362982039666718
 30
0.0
  0
VERTEX
  5
58901
  8
0
 10
27.916210120436521
 20
92.35396798883977
 30
0.0
  0
VERTEX
  5
58902
  8
0
 10
27.884144344414381
 20
92.345311793134414
 30
0.0
  0
VERTEX
  5
58903
  8
0
 10
27.847312188308191
 20
92.337023411092574
 30
0.0
  0
VERTEX
  5
58904
  8
0
 10
27.82710502669886
 20
92.33301974366799
 30
0.0
  0
VERTEX
  5
58905
  8
0
 10
27.805703337022749
 20
92.329110932505216
 30
0.0
  0
VERTEX
  5
58906
  8
0
 10
27.759319633027651
 20
92.321580799415443
 30
0.0
  0
VERTEX
  5
58907
  8
0
 10
27.708175361501279
 20
92.314437824017176
 30
0.0
  0
VERTEX
  5
58908
  8
0
 10
27.652297089650752
 20
92.307685147682065
 30
0.0
  0
VERTEX
  5
58909
  8
0
 10
27.59172333871874
 20
92.301324223231774
 30
0.0
  0
VERTEX
  5
5890A
  8
0
 10
27.526504092049379
 20
92.295354819897213
 30
0.0
  0
VERTEX
  5
5890B
  8
0
 10
27.492171003350219
 20
92.292516412218617
 30
0.0
  0
VERTEX
  5
5890C
  8
0
 10
27.456700137277782
 20
92.289775049550002
 30
0.0
  0
VERTEX
  5
5890D
  8
0
 10
27.38237790715414
 20
92.284581129689059
 30
0.0
  0
VERTEX
  5
5890E
  8
0
 10
27.303592855662149
 20
92.279766733374814
 30
0.0
  0
VERTEX
  5
5890F
  8
0
 10
27.262552503325761
 20
92.277500000000032
 30
0.0
  0
SEQEND
  5
58910
  8
0
  0
LINE
  5
585D7
  8
0
 10
37.011122617479373
 20
94.077499999999773
 30
0.0
 11
37.011122617479373
 21
92.418330606450155
 31
0.0
  0
LINE
  5
585D8
  8
0
 10
36.088622617479359
 20
95.0
 30
0.0
 11
28.93362261747939
 21
95.0
 31
0.0
  0
POLYLINE
  5
585D9
  8
0
 66
     1
 10
0.0
 20
0.0
 30
0.0
  0
VERTEX
  5
58911
  8
0
 10
37.759692731632981
 20
92.277500000000046
 30
0.0
  0
VERTEX
  5
58912
  8
0
 10
37.718652379296657
 20
92.279766733374814
 30
0.0
  0
VERTEX
  5
58913
  8
0
 10
37.639867327804609
 20
92.284581129689073
 30
0.0
  0
VERTEX
  5
58914
  8
0
 10
37.565545097680968
 20
92.289775049550002
 30
0.0
  0
VERTEX
  5
58915
  8
0
 10
37.530074231608523
 20
92.292516412218617
 30
0.0
  0
VERTEX
  5
58916
  8
0
 10
37.495741142909367
 20
92.295354819897213
 30
0.0
  0
VERTEX
  5
58917
  8
0
 10
37.430521896240009
 20
92.301324223231774
 30
0.0
  0
VERTEX
  5
58918
  8
0
 10
37.369948145308001
 20
92.307685147682065
 30
0.0
  0
VERTEX
  5
58919
  8
0
 10
37.31406987345747
 20
92.314437824017176
 30
0.0
  0
VERTEX
  5
5891A
  8
0
 10
37.262925601931101
 20
92.321580799415443
 30
0.0
  0
VERTEX
  5
5891B
  8
0
 10
37.216541897935997
 20
92.329110932505216
 30
0.0
  0
VERTEX
  5
5891C
  8
0
 10
37.195140208259893
 20
92.33301974366799
 30
0.0
  0
VERTEX
  5
5891D
  8
0
 10
37.174933046650551
 20
92.337023411092574
 30
0.0
  0
VERTEX
  5
5891E
  8
0
 10
37.138100890544372
 20
92.345311793134414
 30
0.0
  0
VERTEX
  5
5891F
  8
0
 10
37.106035114522228
 20
92.35396798883977
 30
0.0
  0
VERTEX
  5
58920
  8
0
 10
37.078713998024462
 20
92.362982039666718
 30
0.0
  0
VERTEX
  5
58921
  8
0
 10
37.056104050470481
 20
92.372342043354479
 30
0.0
  0
VERTEX
  5
58922
  8
0
 10
37.038159344102148
 20
92.382034189124923
 30
0.0
  0
VERTEX
  5
58923
  8
0
 10
37.030918581068079
 20
92.386999991843624
 30
0.0
  0
VERTEX
  5
58924
  8
0
 10
37.024821033668793
 20
92.392042817669051
 30
0.0
  0
VERTEX
  5
58925
  8
0
 10
37.016017064113839
 20
92.402350504665591
 30
0.0
  0
VERTEX
  5
58926
  8
0
 10
37.011662062120422
 20
92.412938168108354
 30
0.0
  0
VERTEX
  5
58927
  8
0
 10
37.011122617479373
 20
92.418330606450155
 30
0.0
  0
SEQEND
  5
58928
  8
0
  0
POLYLINE
  5
585DA
  8
0
 66
     1
 10
0.0
 20
0.0
 30
0.0
  0
VERTEX
  5
58929
  8
0
 10
38.640071682598659
 20
91.123188921215728
 30
0.0
  0
VERTEX
  5
5892A
  8
0
 10
38.608865807144923
 20
91.14842446515766
 30
0.0
  0
VERTEX
  5
5892B
  8
0
 10
38.547602833735482
 20
91.200089814682187
 30
0.0
  0
VERTEX
  5
5892C
  8
0
 10
38.487884147752652
 20
91.253347778820967
 30
0.0
  0
VERTEX
  5
5892D
  8
0
 10
38.458607992410862
 20
91.280573406469287
 30
0.0
  0
VERTEX
  5
5892E
  8
0
 10
38.42972245007536
 20
91.308196127675757
 30
0.0
  0
VERTEX
  5
5892F
  8
0
 10
38.373127564185502
 20
91.364629797179575
 30
0.0
  0
VERTEX
  5
58930
  8
0
 10
38.318100637654076
 20
91.422647166392153
 30
0.0
  0
VERTEX
  5
58931
  8
0
 10
38.26462153648481
 20
91.482266330126464
 30
0.0
  0
VERTEX
  5
58932
  8
0
 10
38.212690299942722
 20
91.543481164860921
 30
0.0
  0
VERTEX
  5
58933
  8
0
 10
38.162307820902697
 20
91.60627910232742
 30
0.0
  0
VERTEX
  5
58934
  8
0
 10
38.137697052290257
 20
91.638266863442013
 30
0.0
  0
VERTEX
  5
58935
  8
0
 10
38.113472811788938
 20
91.670644133251713
 30
0.0
  0
VERTEX
  5
58936
  8
0
 10
38.066181666710811
 20
91.736556911809771
 30
0.0
  0
VERTEX
  5
58937
  8
0
 10
38.020428362111488
 20
91.803994888770603
 30
0.0
  0
VERTEX
  5
58938
  8
0
 10
37.976204393806768
 20
91.872932472944527
 30
0.0
  0
VERTEX
  5
58939
  8
0
 10
37.933498748056877
 20
91.943341220497331
 30
0.0
  0
VERTEX
  5
5893A
  8
0
 10
37.892297904134921
 20
92.015190051651587
 30
0.0
  0
VERTEX
  5
5893B
  8
0
 10
37.872256879308679
 20
92.051644124786364
 30
0.0
  0
VERTEX
  5
5893C
  8
0
 10
37.852585865729573
 20
92.088445494279426
 30
0.0
  0
VERTEX
  5
5893D
  8
0
 10
37.814344218441761
 20
92.163071953887169
 30
0.0
  0
VERTEX
  5
5893E
  8
0
 10
37.777552210337767
 20
92.239032010076897
 30
0.0
  0
VERTEX
  5
5893F
  8
0
 10
37.759692731632981
 20
92.277500000000018
 30
0.0
  0
SEQEND
  5
58940
  8
0
  0
POLYLINE
  5
585DB
  8
0
 66
     1
 10
0.0
 20
0.0
 30
0.0
  0
VERTEX
  5
58941
  8
0
 10
26.38217355236009
 20
91.123188921215728
 30
0.0
  0
VERTEX
  5
58942
  8
0
 10
26.313375249130729
 20
91.068373922530924
 30
0.0
  0
VERTEX
  5
58943
  8
0
 10
26.179270408494769
 20
90.961854192582194
 30
0.0
  0
VERTEX
  5
58944
  8
0
 10
26.049989987065519
 20
90.859704719247986
 30
0.0
  0
VERTEX
  5
58945
  8
0
 10
25.98722165548509
 20
90.810351091342156
 30
0.0
  0
VERTEX
  5
58946
  8
0
 10
25.925734305109639
 20
90.762187933924693
 30
0.0
  0
VERTEX
  5
58947
  8
0
 10
25.806700262957978
 20
90.669559693167059
 30
0.0
  0
VERTEX
  5
58948
  8
0
 10
25.693080398081751
 20
90.582068973032406
 30
0.0
  0
VERTEX
  5
58949
  8
0
 10
25.585062104076489
 20
90.499957698075619
 30
0.0
  0
VERTEX
  5
5894A
  8
0
 10
25.482827056329938
 20
90.423460761620035
 30
0.0
  0
VERTEX
  5
5894B
  8
0
 10
25.386550791708551
 20
90.352806223382998
 30
0.0
  0
VERTEX
  5
5894C
  8
0
 10
25.3407008470673
 20
90.31973973421475
 30
0.0
  0
VERTEX
  5
5894D
  8
0
 10
25.296404658551381
 20
90.288217288970174
 30
0.0
  0
VERTEX
  5
5894E
  8
0
 10
25.21255717571881
 20
90.229913745237283
 30
0.0
  0
VERTEX
  5
5894F
  8
0
 10
25.135173359038479
 20
90.178111904107368
 30
0.0
  0
VERTEX
  5
58950
  8
0
 10
25.0644146081593
 20
90.133025028010664
 30
0.0
  0
VERTEX
  5
58951
  8
0
 10
25.000438835109492
 20
90.094864008751927
 30
0.0
  0
VERTEX
  5
58952
  8
0
 10
24.963920612046341
 20
90.075000000000003
 30
0.0
  0
SEQEND
  5
58953
  8
0
  0
LINE
  5
585DC
  8
0
 10
40.261122617479373
 20
90.075000000000003
 30
0.0
 11
40.057660808327107
 21
90.075000000000003
 31
0.0
  0
LINE
  5
585DD
  8
0
 10
24.964584426631632
 20
90.075000000000003
 30
0.0
 11
24.76112261747938
 21
90.075000000000003
 31
0.0
  0
LINE
  5
585DE
  8
0
 10
24.76112261747938
 20
71.0
 30
0.0
 11
40.261122617479373
 21
71.0
 31
0.0
  0
POLYLINE
  5
585DF
  8
0
 66
     1
 10
0.0
 20
0.0
 30
0.0
  0
VERTEX
  5
58954
  8
0
 10
40.058324622912437
 20
90.075000000000003
 30
0.0
  0
VERTEX
  5
58955
  8
0
 10
40.021806399849247
 20
90.094864008751927
 30
0.0
  0
VERTEX
  5
58956
  8
0
 10
39.957830626799478
 20
90.133025028010664
 30
0.0
  0
VERTEX
  5
58957
  8
0
 10
39.887071875920242
 20
90.178111904107368
 30
0.0
  0
VERTEX
  5
58958
  8
0
 10
39.809688059239932
 20
90.229913745237297
 30
0.0
  0
VERTEX
  5
58959
  8
0
 10
39.725840576407343
 20
90.288217288970174
 30
0.0
  0
VERTEX
  5
5895A
  8
0
 10
39.681544387891449
 20
90.31973973421475
 30
0.0
  0
VERTEX
  5
5895B
  8
0
 10
39.635694443250202
 20
90.352806223382998
 30
0.0
  0
VERTEX
  5
5895C
  8
0
 10
39.539418178628807
 20
90.423460761620035
 30
0.0
  0
VERTEX
  5
5895D
  8
0
 10
39.437183130882211
 20
90.499957698075619
 30
0.0
  0
VERTEX
  5
5895E
  8
0
 10
39.329164836876998
 20
90.582068973032406
 30
0.0
  0
VERTEX
  5
5895F
  8
0
 10
39.215544972000771
 20
90.669559693167059
 30
0.0
  0
VERTEX
  5
58960
  8
0
 10
39.09651092984911
 20
90.762187933924693
 30
0.0
  0
VERTEX
  5
58961
  8
0
 10
39.035023579473659
 20
90.810351091342156
 30
0.0
  0
VERTEX
  5
58962
  8
0
 10
38.972255247893258
 20
90.859704719247986
 30
0.0
  0
VERTEX
  5
58963
  8
0
 10
38.842974826464001
 20
90.961854192582194
 30
0.0
  0
VERTEX
  5
58964
  8
0
 10
38.70886998582796
 20
91.068373922530924
 30
0.0
  0
VERTEX
  5
58965
  8
0
 10
38.640071682598659
 20
91.123188921215728
 30
0.0
  0
SEQEND
  5
58966
  8
0
  0
POLYLINE
  5
585E0
  8
0
 66
     1
 10
0.0
 20
0.0
 30
0.0
  0
VERTEX
  5
58967
  8
0
 10
162.9254639979153
 20
90.075000000000017
 30
0.0
  0
VERTEX
  5
58968
  8
0
 10
162.96198222097851
 20
90.094864008751955
 30
0.0
  0
VERTEX
  5
58969
  8
0
 10
163.02595799402829
 20
90.133025028010664
 30
0.0
  0
VERTEX
  5
5896A
  8
0
 10
163.0967167449075
 20
90.178111904107368
 30
0.0
  0
VERTEX
  5
5896B
  8
0
 10
163.17410056158789
 20
90.229913745237326
 30
0.0
  0
VERTEX
  5
5896C
  8
0
 10
163.2579480444204
 20
90.288217288970188
 30
0.0
  0
VERTEX
  5
5896D
  8
0
 10
163.30224423293629
 20
90.319739734214764
 30
0.0
  0
VERTEX
  5
5896E
  8
0
 10
163.34809417757759
 20
90.352806223383013
 30
0.0
  0
VERTEX
  5
5896F
  8
0
 10
163.44437044219899
 20
90.423460761620035
 30
0.0
  0
VERTEX
  5
58970
  8
0
 10
163.54660548994559
 20
90.499957698075633
 30
0.0
  0
VERTEX
  5
58971
  8
0
 10
163.6546237839508
 20
90.582068973032435
 30
0.0
  0
VERTEX
  5
58972
  8
0
 10
163.768243648827
 20
90.669559693167059
 30
0.0
  0
VERTEX
  5
58973
  8
0
 10
163.88727769097869
 20
90.762187933924722
 30
0.0
  0
VERTEX
  5
58974
  8
0
 10
163.94876504135411
 20
90.810351091342184
 30
0.0
  0
VERTEX
  5
58975
  8
0
 10
164.01153337293451
 20
90.859704719248015
 30
0.0
  0
VERTEX
  5
58976
  8
0
 10
164.14081379436379
 20
90.961854192582209
 30
0.0
  0
VERTEX
  5
58977
  8
0
 10
164.27491863499981
 20
91.068373922530938
 30
0.0
  0
VERTEX
  5
58978
  8
0
 10
164.34371693822911
 20
91.123188921215743
 30
0.0
  0
SEQEND
  5
58979
  8
0
  0
LINE
  5
585E1
  8
0
 10
178.22266600334839
 20
71.000000000000014
 30
0.0
 11
162.72266600334839
 21
71.000000000000014
 31
0.0
  0
LINE
  5
585E2
  8
0
 10
178.01920419419611
 20
90.075000000000017
 30
0.0
 11
178.22266600334839
 21
90.075000000000017
 31
0.0
  0
LINE
  5
585E3
  8
0
 10
162.72266600334839
 20
90.075000000000017
 30
0.0
 11
162.92612781250071
 21
90.075000000000017
 31
0.0
  0
POLYLINE
  5
585E4
  8
0
 66
     1
 10
0.0
 20
0.0
 30
0.0
  0
VERTEX
  5
5897A
  8
0
 10
176.60161506846771
 20
91.123188921215743
 30
0.0
  0
VERTEX
  5
5897B
  8
0
 10
176.67041337169701
 20
91.068373922530938
 30
0.0
  0
VERTEX
  5
5897C
  8
0
 10
176.80451821233299
 20
90.961854192582209
 30
0.0
  0
VERTEX
  5
5897D
  8
0
 10
176.93379863376231
 20
90.859704719248015
 30
0.0
  0
VERTEX
  5
5897E
  8
0
 10
176.99656696534271
 20
90.810351091342184
 30
0.0
  0
VERTEX
  5
5897F
  8
0
 10
177.0580543157181
 20
90.762187933924722
 30
0.0
  0
VERTEX
  5
58980
  8
0
 10
177.17708835786979
 20
90.669559693167059
 30
0.0
  0
VERTEX
  5
58981
  8
0
 10
177.29070822274599
 20
90.582068973032435
 30
0.0
  0
VERTEX
  5
58982
  8
0
 10
177.39872651675131
 20
90.499957698075633
 30
0.0
  0
VERTEX
  5
58983
  8
0
 10
177.5009615644978
 20
90.423460761620035
 30
0.0
  0
VERTEX
  5
58984
  8
0
 10
177.59723782911919
 20
90.352806223383013
 30
0.0
  0
VERTEX
  5
58985
  8
0
 10
177.6430877737605
 20
90.319739734214764
 30
0.0
  0
VERTEX
  5
58986
  8
0
 10
177.68738396227641
 20
90.288217288970188
 30
0.0
  0
VERTEX
  5
58987
  8
0
 10
177.77123144510901
 20
90.229913745237297
 30
0.0
  0
VERTEX
  5
58988
  8
0
 10
177.84861526178929
 20
90.178111904107368
 30
0.0
  0
VERTEX
  5
58989
  8
0
 10
177.9193740126685
 20
90.133025028010664
 30
0.0
  0
VERTEX
  5
5898A
  8
0
 10
177.9833497857183
 20
90.094864008751955
 30
0.0
  0
VERTEX
  5
5898B
  8
0
 10
178.01986800878149
 20
90.075000000000017
 30
0.0
  0
SEQEND
  5
5898C
  8
0
  0
POLYLINE
  5
585E5
  8
0
 66
     1
 10
0.0
 20
0.0
 30
0.0
  0
VERTEX
  5
5898D
  8
0
 10
164.34371693822911
 20
91.123188921215743
 30
0.0
  0
VERTEX
  5
5898E
  8
0
 10
164.37492281368279
 20
91.148424465157674
 30
0.0
  0
VERTEX
  5
5898F
  8
0
 10
164.43618578709231
 20
91.200089814682201
 30
0.0
  0
VERTEX
  5
58990
  8
0
 10
164.49590447307509
 20
91.253347778820981
 30
0.0
  0
VERTEX
  5
58991
  8
0
 10
164.5251806284169
 20
91.280573406469316
 30
0.0
  0
VERTEX
  5
58992
  8
0
 10
164.55406617075241
 20
91.308196127675771
 30
0.0
  0
VERTEX
  5
58993
  8
0
 10
164.6106610566423
 20
91.364629797179589
 30
0.0
  0
VERTEX
  5
58994
  8
0
 10
164.66568798317371
 20
91.422647166392153
 30
0.0
  0
VERTEX
  5
58995
  8
0
 10
164.71916708434301
 20
91.482266330126464
 30
0.0
  0
VERTEX
  5
58996
  8
0
 10
164.7710983208851
 20
91.543481164860935
 30
0.0
  0
VERTEX
  5
58997
  8
0
 10
164.8214807999251
 20
91.606279102327434
 30
0.0
  0
VERTEX
  5
58998
  8
0
 10
164.8460915685375
 20
91.638266863442027
 30
0.0
  0
VERTEX
  5
58999
  8
0
 10
164.8703158090388
 20
91.670644133251727
 30
0.0
  0
VERTEX
  5
5899A
  8
0
 10
164.91760695411699
 20
91.736556911809785
 30
0.0
  0
VERTEX
  5
5899B
  8
0
 10
164.96336025871631
 20
91.803994888770617
 30
0.0
  0
VERTEX
  5
5899C
  8
0
 10
165.007584227021
 20
91.872932472944555
 30
0.0
  0
VERTEX
  5
5899D
  8
0
 10
165.05028987277089
 20
91.943341220497345
 30
0.0
  0
VERTEX
  5
5899E
  8
0
 10
165.09149071669279
 20
92.015190051651601
 30
0.0
  0
VERTEX
  5
5899F
  8
0
 10
165.11153174151909
 20
92.051644124786364
 30
0.0
  0
VERTEX
  5
589A0
  8
0
 10
165.1312027550982
 20
92.088445494279441
 30
0.0
  0
VERTEX
  5
589A1
  8
0
 10
165.16944440238601
 20
92.163071953887183
 30
0.0
  0
VERTEX
  5
589A2
  8
0
 10
165.20623641048999
 20
92.239032010076926
 30
0.0
  0
VERTEX
  5
589A3
  8
0
 10
165.22409588919481
 20
92.277500000000032
 30
0.0
  0
SEQEND
  5
589A4
  8
0
  0
POLYLINE
  5
585E6
  8
0
 66
     1
 10
0.0
 20
0.0
 30
0.0
  0
VERTEX
  5
589A5
  8
0
 10
165.22409588919481
 20
92.277500000000046
 30
0.0
  0
VERTEX
  5
589A6
  8
0
 10
165.26513624153111
 20
92.279766733374828
 30
0.0
  0
VERTEX
  5
589A7
  8
0
 10
165.34392129302319
 20
92.284581129689101
 30
0.0
  0
VERTEX
  5
589A8
  8
0
 10
165.4182435231468
 20
92.289775049550016
 30
0.0
  0
VERTEX
  5
589A9
  8
0
 10
165.45371438921919
 20
92.292516412218646
 30
0.0
  0
VERTEX
  5
589AA
  8
0
 10
165.4880474779184
 20
92.295354819897227
 30
0.0
  0
VERTEX
  5
589AB
  8
0
 10
165.55326672458779
 20
92.301324223231774
 30
0.0
  0
VERTEX
  5
589AC
  8
0
 10
165.61384047551979
 20
92.307685147682093
 30
0.0
  0
VERTEX
  5
589AD
  8
0
 10
165.6697187473703
 20
92.31443782401719
 30
0.0
  0
VERTEX
  5
589AE
  8
0
 10
165.72086301889669
 20
92.321580799415457
 30
0.0
  0
VERTEX
  5
589AF
  8
0
 10
165.7672467228918
 20
92.32911093250523
 30
0.0
  0
VERTEX
  5
589B0
  8
0
 10
165.78864841256791
 20
92.333019743668004
 30
0.0
  0
VERTEX
  5
589B1
  8
0
 10
165.80885557417719
 20
92.337023411092588
 30
0.0
  0
VERTEX
  5
589B2
  8
0
 10
165.8456877302834
 20
92.345311793134414
 30
0.0
  0
VERTEX
  5
589B3
  8
0
 10
165.87775350630551
 20
92.353967988839784
 30
0.0
  0
VERTEX
  5
589B4
  8
0
 10
165.90507462280331
 20
92.362982039666747
 30
0.0
  0
VERTEX
  5
589B5
  8
0
 10
165.92768457035729
 20
92.372342043354493
 30
0.0
  0
VERTEX
  5
589B6
  8
0
 10
165.94562927672561
 20
92.382034189124937
 30
0.0
  0
VERTEX
  5
589B7
  8
0
 10
165.95287003975969
 20
92.386999991843638
 30
0.0
  0
VERTEX
  5
589B8
  8
0
 10
165.95896758715901
 20
92.392042817669065
 30
0.0
  0
VERTEX
  5
589B9
  8
0
 10
165.9677715567139
 20
92.402350504665606
 30
0.0
  0
VERTEX
  5
589BA
  8
0
 10
165.97212655870729
 20
92.412938168108354
 30
0.0
  0
VERTEX
  5
589BB
  8
0
 10
165.97266600334839
 20
92.418330606450169
 30
0.0
  0
SEQEND
  5
589BC
  8
0
  0
LINE
  5
585E7
  8
0
 10
165.97266600334839
 20
93.378378378378358
 30
0.0
 11
165.97266600334839
 21
90.193111099346083
 31
0.0
  0
POLYLINE
  5
585E8
  8
0
 66
     1
 10
0.0
 20
0.0
 30
0.0
  0
VERTEX
  5
589BD
  8
0
 10
174.97266600334839
 20
92.418330606450183
 30
0.0
  0
VERTEX
  5
589BE
  8
0
 10
174.97320544798939
 20
92.412938168108354
 30
0.0
  0
VERTEX
  5
589BF
  8
0
 10
174.97756044998289
 20
92.402350504665606
 30
0.0
  0
VERTEX
  5
589C0
  8
0
 10
174.98636441953781
 20
92.392042817669065
 30
0.0
  0
VERTEX
  5
589C1
  8
0
 10
174.9924619669371
 20
92.386999991843638
 30
0.0
  0
VERTEX
  5
589C2
  8
0
 10
174.9997027299712
 20
92.382034189124937
 30
0.0
  0
VERTEX
  5
589C3
  8
0
 10
175.0176474363395
 20
92.372342043354493
 30
0.0
  0
VERTEX
  5
589C4
  8
0
 10
175.0402573838935
 20
92.362982039666747
 30
0.0
  0
VERTEX
  5
589C5
  8
0
 10
175.06757850039119
 20
92.353967988839784
 30
0.0
  0
VERTEX
  5
589C6
  8
0
 10
175.09964427641339
 20
92.345311793134414
 30
0.0
  0
VERTEX
  5
589C7
  8
0
 10
175.1364764325196
 20
92.337023411092588
 30
0.0
  0
VERTEX
  5
589C8
  8
0
 10
175.15668359412891
 20
92.333019743668004
 30
0.0
  0
VERTEX
  5
589C9
  8
0
 10
175.17808528380499
 20
92.32911093250523
 30
0.0
  0
VERTEX
  5
589CA
  8
0
 10
175.22446898780009
 20
92.321580799415457
 30
0.0
  0
VERTEX
  5
589CB
  8
0
 10
175.27561325932649
 20
92.31443782401719
 30
0.0
  0
VERTEX
  5
589CC
  8
0
 10
175.33149153117699
 20
92.307685147682093
 30
0.0
  0
VERTEX
  5
589CD
  8
0
 10
175.392065282109
 20
92.301324223231774
 30
0.0
  0
VERTEX
  5
589CE
  8
0
 10
175.45728452877839
 20
92.295354819897227
 30
0.0
  0
VERTEX
  5
589CF
  8
0
 10
175.49161761747749
 20
92.292516412218646
 30
0.0
  0
VERTEX
  5
589D0
  8
0
 10
175.52708848354999
 20
92.289775049550016
 30
0.0
  0
VERTEX
  5
589D1
  8
0
 10
175.6014107136736
 20
92.284581129689073
 30
0.0
  0
VERTEX
  5
589D2
  8
0
 10
175.68019576516559
 20
92.279766733374828
 30
0.0
  0
VERTEX
  5
589D3
  8
0
 10
175.721236117502
 20
92.277500000000046
 30
0.0
  0
SEQEND
  5
589D4
  8
0
  0
POLYLINE
  5
585E9
  8
0
 66
     1
 10
0.0
 20
0.0
 30
0.0
  0
VERTEX
  5
589D5
  8
0
 10
175.721236117502
 20
92.277500000000032
 30
0.0
  0
VERTEX
  5
589D6
  8
0
 10
175.73909559620421
 20
92.239032010082454
 30
0.0
  0
VERTEX
  5
589D7
  8
0
 10
175.77588760430811
 20
92.163071953892526
 30
0.0
  0
VERTEX
  5
589D8
  8
0
 10
175.814129251596
 20
92.088445494284386
 30
0.0
  0
VERTEX
  5
589D9
  8
0
 10
175.83380026517511
 20
92.051644124791096
 30
0.0
  0
VERTEX
  5
589DA
  8
0
 10
175.8538412900015
 20
92.015190051656134
 30
0.0
  0
VERTEX
  5
589DB
  8
0
 10
175.8950421339234
 20
91.943341220501495
 30
0.0
  0
VERTEX
  5
589DC
  8
0
 10
175.93774777967349
 20
91.872932472948321
 30
0.0
  0
VERTEX
  5
589DD
  8
0
 10
175.98197174797821
 20
91.803994888774
 30
0.0
  0
VERTEX
  5
589DE
  8
0
 10
176.02772505257769
 20
91.736556911812812
 30
0.0
  0
VERTEX
  5
589DF
  8
0
 10
176.07501619765591
 20
91.670644133254385
 30
0.0
  0
VERTEX
  5
589E0
  8
0
 10
176.09924043815741
 20
91.638266863444528
 30
0.0
  0
VERTEX
  5
589E1
  8
0
 10
176.1238512067699
 20
91.606279102329765
 30
0.0
  0
VERTEX
  5
589E2
  8
0
 10
176.17423368581009
 20
91.543481164862939
 30
0.0
  0
VERTEX
  5
589E3
  8
0
 10
176.22616492235241
 20
91.482266330128184
 30
0.0
  0
VERTEX
  5
589E4
  8
0
 10
176.2796440235218
 20
91.42264716639356
 30
0.0
  0
VERTEX
  5
589E5
  8
0
 10
176.33467095005341
 20
91.364629797180697
 30
0.0
  0
VERTEX
  5
589E6
  8
0
 10
176.3912658359435
 20
91.308196127676609
 30
0.0
  0
VERTEX
  5
589E7
  8
0
 10
176.4201513782792
 20
91.280573406470026
 30
0.0
  0
VERTEX
  5
589E8
  8
0
 10
176.44942753362099
 20
91.253347778821563
 30
0.0
  0
VERTEX
  5
589E9
  8
0
 10
176.50914621960419
 20
91.200089814682542
 30
0.0
  0
VERTEX
  5
589EA
  8
0
 10
176.5704091930138
 20
91.148424465157774
 30
0.0
  0
VERTEX
  5
589EB
  8
0
 10
176.60161506846771
 20
91.123188921215743
 30
0.0
  0
SEQEND
  5
589EC
  8
0
  0
LINE
  5
585EA
  8
0
 10
174.97266600334839
 20
93.378378378378358
 30
0.0
 11
174.97266600334839
 21
90.193111099346083
 31
0.0
  0
LINE
  5
585EB
  8
1
 10
170.47266600334839
 20
100.0
 30
0.0
 11
170.47266600334839
 21
50.000000000000007
 31
0.0
  0
LINE
  5
585EC
  8
0
 10
178.22266600334839
 20
71.000000000000014
 30
0.0
 11
178.22266600334839
 21
90.075000000000017
 31
0.0
  0
LINE
  5
585ED
  8
0
 10
162.72266600334839
 20
90.075000000000017
 30
0.0
 11
162.72266600334839
 21
71.000000000000014
 31
0.0
  0
LINE
  5
585EE
  8
0
 10
104.9918943104139
 20
65.200000000000045
 30
0.0
 11
104.9918943104139
 21
65.000000000000028
 31
0.0
  0
LINE
  5
585EF
  8
0
 10
97.991894310413912
 20
65.200000000000045
 30
0.0
 11
97.991894310413912
 21
65.000000000000028
 31
0.0
  0
LINE
  5
585F0
  8
0
 10
97.991894310413912
 20
65.000000000000028
 30
0.0
 11
104.9918943104139
 21
65.000000000000028
 31
0.0
  0
LINE
  5
585F1
  8
0
 10
107.4918943104139
 20
71.000000000000028
 30
0.0
 11
107.4918943104139
 21
65.700000000000159
 31
0.0
  0
LINE
  5
585F2
  8
0
 10
106.9918943104139
 20
65.200000000000045
 30
0.0
 11
107.4918943104139
 21
65.700000000000159
 31
0.0
  0
LINE
  5
585F3
  8
0
 10
95.491894310413883
 20
71.000000000000028
 30
0.0
 11
95.491894310413883
 21
65.700000000000159
 31
0.0
  0
LINE
  5
585F4
  8
0
 10
95.991894310413841
 20
65.200000000000045
 30
0.0
 11
106.9918943104139
 21
65.200000000000045
 31
0.0
  0
LINE
  5
585F5
  8
0
 10
95.991894310413841
 20
65.200000000000045
 30
0.0
 11
95.491894310413883
 21
65.700000000000159
 31
0.0
  0
LINE
  5
585F6
  8
0
 10
107.4918943104138
 20
70.200000000000045
 30
0.0
 11
95.491894310413883
 21
70.200000000000045
 31
0.0
  0
POLYLINE
  5
585F7
  8
0
 66
     1
 10
0.0
 20
0.0
 30
0.0
  0
VERTEX
  5
589ED
  8
0
 10
103.297330485769
 20
90.075000000000045
 30
0.0
  0
VERTEX
  5
589EE
  8
0
 10
103.3180525555244
 20
90.07736805139055
 30
0.0
  0
VERTEX
  5
589EF
  8
0
 10
103.56032759717159
 20
90.113246644747406
 30
0.0
  0
VERTEX
  5
589F0
  8
0
 10
103.7992755675908
 20
90.156723020704561
 30
0.0
  0
VERTEX
  5
589F1
  8
0
 10
104.03471347187561
 20
90.207561112763301
 30
0.0
  0
VERTEX
  5
589F2
  8
0
 10
104.266459401608
 20
90.265522555277457
 30
0.0
  0
VERTEX
  5
589F3
  8
0
 10
104.3808916895893
 20
90.297099170246497
 30
0.0
  0
VERTEX
  5
589F4
  8
0
 10
104.49433401648101
 20
90.330365716906059
 30
0.0
  0
VERTEX
  5
589F5
  8
0
 10
104.7181620882818
 20
90.401845064791345
 30
0.0
  0
VERTEX
  5
589F6
  8
0
 10
104.9377744498389
 20
90.479710991007536
 30
0.0
  0
VERTEX
  5
589F7
  8
0
 10
105.1530075975555
 20
90.563709075495723
 30
0.0
  0
VERTEX
  5
589F8
  8
0
 10
105.3636988094418
 20
90.653577240611057
 30
0.0
  0
VERTEX
  5
589F9
  8
0
 10
105.56968842664349
 20
90.749045225909271
 30
0.0
  0
VERTEX
  5
589FA
  8
0
 10
105.6708716749939
 20
90.798792435991857
 30
0.0
  0
VERTEX
  5
589FB
  8
0
 10
105.7708222343111
 20
90.849834522714332
 30
0.0
  0
VERTEX
  5
589FC
  8
0
 10
105.9669534796072
 20
90.955658548584921
 30
0.0
  0
VERTEX
  5
589FD
  8
0
 10
106.1579445577985
 20
91.066223001374496
 30
0.0
  0
VERTEX
  5
589FE
  8
0
 10
106.25147237545001
 20
91.123188921215757
 30
0.0
  0
SEQEND
  5
589FF
  8
0
  0
ARC
  5
585F8
  8
0
 10
126.7418943104139
 20
138.86425929588779
 30
0.0
 40
4.4999999999999538
 50
270.0
 51
90.0
  0
ARC
  5
585F9
  8
0
 10
101.4918943104139
 20
138.86425929588779
 30
0.0
 40
7.7499999999999982
 50
85.88286395676748
 51
274.1171360432316
  0
CIRCLE
  5
585FA
  8
0
 10
101.4918943104139
 20
138.86425929588779
 30
0.0
 40
3.8749999999999991
  0
LINE
  5
585FB
  8
0
 10
102.1735833891001
 20
131.1342592958878
 30
0.0
 11
102.04831142014361
 21
131.1342592958878
 31
0.0
  0
LINE
  5
585FC
  8
0
 10
102.1735833891001
 20
146.59425929588781
 30
0.0
 11
102.04831142014361
 21
146.59425929588781
 31
0.0
  0
POLYLINE
  5
585FD
  8
0
 66
     1
 10
0.0
 20
0.0
 30
0.0
  0
VERTEX
  5
58A00
  8
0
 10
106.25147237545001
 20
144.99320836100711
 30
0.0
  0
VERTEX
  5
58A01
  8
0
 10
106.1579445577984
 20
145.06470888352919
 30
0.0
  0
VERTEX
  5
58A02
  8
0
 10
105.9669534796072
 20
145.20393164011969
 30
0.0
  0
VERTEX
  5
58A03
  8
0
 10
105.7708222343111
 20
145.3379271760075
 30
0.0
  0
VERTEX
  5
58A04
  8
0
 10
105.6708716749939
 20
145.4028943358887
 30
0.0
  0
VERTEX
  5
58A05
  8
0
 10
105.56968842664349
 20
145.4664706788748
 30
0.0
  0
VERTEX
  5
58A06
  8
0
 10
105.3636988094417
 20
145.58934144566911
 30
0.0
  0
VERTEX
  5
58A07
  8
0
 10
105.1530075975555
 20
145.70632400609881
 30
0.0
  0
VERTEX
  5
58A08
  8
0
 10
104.9377744498389
 20
145.8172090342878
 30
0.0
  0
VERTEX
  5
58A09
  8
0
 10
104.7181620882818
 20
145.92179400890839
 30
0.0
  0
VERTEX
  5
58A0A
  8
0
 10
104.49433401648101
 20
146.01988336450901
 30
0.0
  0
VERTEX
  5
58A0B
  8
0
 10
104.3808916895893
 20
146.0664321723965
 30
0.0
  0
VERTEX
  5
58A0C
  8
0
 10
104.266459401608
 20
146.11128548286459
 30
0.0
  0
VERTEX
  5
58A0D
  8
0
 10
104.03471347187561
 20
146.19581238592971
 30
0.0
  0
VERTEX
  5
58A0E
  8
0
 10
103.7992755675908
 20
146.27328026589649
 30
0.0
  0
VERTEX
  5
58A0F
  8
0
 10
103.56032759717149
 20
146.34350950819069
 30
0.0
  0
VERTEX
  5
58A10
  8
0
 10
103.3180525555244
 20
146.40632440193241
 30
0.0
  0
VERTEX
  5
58A11
  8
0
 10
103.0726332276254
 20
146.46155252937649
 30
0.0
  0
VERTEX
  5
58A12
  8
0
 10
102.9488012711392
 20
146.4862683556955
 30
0.0
  0
VERTEX
  5
58A13
  8
0
 10
102.8236312391454
 20
146.50913187511711
 30
0.0
  0
VERTEX
  5
58A14
  8
0
 10
102.567881045253
 20
146.5493001250864
 30
0.0
  0
VERTEX
  5
58A15
  8
0
 10
102.30618214404051
 20
146.58141779652831
 30
0.0
  0
VERTEX
  5
58A16
  8
0
 10
102.1735833891001
 20
146.59425929588781
 30
0.0
  0
SEQEND
  5
58A17
  8
0
  0
POLYLINE
  5
585FE
  8
0
 66
     1
 10
0.0
 20
0.0
 30
0.0
  0
VERTEX
  5
58A18
  8
0
 10
102.1735833891001
 20
131.1342592958878
 30
0.0
  0
VERTEX
  5
58A19
  8
0
 10
102.30618214404051
 20
131.1471007952473
 30
0.0
  0
VERTEX
  5
58A1A
  8
0
 10
102.5678810452531
 20
131.17921846668921
 30
0.0
  0
VERTEX
  5
58A1B
  8
0
 10
102.8236312391455
 20
131.21938671665839
 30
0.0
  0
VERTEX
  5
58A1C
  8
0
 10
102.9488012711392
 20
131.24225023608011
 30
0.0
  0
VERTEX
  5
58A1D
  8
0
 10
103.0726332276255
 20
131.26696606239909
 30
0.0
  0
VERTEX
  5
58A1E
  8
0
 10
103.3180525555244
 20
131.3221941898432
 30
0.0
  0
VERTEX
  5
58A1F
  8
0
 10
103.56032759717149
 20
131.38500908358489
 30
0.0
  0
VERTEX
  5
58A20
  8
0
 10
103.7992755675908
 20
131.45523832587909
 30
0.0
  0
VERTEX
  5
58A21
  8
0
 10
104.03471347187561
 20
131.5327062058459
 30
0.0
  0
VERTEX
  5
58A22
  8
0
 10
104.266459401608
 20
131.61723310891099
 30
0.0
  0
VERTEX
  5
58A23
  8
0
 10
104.3808916895893
 20
131.66208641937911
 30
0.0
  0
VERTEX
  5
58A24
  8
0
 10
104.49433401648101
 20
131.70863522726651
 30
0.0
  0
VERTEX
  5
58A25
  8
0
 10
104.7181620882818
 20
131.80672458286719
 30
0.0
  0
VERTEX
  5
58A26
  8
0
 10
104.9377744498389
 20
131.91130955748781
 30
0.0
  0
VERTEX
  5
58A27
  8
0
 10
105.1530075975555
 20
132.02219458567669
 30
0.0
  0
VERTEX
  5
58A28
  8
0
 10
105.3636988094418
 20
132.1391771461065
 30
0.0
  0
VERTEX
  5
58A29
  8
0
 10
105.56968842664349
 20
132.26204791290081
 30
0.0
  0
VERTEX
  5
58A2A
  8
0
 10
105.6708716749939
 20
132.32562425588679
 30
0.0
  0
VERTEX
  5
58A2B
  8
0
 10
105.7708222343111
 20
132.39059141576811
 30
0.0
  0
VERTEX
  5
58A2C
  8
0
 10
105.9669534796072
 20
132.52458695165589
 30
0.0
  0
VERTEX
  5
58A2D
  8
0
 10
106.1579445577984
 20
132.66380970824639
 30
0.0
  0
VERTEX
  5
58A2E
  8
0
 10
106.25147237545001
 20
132.7353102307685
 30
0.0
  0
SEQEND
  5
58A2F
  8
0
  0
POLYLINE
  5
585FF
  8
0
 66
     1
 10
0.0
 20
0.0
 30
0.0
  0
VERTEX
  5
58A30
  8
0
 10
106.25147237545001
 20
132.7353102307685
 30
0.0
  0
VERTEX
  5
58A31
  8
0
 10
106.2919310587082
 20
132.76651610622221
 30
0.0
  0
VERTEX
  5
58A32
  8
0
 10
106.3729981498642
 20
132.82777907963171
 30
0.0
  0
VERTEX
  5
58A33
  8
0
 10
106.4542050300719
 20
132.88749776561451
 30
0.0
  0
VERTEX
  5
58A34
  8
0
 10
106.4948383167455
 20
132.9167739209563
 30
0.0
  0
VERTEX
  5
58A35
  8
0
 10
106.5354794240195
 20
132.9456594632918
 30
0.0
  0
VERTEX
  5
58A36
  8
0
 10
106.6167488721172
 20
133.0022543491817
 30
0.0
  0
VERTEX
  5
58A37
  8
0
 10
106.69794961202849
 20
133.05728127571311
 30
0.0
  0
VERTEX
  5
58A38
  8
0
 10
106.779047383898
 20
133.1107603768823
 30
0.0
  0
VERTEX
  5
58A39
  8
0
 10
106.8599761699751
 20
133.16269161342441
 30
0.0
  0
VERTEX
  5
58A3A
  8
0
 10
106.940665091423
 20
133.2130740924645
 30
0.0
  0
VERTEX
  5
58A3B
  8
0
 10
106.98089735847719
 20
133.2376848610769
 30
0.0
  0
VERTEX
  5
58A3C
  8
0
 10
107.0210429619633
 20
133.26190910157831
 30
0.0
  0
VERTEX
  5
58A3D
  8
0
 10
107.1010386783899
 20
133.30920024665639
 30
0.0
  0
VERTEX
  5
58A3E
  8
0
 10
107.18058160230341
 20
133.3549535512557
 30
0.0
  0
VERTEX
  5
58A3F
  8
0
 10
107.2596019303768
 20
133.3991775195604
 30
0.0
  0
VERTEX
  5
58A40
  8
0
 10
107.33803105077089
 20
133.44188316531029
 30
0.0
  0
VERTEX
  5
58A41
  8
0
 10
107.41580188361699
 20
133.48308400923219
 30
0.0
  0
VERTEX
  5
58A42
  8
0
 10
107.4544199784625
 20
133.50312503405851
 30
0.0
  0
VERTEX
  5
58A43
  8
0
 10
107.49284920375629
 20
133.5227960476376
 30
0.0
  0
VERTEX
  5
58A44
  8
0
 10
107.5691099441829
 20
133.5610376949254
 30
0.0
  0
VERTEX
  5
58A45
  8
0
 10
107.64452347942169
 20
133.59782970302939
 30
0.0
  0
VERTEX
  5
58A46
  8
0
 10
107.6818943104139
 20
133.61568918173421
 30
0.0
  0
SEQEND
  5
58A47
  8
0
  0
POLYLINE
  5
58600
  8
0
 66
     1
 10
0.0
 20
0.0
 30
0.0
  0
VERTEX
  5
58A48
  8
0
 10
107.6818943104139
 20
133.61568918173421
 30
0.0
  0
VERTEX
  5
58A49
  8
0
 10
107.7697797262759
 20
133.65672953407051
 30
0.0
  0
VERTEX
  5
58A4A
  8
0
 10
107.94710351289871
 20
133.73551458556261
 30
0.0
  0
VERTEX
  5
58A4B
  8
0
 10
108.126347152638
 20
133.8098368156862
 30
0.0
  0
VERTEX
  5
58A4C
  8
0
 10
108.2166488198943
 20
133.8453076817587
 30
0.0
  0
VERTEX
  5
58A4D
  8
0
 10
108.3073751142519
 20
133.8796407704578
 30
0.0
  0
VERTEX
  5
58A4E
  8
0
 10
108.4900028366817
 20
133.9448600171271
 30
0.0
  0
VERTEX
  5
58A4F
  8
0
 10
108.6740287376376
 20
134.00543376805919
 30
0.0
  0
VERTEX
  5
58A50
  8
0
 10
108.85924564026929
 20
134.06131203990969
 30
0.0
  0
VERTEX
  5
58A51
  8
0
 10
109.04544215742639
 20
134.11245631143609
 30
0.0
  0
VERTEX
  5
58A52
  8
0
 10
109.2324041240695
 20
134.1588400154312
 30
0.0
  0
VERTEX
  5
58A53
  8
0
 10
109.3261048289683
 20
134.18024170510731
 30
0.0
  0
VERTEX
  5
58A54
  8
0
 10
109.4199160817538
 20
134.20044886671661
 30
0.0
  0
VERTEX
  5
58A55
  8
0
 10
109.6077628022129
 20
134.2372810228228
 30
0.0
  0
VERTEX
  5
58A56
  8
0
 10
109.7957290865217
 20
134.26934679884499
 30
0.0
  0
VERTEX
  5
58A57
  8
0
 10
109.983595366977
 20
134.29666791534271
 30
0.0
  0
VERTEX
  5
58A58
  8
0
 10
110.1711370873433
 20
134.31927786289671
 30
0.0
  0
VERTEX
  5
58A59
  8
0
 10
110.35812621067571
 20
134.33722256926501
 30
0.0
  0
VERTEX
  5
58A5A
  8
0
 10
110.4513417153704
 20
134.34446333229911
 30
0.0
  0
VERTEX
  5
58A5B
  8
0
 10
110.54433276464
 20
134.35056087969841
 30
0.0
  0
VERTEX
  5
58A5C
  8
0
 10
110.7295263914524
 20
134.3593648492533
 30
0.0
  0
VERTEX
  5
58A5D
  8
0
 10
110.91347790774449
 20
134.3637198512468
 30
0.0
  0
VERTEX
  5
58A5E
  8
0
 10
111.0049169635983
 20
134.36425929588779
 30
0.0
  0
SEQEND
  5
58A5F
  8
0
  0
LINE
  5
58601
  8
0
 10
111.0049169635983
 20
134.36425929588779
 30
0.0
 11
126.7418943103936
 21
134.36425929588779
 31
0.0
  0
POLYLINE
  5
58602
  8
0
 66
     1
 10
0.0
 20
0.0
 30
0.0
  0
VERTEX
  5
58A60
  8
0
 10
111.0049169635983
 20
143.36425929588779
 30
0.0
  0
VERTEX
  5
58A61
  8
0
 10
110.91347790774449
 20
143.36479874052881
 30
0.0
  0
VERTEX
  5
58A62
  8
0
 10
110.7295263914525
 20
143.36915374252229
 30
0.0
  0
VERTEX
  5
58A63
  8
0
 10
110.54433276464
 20
143.3779577120772
 30
0.0
  0
VERTEX
  5
58A64
  8
0
 10
110.4513417153704
 20
143.3840552594765
 30
0.0
  0
VERTEX
  5
58A65
  8
0
 10
110.35812621067581
 20
143.39129602251049
 30
0.0
  0
VERTEX
  5
58A66
  8
0
 10
110.1711370873433
 20
143.4092407288789
 30
0.0
  0
VERTEX
  5
58A67
  8
0
 10
109.983595366977
 20
143.4318506764329
 30
0.0
  0
VERTEX
  5
58A68
  8
0
 10
109.7957290865217
 20
143.45917179293059
 30
0.0
  0
VERTEX
  5
58A69
  8
0
 10
109.6077628022129
 20
143.49123756895281
 30
0.0
  0
VERTEX
  5
58A6A
  8
0
 10
109.4199160817538
 20
143.528069725059
 30
0.0
  0
VERTEX
  5
58A6B
  8
0
 10
109.3261048289683
 20
143.5482768866683
 30
0.0
  0
VERTEX
  5
58A6C
  8
0
 10
109.2324041240695
 20
143.56967857634439
 30
0.0
  0
VERTEX
  5
58A6D
  8
0
 10
109.04544215742639
 20
143.61606228033949
 30
0.0
  0
VERTEX
  5
58A6E
  8
0
 10
108.85924564026929
 20
143.66720655186589
 30
0.0
  0
VERTEX
  5
58A6F
  8
0
 10
108.6740287376376
 20
143.72308482371639
 30
0.0
  0
VERTEX
  5
58A70
  8
0
 10
108.4900028366817
 20
143.7836585746484
 30
0.0
  0
VERTEX
  5
58A71
  8
0
 10
108.3073751142519
 20
143.84887782131781
 30
0.0
  0
VERTEX
  5
58A72
  8
0
 10
108.2166488198943
 20
143.88321091001691
 30
0.0
  0
VERTEX
  5
58A73
  8
0
 10
108.126347152638
 20
143.91868177608939
 30
0.0
  0
VERTEX
  5
58A74
  8
0
 10
107.94710351289871
 20
143.993004006213
 30
0.0
  0
VERTEX
  5
58A75
  8
0
 10
107.7697797262758
 20
144.0717890577051
 30
0.0
  0
VERTEX
  5
58A76
  8
0
 10
107.6818943104139
 20
144.1128294100414
 30
0.0
  0
SEQEND
  5
58A77
  8
0
  0
POLYLINE
  5
58603
  8
0
 66
     1
 10
0.0
 20
0.0
 30
0.0
  0
VERTEX
  5
58A78
  8
0
 10
107.6818943104139
 20
144.1128294100414
 30
0.0
  0
VERTEX
  5
58A79
  8
0
 10
107.64452347942721
 20
144.13068888874361
 30
0.0
  0
VERTEX
  5
58A7A
  8
0
 10
107.5691099441883
 20
144.16748089684751
 30
0.0
  0
VERTEX
  5
58A7B
  8
0
 10
107.49284920376139
 20
144.20572254413531
 30
0.0
  0
VERTEX
  5
58A7C
  8
0
 10
107.4544199784675
 20
144.22539355771451
 30
0.0
  0
VERTEX
  5
58A7D
  8
0
 10
107.4158018836219
 20
144.24543458254081
 30
0.0
  0
VERTEX
  5
58A7E
  8
0
 10
107.3380310507755
 20
144.28663542646279
 30
0.0
  0
VERTEX
  5
58A7F
  8
0
 10
107.259601930381
 20
144.32934107221291
 30
0.0
  0
VERTEX
  5
58A80
  8
0
 10
107.1805816023073
 20
144.37356504051769
 30
0.0
  0
VERTEX
  5
58A81
  8
0
 10
107.10103867839349
 20
144.41931834511709
 30
0.0
  0
VERTEX
  5
58A82
  8
0
 10
107.0210429619666
 20
144.46660949019531
 30
0.0
  0
VERTEX
  5
58A83
  8
0
 10
106.98089735848031
 20
144.49083373069681
 30
0.0
  0
VERTEX
  5
58A84
  8
0
 10
106.9406650914259
 20
144.5154444993093
 30
0.0
  0
VERTEX
  5
58A85
  8
0
 10
106.8599761699777
 20
144.56582697834949
 30
0.0
  0
VERTEX
  5
58A86
  8
0
 10
106.77904738390021
 20
144.61775821489181
 30
0.0
  0
VERTEX
  5
58A87
  8
0
 10
106.6979496120304
 20
144.67123731606119
 30
0.0
  0
VERTEX
  5
58A88
  8
0
 10
106.61674887211881
 20
144.7262642425928
 30
0.0
  0
VERTEX
  5
58A89
  8
0
 10
106.53547942402071
 20
144.7828591284829
 30
0.0
  0
VERTEX
  5
58A8A
  8
0
 10
106.4948383167465
 20
144.81174467081851
 30
0.0
  0
VERTEX
  5
58A8B
  8
0
 10
106.4542050300727
 20
144.84102082616039
 30
0.0
  0
VERTEX
  5
58A8C
  8
0
 10
106.3729981498647
 20
144.9007395121435
 30
0.0
  0
VERTEX
  5
58A8D
  8
0
 10
106.2919310587083
 20
144.9620024855532
 30
0.0
  0
VERTEX
  5
58A8E
  8
0
 10
106.25147237545001
 20
144.99320836100711
 30
0.0
  0
SEQEND
  5
58A8F
  8
0
  0
LINE
  5
58604
  8
0
 10
126.7418943104139
 20
143.36425929588779
 30
0.0
 11
111.0049169635983
 21
143.36425929588779
 31
0.0
  0
LINE
  5
58605
  8
1
 10
88.741894310413898
 20
138.86425929588779
 30
0.0
 11
136.2418943104139
 21
138.86425929588779
 31
0.0
  0
LINE
  5
58606
  8
1
 10
101.4918943104139
 20
126.11425929588781
 30
0.0
 11
101.4918943104139
 21
151.61425929588779
 31
0.0
  0
ARC
  5
58607
  8
0
 10
97.911894310413913
 20
94.205000000000041
 30
0.0
 40
0.2950000000000088
 50
90.0
 51
180.0
  0
ARC
  5
58608
  8
0
 10
105.0718943104139
 20
94.205000000000041
 30
0.0
 40
0.2950000000000048
 50
0.0
 51
90.0
  0
LINE
  5
58609
  8
0
 10
93.741894310413898
 20
90.075000000000045
 30
0.0
 11
93.741894310413898
 21
71.000000000000028
 31
0.0
  0
LINE
  5
5860A
  8
0
 10
105.3668943104139
 20
90.655002192962343
 30
0.0
 11
105.3668943104139
 21
94.205000000000041
 31
0.0
  0
LINE
  5
5860B
  8
0
 10
97.616894310413883
 20
94.205000000000041
 30
0.0
 11
97.616894310413883
 21
90.075000000000045
 31
0.0
  0
ARC
  5
5860C
  8
0
 10
122.7252558902524
 20
73.276503315329819
 30
0.0
 40
14.54234462226707
 50
131.77483728122499
 51
157.9993104670522
  0
LINE
  5
5860D
  8
0
 10
105.0718943104139
 20
94.500000000000014
 30
0.0
 11
97.911894310413913
 21
94.500000000000014
 31
0.0
  0
LINE
  5
5860E
  8
0
 10
109.2418943104139
 20
71.000000000000028
 30
0.0
 11
93.741894310413898
 21
71.000000000000028
 31
0.0
  0
LINE
  5
5860F
  8
0
 10
103.29983063414829
 20
90.075000000000045
 30
0.0
 11
93.741894310413898
 21
90.075000000000045
 31
0.0
  0
POLYLINE
  5
58610
  8
0
 66
     1
 10
0.0
 20
0.0
 30
0.0
  0
VERTEX
  5
58A90
  8
0
 10
106.25147237545011
 20
91.123188921215757
 30
0.0
  0
VERTEX
  5
58A91
  8
0
 10
106.2919310587082
 20
91.148424465157703
 30
0.0
  0
VERTEX
  5
58A92
  8
0
 10
106.3729981498642
 20
91.200089814682215
 30
0.0
  0
VERTEX
  5
58A93
  8
0
 10
106.4542050300719
 20
91.253347778820995
 30
0.0
  0
VERTEX
  5
58A94
  8
0
 10
106.4948383167455
 20
91.280573406469316
 30
0.0
  0
VERTEX
  5
58A95
  8
0
 10
106.5354794240195
 20
91.308196127675814
 30
0.0
  0
VERTEX
  5
58A96
  8
0
 10
106.6167488721172
 20
91.364629797179603
 30
0.0
  0
VERTEX
  5
58A97
  8
0
 10
106.69794961202849
 20
91.422647166392181
 30
0.0
  0
VERTEX
  5
58A98
  8
0
 10
106.779047383898
 20
91.482266330126535
 30
0.0
  0
VERTEX
  5
58A99
  8
0
 10
106.8599761699751
 20
91.543481164860964
 30
0.0
  0
VERTEX
  5
58A9A
  8
0
 10
106.940665091423
 20
91.606279102327477
 30
0.0
  0
VERTEX
  5
58A9B
  8
0
 10
106.98089735847719
 20
91.638266863442055
 30
0.0
  0
VERTEX
  5
58A9C
  8
0
 10
107.0210429619633
 20
91.670644133251756
 30
0.0
  0
VERTEX
  5
58A9D
  8
0
 10
107.1010386783899
 20
91.736556911809814
 30
0.0
  0
VERTEX
  5
58A9E
  8
0
 10
107.1805816023035
 20
91.803994888770617
 30
0.0
  0
VERTEX
  5
58A9F
  8
0
 10
107.2596019303768
 20
91.872932472944598
 30
0.0
  0
VERTEX
  5
58AA0
  8
0
 10
107.33803105077089
 20
91.943341220497373
 30
0.0
  0
VERTEX
  5
58AA1
  8
0
 10
107.41580188361699
 20
92.015190051651643
 30
0.0
  0
VERTEX
  5
58AA2
  8
0
 10
107.4544199784626
 20
92.051644124786407
 30
0.0
  0
VERTEX
  5
58AA3
  8
0
 10
107.49284920375629
 20
92.088445494279483
 30
0.0
  0
VERTEX
  5
58AA4
  8
0
 10
107.5691099441829
 20
92.163071953887226
 30
0.0
  0
VERTEX
  5
58AA5
  8
0
 10
107.64452347942169
 20
92.239032010076954
 30
0.0
  0
VERTEX
  5
58AA6
  8
0
 10
107.6818943104139
 20
92.277500000000046
 30
0.0
  0
SEQEND
  5
58AA7
  8
0
  0
ARC
  5
58611
  8
0
 10
130.74521546830891
 20
-3.9422078784124031
 30
0.0
 40
98.945181626186866
 50
94.833199302842644
 51
103.4791739195428
  0
ARC
  5
58612
  8
0
 10
125.490206221062
 20
87.864795191828335
 30
0.0
 40
2.5613975640091562
 50
55.833055354386403
 51
109.49000965609569
  0
LINE
  5
58613
  8
0
 10
122.4085660145589
 20
94.651145056379264
 30
0.0
 11
128.8841762452389
 21
95.000000000000028
 31
0.0
  0
LINE
  5
58614
  8
0
 10
131.2418943104139
 20
92.642281934825604
 30
0.0
 11
131.2418943104139
 21
91.976111155545738
 31
0.0
  0
LINE
  5
58615
  8
0
 10
128.54189431041391
 20
88.000000000000014
 30
0.0
 11
128.48189431041391
 21
88.000000000000014
 31
0.0
  0
LINE
  5
58616
  8
1
 10
101.4918943104139
 20
99.500000000000014
 30
0.0
 11
101.4918943104139
 21
50.000000000000007
 31
0.0
  0
LINE
  5
58629
  8
0
 10
165.97266600334839
 20
90.193111099346083
 30
0.0
 11
165.97266600334839
 21
84.492041703591198
 31
0.0
  0
POLYLINE
  5
5862A
  8
0
 66
     1
 10
0.0
 20
0.0
 30
0.0
  0
VERTEX
  5
58AA8
  8
0
 10
165.97266600334839
 20
84.492041703591198
 30
0.0
  0
VERTEX
  5
58AA9
  8
0
 10
165.97233629810589
 20
84.437578855535207
 30
0.0
  0
VERTEX
  5
58AAA
  8
0
 10
165.96969390094881
 20
84.329502099841974
 30
0.0
  0
VERTEX
  5
58AAB
  8
0
 10
165.96439838898121
 20
84.222650773515937
 30
0.0
  0
VERTEX
  5
58AAC
  8
0
 10
165.96075291859631
 20
84.169720050706857
 30
0.0
  0
SEQEND
  5
58AAD
  8
0
  0
POLYLINE
  5
5862B
  8
0
 66
     1
 10
0.0
 20
0.0
 30
0.0
  0
VERTEX
  5
58AAE
  8
0
 10
164.89761194604191
 20
80.665439312592596
 30
0.0
  0
VERTEX
  5
58AAF
  8
0
 10
164.93780454343701
 20
80.737169904546107
 30
0.0
  0
VERTEX
  5
58AB0
  8
0
 10
165.01718234295569
 20
80.889636887076264
 30
0.0
  0
VERTEX
  5
58AB1
  8
0
 10
165.09534649012161
 20
81.052974841323405
 30
0.0
  0
VERTEX
  5
58AB2
  8
0
 10
165.13447477760729
 20
81.139433337346063
 30
0.0
  0
VERTEX
  5
58AB3
  8
0
 10
165.17361135452421
 20
81.228963016837596
 30
0.0
  0
VERTEX
  5
58AB4
  8
0
 10
165.25164101026451
 20
81.416472270568249
 30
0.0
  0
VERTEX
  5
58AB5
  8
0
 10
165.32888845452899
 20
81.613980559173413
 30
0.0
  0
VERTEX
  5
58AB6
  8
0
 10
165.4047866346281
 20
81.819979888113025
 30
0.0
  0
VERTEX
  5
58AB7
  8
0
 10
165.47874577772211
 20
82.032981056945047
 30
0.0
  0
VERTEX
  5
58AB8
  8
0
 10
165.5497356566546
 20
82.250199458722207
 30
0.0
  0
VERTEX
  5
58AB9
  8
0
 10
165.58351180089591
 20
82.358528500708346
 30
0.0
  0
VERTEX
  5
58ABA
  8
0
 10
165.61609008892299
 20
82.466450028813995
 30
0.0
  0
VERTEX
  5
58ABB
  8
0
 10
165.67757838473199
 20
82.680731774896316
 30
0.0
  0
VERTEX
  5
58ABC
  8
0
 10
165.73402425960791
 20
82.892400114050091
 30
0.0
  0
VERTEX
  5
58ABD
  8
0
 10
165.78521402425901
 20
83.100855619346092
 30
0.0
  0
VERTEX
  5
58ABE
  8
0
 10
165.83092229236479
 20
83.305629954620187
 30
0.0
  0
VERTEX
  5
58ABF
  8
0
 10
165.87090671896431
 20
83.506395707154965
 30
0.0
  0
VERTEX
  5
58AC0
  8
0
 10
165.88865010022971
 20
83.605104245102453
 30
0.0
  0
VERTEX
  5
58AC1
  8
0
 10
165.9048360325568
 20
83.702605832742265
 30
0.0
  0
VERTEX
  5
58AC2
  8
0
 10
165.93235160891899
 20
83.893723346927473
 30
0.0
  0
VERTEX
  5
58AC3
  8
0
 10
165.95306981570189
 20
84.079229360621255
 30
0.0
  0
VERTEX
  5
58AC4
  8
0
 10
165.96075291859631
 20
84.169720050706857
 30
0.0
  0
SEQEND
  5
58AC5
  8
0
  0
LINE
  5
5862C
  8
0
 10
164.89761194604191
 20
78.724323762087948
 30
0.0
 11
164.89761194604191
 21
80.665439312592596
 31
0.0
  0
LINE
  5
5862D
  8
0
 10
168.97266600334839
 20
78.724323762087948
 30
0.0
 11
168.97266600334839
 21
88.257327873704625
 31
0.0
  0
LINE
  5
5862E
  8
0
 10
171.97266600334839
 20
78.724323762087948
 30
0.0
 11
171.97266600334839
 21
88.257327873703204
 31
0.0
  0
LINE
  5
5862F
  8
0
 10
174.97266600334839
 20
90.193111099346083
 30
0.0
 11
174.97266600334839
 21
84.492041703591198
 31
0.0
  0
POLYLINE
  5
58630
  8
0
 66
     1
 10
0.0
 20
0.0
 30
0.0
  0
VERTEX
  5
58AC6
  8
0
 10
174.9845790881005
 20
84.169720050706857
 30
0.0
  0
VERTEX
  5
58AC7
  8
0
 10
174.9809336239567
 20
84.222650673471932
 30
0.0
  0
VERTEX
  5
58AC8
  8
0
 10
174.9756381109062
 20
84.329501960094305
 30
0.0
  0
VERTEX
  5
58AC9
  8
0
 10
174.97299570925651
 20
84.437578800718924
 30
0.0
  0
VERTEX
  5
58ACA
  8
0
 10
174.97266600334839
 20
84.492041703591198
 30
0.0
  0
SEQEND
  5
58ACB
  8
0
  0
POLYLINE
  5
58631
  8
0
 66
     1
 10
0.0
 20
0.0
 30
0.0
  0
VERTEX
  5
58ACC
  8
0
 10
174.9845790881005
 20
84.169720050706857
 30
0.0
  0
VERTEX
  5
58ACD
  8
0
 10
174.99258851925671
 20
84.075775879907425
 30
0.0
  0
VERTEX
  5
58ACE
  8
0
 10
175.01436571563829
 20
83.883007400269889
 30
0.0
  0
VERTEX
  5
58ACF
  8
0
 10
175.04344687533401
 20
83.684191883014918
 30
0.0
  0
VERTEX
  5
58AD0
  8
0
 10
175.06059366200259
 20
83.582692727855317
 30
0.0
  0
VERTEX
  5
58AD1
  8
0
 10
175.0794109082949
 20
83.479895717272527
 30
0.0
  0
VERTEX
  5
58AD2
  8
0
 10
175.1218669189638
 20
83.270705813386357
 30
0.0
  0
VERTEX
  5
58AD3
  8
0
 10
175.17045390510299
 20
83.057233667233476
 30
0.0
  0
VERTEX
  5
58AD4
  8
0
 10
175.22482434688581
 20
82.840186126493862
 30
0.0
  0
VERTEX
  5
58AD5
  8
0
 10
175.28391031157301
 20
82.622952514983908
 30
0.0
  0
VERTEX
  5
58AD6
  8
0
 10
175.34673539626931
 20
82.408059581803116
 30
0.0
  0
VERTEX
  5
58AD7
  8
0
 10
175.37934577043271
 20
82.301888686398414
 30
0.0
  0
VERTEX
  5
58AD8
  8
0
 10
175.41264831416541
 20
82.1967820211689
 30
0.0
  0
VERTEX
  5
58AD9
  8
0
 10
175.4810179724912
 20
81.990407143143557
 30
0.0
  0
VERTEX
  5
58ADA
  8
0
 10
175.55123139723071
 20
81.790231987996236
 30
0.0
  0
VERTEX
  5
58ADB
  8
0
 10
175.62269107200879
 20
81.597559852509121
 30
0.0
  0
VERTEX
  5
58ADC
  8
0
 10
175.69481126761741
 20
81.413695410359097
 30
0.0
  0
VERTEX
  5
58ADD
  8
0
 10
175.76701270471011
 20
81.239936981265814
 30
0.0
  0
VERTEX
  5
58ADE
  8
0
 10
175.80362016095441
 20
81.155760178785016
 30
0.0
  0
VERTEX
  5
58ADF
  8
0
 10
175.8415603038853
 20
81.071331109574359
 30
0.0
  0
VERTEX
  5
58AE0
  8
0
 10
175.92104904615641
 20
80.903946631628386
 30
0.0
  0
VERTEX
  5
58AE1
  8
0
 10
176.00464935193591
 20
80.742451154688169
 30
0.0
  0
VERTEX
  5
58AE2
  8
0
 10
176.04772006065491
 20
80.665439312592554
 30
0.0
  0
SEQEND
  5
58AE3
  8
0
  0
LINE
  5
58632
  8
0
 10
176.04772006065491
 20
80.665439312592554
 30
0.0
 11
176.04772006065491
 21
78.724323762087948
 31
0.0
  0
LINE
  5
58633
  8
3
 10
170.1696660033484
 20
65.200000000000031
 30
0.0
 11
170.1696660033484
 21
70.200000000000031
 31
0.0
  0
LINE
  5
58634
  8
3
 10
170.77566600334831
 20
65.200000000000031
 30
0.0
 11
170.77566600334831
 21
70.200000000000031
 31
0.0
  0
LINE
  5
58635
  8
3
 10
171.45108684149901
 20
65.200000000000031
 30
0.0
 11
171.45108684149901
 21
70.200000000000031
 31
0.0
  0
LINE
  5
58636
  8
3
 10
172.057086841499
 20
65.200000000000031
 30
0.0
 11
172.05708684149889
 21
70.200000000000031
 31
0.0
  0
LINE
  5
58637
  8
3
 10
172.73250767964959
 20
65.200000000000031
 30
0.0
 11
172.73250767964959
 21
70.200000000000031
 31
0.0
  0
LINE
  5
58638
  8
3
 10
173.33850767964961
 20
65.200000000000031
 30
0.0
 11
173.3385076796495
 21
70.200000000000031
 31
0.0
  0
LINE
  5
58639
  8
3
 10
174.0139285178002
 20
65.200000000000031
 30
0.0
 11
174.0139285178002
 21
70.200000000000031
 31
0.0
  0
LINE
  5
5863A
  8
3
 10
174.6199285178001
 20
65.200000000000031
 30
0.0
 11
174.6199285178001
 21
70.200000000000031
 31
0.0
  0
LINE
  5
5863B
  8
3
 10
175.2953493559508
 20
65.200000000000031
 30
0.0
 11
175.2953493559508
 21
70.200000000000031
 31
0.0
  0
LINE
  5
5863C
  8
3
 10
175.90134935595071
 20
65.200000000000031
 30
0.0
 11
175.90134935595071
 21
70.200000000000031
 31
0.0
  0
LINE
  5
5863D
  8
3
 10
169.49424516519781
 20
65.200000000000031
 30
0.0
 11
169.49424516519781
 21
70.200000000000031
 31
0.0
  0
LINE
  5
5863E
  8
3
 10
168.88824516519779
 20
65.200000000000031
 30
0.0
 11
168.88824516519779
 21
70.200000000000031
 31
0.0
  0
LINE
  5
5863F
  8
3
 10
168.2128243270472
 20
65.200000000000031
 30
0.0
 11
168.2128243270472
 21
70.200000000000031
 31
0.0
  0
LINE
  5
58640
  8
3
 10
167.60682432704721
 20
65.200000000000031
 30
0.0
 11
167.60682432704721
 21
70.200000000000031
 31
0.0
  0
LINE
  5
58641
  8
3
 10
166.93140348889659
 20
65.200000000000031
 30
0.0
 11
166.93140348889651
 21
70.200000000000031
 31
0.0
  0
LINE
  5
58642
  8
3
 10
166.3254034888966
 20
65.200000000000031
 30
0.0
 11
166.3254034888966
 21
70.200000000000031
 31
0.0
  0
LINE
  5
58643
  8
3
 10
165.6499826507459
 20
65.200000000000031
 30
0.0
 11
165.6499826507459
 21
70.200000000000031
 31
0.0
  0
LINE
  5
58644
  8
3
 10
165.04398265074599
 20
65.200000000000031
 30
0.0
 11
165.04398265074599
 21
70.200000000000031
 31
0.0
  0
LINE
  5
58645
  8
3
 10
101.1888943104138
 20
65.200000000000045
 30
0.0
 11
101.1888943104138
 21
70.200000000000045
 31
0.0
  0
LINE
  5
58646
  8
3
 10
101.7948943104137
 20
65.200000000000045
 30
0.0
 11
101.7948943104137
 21
70.200000000000045
 31
0.0
  0
LINE
  5
58647
  8
3
 10
102.4703151485644
 20
65.200000000000045
 30
0.0
 11
102.4703151485644
 21
70.200000000000045
 31
0.0
  0
LINE
  5
58648
  8
3
 10
103.0763151485644
 20
65.200000000000045
 30
0.0
 11
103.0763151485644
 21
70.200000000000045
 31
0.0
  0
LINE
  5
58649
  8
3
 10
103.751735986715
 20
65.200000000000045
 30
0.0
 11
103.751735986715
 21
70.200000000000045
 31
0.0
  0
LINE
  5
5864A
  8
3
 10
104.357735986715
 20
65.200000000000045
 30
0.0
 11
104.357735986715
 21
70.200000000000045
 31
0.0
  0
LINE
  5
5864B
  8
3
 10
105.0331568248656
 20
65.200000000000045
 30
0.0
 11
105.0331568248656
 21
70.200000000000045
 31
0.0
  0
LINE
  5
5864C
  8
3
 10
105.63915682486559
 20
65.200000000000045
 30
0.0
 11
105.63915682486559
 21
70.200000000000045
 31
0.0
  0
LINE
  5
5864D
  8
3
 10
106.31457766301629
 20
65.200000000000045
 30
0.0
 11
106.31457766301629
 21
70.200000000000045
 31
0.0
  0
LINE
  5
5864E
  8
3
 10
106.9205776630162
 20
65.200000000000045
 30
0.0
 11
106.9205776630162
 21
70.200000000000045
 31
0.0
  0
LINE
  5
5864F
  8
3
 10
100.5134734722632
 20
65.200000000000045
 30
0.0
 11
100.5134734722632
 21
70.200000000000045
 31
0.0
  0
LINE
  5
58650
  8
3
 10
99.907473472263305
 20
65.200000000000045
 30
0.0
 11
99.907473472263305
 21
70.200000000000045
 31
0.0
  0
LINE
  5
58651
  8
3
 10
99.232052634112605
 20
65.200000000000045
 30
0.0
 11
99.232052634112605
 21
70.200000000000045
 31
0.0
  0
LINE
  5
58652
  8
3
 10
98.626052634112682
 20
65.200000000000045
 30
0.0
 11
98.626052634112682
 21
70.200000000000045
 31
0.0
  0
LINE
  5
58653
  8
3
 10
97.950631795962025
 20
65.200000000000045
 30
0.0
 11
97.950631795962011
 21
70.200000000000045
 31
0.0
  0
LINE
  5
58654
  8
3
 10
97.344631795962087
 20
65.200000000000045
 30
0.0
 11
97.344631795962073
 21
70.200000000000045
 31
0.0
  0
LINE
  5
58655
  8
3
 10
96.669210957811416
 20
65.200000000000045
 30
0.0
 11
96.669210957811416
 21
70.200000000000045
 31
0.0
  0
LINE
  5
58656
  8
3
 10
96.063210957811464
 20
65.200000000000045
 30
0.0
 11
96.063210957811464
 21
70.200000000000045
 31
0.0
  0
LINE
  5
58657
  8
3
 10
32.208122617479319
 20
65.200000000000017
 30
0.0
 11
32.208122617479319
 21
70.200000000000017
 31
0.0
  0
LINE
  5
58658
  8
3
 10
32.814122617479264
 20
65.200000000000017
 30
0.0
 11
32.814122617479264
 21
70.200000000000017
 31
0.0
  0
LINE
  5
58659
  8
3
 10
33.489543455629928
 20
65.200000000000017
 30
0.0
 11
33.489543455629928
 21
70.200000000000017
 31
0.0
  0
LINE
  5
5865A
  8
3
 10
34.095543455629873
 20
65.200000000000017
 30
0.0
 11
34.095543455629873
 21
70.200000000000017
 31
0.0
  0
LINE
  5
5865B
  8
3
 10
34.770964293780537
 20
65.200000000000017
 30
0.0
 11
34.770964293780537
 21
70.200000000000017
 31
0.0
  0
LINE
  5
5865C
  8
3
 10
35.376964293780482
 20
65.200000000000017
 30
0.0
 11
35.376964293780482
 21
70.200000000000017
 31
0.0
  0
LINE
  5
5865D
  8
3
 10
36.052385131931153
 20
65.200000000000017
 30
0.0
 11
36.052385131931153
 21
70.200000000000017
 31
0.0
  0
LINE
  5
5865E
  8
3
 10
36.658385131931077
 20
65.200000000000017
 30
0.0
 11
36.658385131931077
 21
70.200000000000017
 31
0.0
  0
LINE
  5
5865F
  8
3
 10
37.333805970081762
 20
65.200000000000017
 30
0.0
 11
37.333805970081762
 21
70.200000000000017
 31
0.0
  0
LINE
  5
58660
  8
3
 10
37.939805970081693
 20
65.200000000000017
 30
0.0
 11
37.939805970081693
 21
70.200000000000017
 31
0.0
  0
LINE
  5
58661
  8
3
 10
31.532701779328711
 20
65.200000000000017
 30
0.0
 11
31.532701779328711
 21
70.200000000000017
 31
0.0
  0
LINE
  5
58662
  8
3
 10
30.92670177932877
 20
65.200000000000017
 30
0.0
 11
30.92670177932877
 21
70.200000000000017
 31
0.0
  0
LINE
  5
58663
  8
3
 10
30.251280941178099
 20
65.200000000000017
 30
0.0
 11
30.251280941178099
 21
70.200000000000017
 31
0.0
  0
LINE
  5
58664
  8
3
 10
29.645280941178161
 20
65.200000000000017
 30
0.0
 11
29.645280941178161
 21
70.200000000000017
 31
0.0
  0
LINE
  5
58665
  8
3
 10
28.969860103027489
 20
65.200000000000017
 30
0.0
 11
28.969860103027489
 21
70.200000000000017
 31
0.0
  0
LINE
  5
58666
  8
3
 10
28.363860103027552
 20
65.200000000000017
 30
0.0
 11
28.363860103027552
 21
70.200000000000017
 31
0.0
  0
LINE
  5
58667
  8
3
 10
27.68843926487688
 20
65.200000000000017
 30
0.0
 11
27.68843926487688
 21
70.200000000000017
 31
0.0
  0
LINE
  5
58668
  8
3
 10
27.082439264876939
 20
65.200000000000017
 30
0.0
 11
27.082439264876939
 21
70.200000000000017
 31
0.0
  0
LINE
  5
5868E
  8
0
 10
172.22266600334851
 20
55.000000000000028
 30
0.0
 11
172.97266600334851
 21
56.299038105676722
 31
0.0
  0
LINE
  5
5868F
  8
3
 10
172.5358624878522
 20
55.542472223912434
 30
0.0
 11
172.5358624878522
 21
63.500000000000121
 31
0.0
  0
LINE
  5
58690
  8
0
 10
172.97266600334851
 20
56.299038105676722
 30
0.0
 11
172.97266600334851
 21
65.000000000000028
 31
0.0
  0
LINE
  5
58691
  8
0
 10
172.97266600334851
 20
63.500000000000121
 30
0.0
 11
167.97266600334851
 21
63.500000000000121
 31
0.0
  0
LINE
  5
58692
  8
0
 10
167.97266600334851
 20
56.299038105676722
 30
0.0
 11
172.97266600334851
 21
56.299038105676722
 31
0.0
  0
LINE
  5
58693
  8
0
 10
172.22266600334851
 20
55.000000000000028
 30
0.0
 11
168.72266600334859
 21
55.000000000000028
 31
0.0
  0
LINE
  5
58695
  8
0
 10
168.72266600334859
 20
55.000000000000028
 30
0.0
 11
167.97266600334851
 21
56.299038105676722
 31
0.0
  0
LINE
  5
58696
  8
3
 10
168.4094695188449
 20
55.542472223912434
 30
0.0
 11
168.4094695188449
 21
63.500000000000121
 31
0.0
  0
LINE
  5
58697
  8
0
 10
167.97266600334851
 20
56.299038105676722
 30
0.0
 11
167.97266600334851
 21
65.000000000000028
 31
0.0
  0
LINE
  5
58699
  8
0
 10
103.241894310414
 20
55.000000000000043
 30
0.0
 11
103.991894310414
 21
56.299038105676729
 31
0.0
  0
LINE
  5
5869A
  8
3
 10
103.5550907949177
 20
55.542472223912441
 30
0.0
 11
103.5550907949177
 21
63.500000000000121
 31
0.0
  0
LINE
  5
5869B
  8
0
 10
103.991894310414
 20
56.299038105676729
 30
0.0
 11
103.991894310414
 21
65.000000000000043
 31
0.0
  0
LINE
  5
5869C
  8
0
 10
103.991894310414
 20
63.500000000000121
 30
0.0
 11
98.991894310414054
 21
63.500000000000121
 31
0.0
  0
LINE
  5
5869D
  8
0
 10
98.991894310414054
 20
56.299038105676729
 30
0.0
 11
103.991894310414
 21
56.299038105676729
 31
0.0
  0
LINE
  5
5869E
  8
0
 10
103.241894310414
 20
55.000000000000043
 30
0.0
 11
99.741894310414096
 21
55.000000000000043
 31
0.0
  0
LINE
  5
586A0
  8
0
 10
99.741894310414096
 20
55.000000000000043
 30
0.0
 11
98.991894310414054
 21
56.299038105676729
 31
0.0
  0
LINE
  5
586A1
  8
3
 10
99.428697825910348
 20
55.542472223912441
 30
0.0
 11
99.428697825910348
 21
63.500000000000121
 31
0.0
  0
LINE
  5
586A2
  8
0
 10
98.991894310414054
 20
56.299038105676729
 30
0.0
 11
98.991894310414054
 21
65.000000000000043
 31
0.0
  0
LINE
  5
586A4
  8
0
 10
34.261122617479487
 20
55.000000000000007
 30
0.0
 11
35.011122617479487
 21
56.299038105676701
 31
0.0
  0
LINE
  5
586A5
  8
3
 10
34.574319101983178
 20
55.542472223912412
 30
0.0
 11
34.574319101983178
 21
63.500000000000099
 31
0.0
  0
LINE
  5
586A6
  8
0
 10
35.011122617479487
 20
56.299038105676701
 30
0.0
 11
35.011122617479487
 21
65.000000000000014
 31
0.0
  0
LINE
  5
586A7
  8
0
 10
35.011122617479487
 20
63.500000000000099
 30
0.0
 11
30.01112261747949
 21
63.500000000000099
 31
0.0
  0
LINE
  5
586A8
  8
0
 10
30.01112261747949
 20
56.299038105676701
 30
0.0
 11
35.011122617479487
 21
56.299038105676701
 31
0.0
  0
LINE
  5
586A9
  8
0
 10
34.261122617479487
 20
55.000000000000007
 30
0.0
 11
30.76112261747955
 21
55.000000000000007
 31
0.0
  0
LINE
  5
586AB
  8
0
 10
30.76112261747955
 20
55.000000000000007
 30
0.0
 11
30.01112261747949
 21
56.299038105676701
 31
0.0
  0
LINE
  5
586AC
  8
3
 10
30.447926132975791
 20
55.542472223912412
 30
0.0
 11
30.447926132975791
 21
63.500000000000099
 31
0.0
  0
LINE
  5
586AD
  8
0
 10
30.01112261747949
 20
56.299038105676701
 30
0.0
 11
30.01112261747949
 21
65.000000000000014
 31
0.0
  0
LINE
  5
58711
  8
3
 10
168.4094695188449
 20
63.500000000000121
 30
0.0
 11
167.97266600334851
 21
64.256565881764459
 31
0.0
  0
LINE
  5
58712
  8
3
 10
172.5358624878522
 20
63.500000000000121
 30
0.0
 11
172.97266600334851
 21
64.256565881764374
 31
0.0
  0
LINE
  5
58713
  8
3
 10
99.428697825910348
 20
63.500000000000121
 30
0.0
 11
98.991894310414054
 21
64.256565881764473
 31
0.0
  0
LINE
  5
58714
  8
3
 10
103.5550907949177
 20
63.500000000000121
 30
0.0
 11
103.991894310414
 21
64.256565881764388
 31
0.0
  0
LINE
  5
58715
  8
3
 10
30.447926132975791
 20
63.500000000000099
 30
0.0
 11
30.01112261747949
 21
64.256565881764445
 31
0.0
  0
LINE
  5
58716
  8
3
 10
34.574319101983178
 20
63.500000000000099
 30
0.0
 11
35.011122617479487
 21
64.256565881764359
 31
0.0
  0
TEXT
  5
587AE
  8
0
 62
     3
 10
0.0
 20
0.0
 30
0.0
 40
10.0
  1
EAL30X10-SUS
  7
STANDARD1
  0
VIEWPORT
  5
1EC2F
 67
     1
  8
0
 10
261.51769911504419
 20
148.5
 30
0.0
 40
523.0353982300885
 41
297.0
 68
     1
 69
     1
1001
ACAD
1000
MVIEW
1002
{
1070
    16
1010
0.0
1020
0.0
1030
0.0
1010
0.0
1020
0.0
1030
1.0
1040
0.0
1040
297.0
1040
261.51769911504419
1040
148.5
1040
50.0
1040
0.0
1040
0.0
1070
     0
1070
   100
1070
     1
1070
     1
1070
     0
1070
     0
1070
     0
1070
     0
1040
0.0
1040
0.0
1040
0.0
1040
1.0
1040
1.0
1040
10.0
1040
10.0
1070
     0
1002
{
1002
}
1002
}
  0
ENDSEC
  0
EOF
