  0
SECTION
  2
HEADER
  9
$ACADVER
  1
AC1009
  9
$INSBASE
 10
0.0
 20
0.0
 30
0.0
  9
$EXTMIN
 10
0.0
 20
-2.960436562073669
 30
0.0
  9
$EXTMAX
 10
209.0578079724304
 20
137.1380704950079
 30
0.0
  9
$LIMMIN
 10
0.0
 20
0.0
  9
$LIMMAX
 10
375.0
 20
270.0
  9
$ORTHOMODE
 70
     1
  9
$REGENMODE
 70
     1
  9
$FILLMODE
 70
     1
  9
$QTEXTMODE
 70
     0
  9
$MIRRTEXT
 70
     0
  9
$DRAGMODE
 70
     2
  9
$LTSCALE
 40
10.0
  9
$OSMODE
 70
  3071
  9
$ATTMODE
 70
     1
  9
$TEXTSIZE
 40
0.2
  9
$TRACEWID
 40
0.05
  9
$TEXTSTYLE
  7
STANDARD
  9
$CLAYER
  8
0
  9
$CELTYPE
  6
BYLAYER
  9
$CECOLOR
 62
   256
  9
$DIMSCALE
 40
1.0
  9
$DIMASZ
 40
3.0
  9
$DIMEXO
 40
0.0625
  9
$DIMDLI
 40
0.38
  9
$DIMRND
 40
0.0
  9
$DIMDLE
 40
0.0
  9
$DIMEXE
 40
0.18
  9
$DIMTP
 40
0.0
  9
$DIMTM
 40
0.0
  9
$DIMTXT
 40
3.0
  9
$DIMCEN
 40
0.09
  9
$DIMTSZ
 40
0.0
  9
$DIMTOL
 70
     0
  9
$DIMLIM
 70
     0
  9
$DIMTIH
 70
     1
  9
$DIMTOH
 70
     1
  9
$DIMSE1
 70
     0
  9
$DIMSE2
 70
     0
  9
$DIMTAD
 70
     0
  9
$DIMZIN
 70
     0
  9
$DIMBLK
  1

  9
$DIMASO
 70
     1
  9
$DIMSHO
 70
     1
  9
$DIMPOST
  1

  9
$DIMAPOST
  1

  9
$DIMALT
 70
     0
  9
$DIMALTD
 70
     2
  9
$DIMALTF
 40
25.399999999999999
  9
$DIMLFAC
 40
1.0
  9
$DIMTOFL
 70
     0
  9
$DIMTVP
 40
0.0
  9
$DIMTIX
 70
     0
  9
$DIMSOXD
 70
     0
  9
$DIMSAH
 70
     0
  9
$DIMBLK1
  1

  9
$DIMBLK2
  1

  9
$DIMSTYLE
  2
STANDARD
  9
$DIMCLRD
 70
     0
  9
$DIMCLRE
 70
     0
  9
$DIMCLRT
 70
     0
  9
$DIMTFAC
 40
1.0
  9
$DIMGAP
 40
0.09
  9
$LUNITS
 70
     2
  9
$LUPREC
 70
     4
  9
$SKETCHINC
 40
0.1
  9
$FILLETRAD
 40
0.0
  9
$AUNITS
 70
     0
  9
$AUPREC
 70
     0
  9
$MENU
  1
E:\r13\win\SUPPORT\ACAD
  9
$ELEVATION
 40
0.0
  9
$PELEVATION
 40
0.0
  9
$THICKNESS
 40
0.0
  9
$LIMCHECK
 70
     0
  9
$BLIPMODE
 70
     0
  9
$CHAMFERA
 40
0.0
  9
$CHAMFERB
 40
0.0
  9
$SKPOLY
 70
     0
  9
$TDCREATE
 40
2450372.5377547452
  9
$TDUPDATE
 40
2456598.6238828818
  9
$TDINDWG
 40
0.0563474884
  9
$TDUSRTIMER
 40
0.0563474884
  9
$USRTIMER
 70
     1
  9
$ANGBASE
 50
0.0
  9
$ANGDIR
 70
     0
  9
$PDMODE
 70
     0
  9
$PDSIZE
 40
0.0
  9
$PLINEWID
 40
0.0
  9
$COORDS
 70
     1
  9
$SPLFRAME
 70
     0
  9
$SPLINETYPE
 70
     6
  9
$SPLINESEGS
 70
     8
  9
$ATTDIA
 70
     0
  9
$ATTREQ
 70
     1
  9
$HANDLING
 70
     1
  9
$HANDSEED
  5
840
  9
$SURFTAB1
 70
     6
  9
$SURFTAB2
 70
     6
  9
$SURFTYPE
 70
     6
  9
$SURFU
 70
     6
  9
$SURFV
 70
     6
  9
$UCSNAME
  2

  9
$UCSORG
 10
0.0
 20
0.0
 30
0.0
  9
$UCSXDIR
 10
1.0
 20
0.0
 30
0.0
  9
$UCSYDIR
 10
0.0
 20
1.0
 30
0.0
  9
$PUCSNAME
  2

  9
$PUCSORG
 10
0.0
 20
0.0
 30
0.0
  9
$PUCSXDIR
 10
1.0
 20
0.0
 30
0.0
  9
$PUCSYDIR
 10
0.0
 20
1.0
 30
0.0
  9
$USERI1
 70
     3
  9
$USERI2
 70
     1
  9
$USERI3
 70
     1
  9
$USERI4
 70
     0
  9
$USERI5
 70
     0
  9
$USERR1
 40
1.0
  9
$USERR2
 40
3.0
  9
$USERR3
 40
3.0
  9
$USERR4
 40
3.0
  9
$USERR5
 40
10.0
  9
$WORLDVIEW
 70
     1
  9
$SHADEDGE
 70
     3
  9
$SHADEDIF
 70
    70
  9
$TILEMODE
 70
     1
  9
$MAXACTVP
 70
    16
  9
$PLIMCHECK
 70
     0
  9
$PEXTMIN
 10
1.0000000000000000E+020
 20
1.0000000000000000E+020
 30
1.0000000000000000E+020
  9
$PEXTMAX
 10
-1.0000000000000000E+020
 20
-1.0000000000000000E+020
 30
-1.0000000000000000E+020
  9
$PLIMMIN
 10
0.0
 20
0.0
  9
$PLIMMAX
 10
12.0
 20
9.0
  9
$UNITMODE
 70
     0
  9
$VISRETAIN
 70
     0
  9
$PLINEGEN
 70
     0
  9
$PSLTSCALE
 70
     0
  0
ENDSEC
  0
SECTION
  2
TABLES
  0
TABLE
  2
VPORT
 70
     1
  0
VPORT
  2
*ACTIVE
 70
     0
 10
0.0
 20
0.0
 11
1.0
 21
1.0
 12
195.0581083320873
 22
133.5127261426681
 13
0.0
 23
0.0
 14
10.0
 24
10.0
 15
10.0
 25
10.0
 16
0.0
 26
0.0
 36
1.0
 17
0.0
 27
0.0
 37
0.0
 40
275.42274993631997
 41
1.831871345029239
 42
50.0
 43
0.0
 44
0.0
 50
0.0
 51
0.0
 71
     0
 72
   100
 73
     1
 74
     0
 75
     0
 76
     0
 77
     0
 78
     0
  0
ENDTAB
  0
TABLE
  2
LTYPE
 70
     4
  0
LTYPE
  2
CONTINUOUS
 70
     0
  3
Solid Line
 72
    65
 73
     0
 40
0.0
  0
LTYPE
  2
CENTER
 70
     0
  3
____ _ ____ _ ____ _ ____ _ ____ _ ____ _ ____
 72
    65
 73
     4
 40
2.0
 49
1.25
 49
-0.25
 49
0.25
 49
-0.25
  0
LTYPE
  2
HIDDEN
 70
     0
  3
_ _ _ _ _ _ _ _ _ _ _ _ _ _ _ _ _ _ _ _ _ _ _
 72
    65
 73
     2
 40
0.375
 49
0.25
 49
-0.125
  0
LTYPE
  2
PHANTOM2
 70
     0
  3
___ _ _ ___ _ _ ___ _ _ ___ _ _
 72
    65
 73
     6
 40
1.25
 49
0.625
 49
-0.125
 49
0.125
 49
-0.125
 49
0.125
 49
-0.125
  0
ENDTAB
  0
TABLE
  2
LAYER
 70
     4
  0
LAYER
  2
0
 70
     0
 62
     7
  6
CONTINUOUS
  0
LAYER
  2
1
 70
     0
 62
     1
  6
CENTER
  0
LAYER
  2
2
 70
     0
 62
     2
  6
HIDDEN
  0
LAYER
  2
3
 70
     0
 62
     3
  6
CONTINUOUS
  0
ENDTAB
  0
TABLE
  2
STYLE
 70
     2
  0
STYLE
  2
STANDARD
 70
     0
 40
0.0
 41
1.0
 50
0.0
 71
     0
 42
0.2
  3
SIMPLEX
  4
BIGFONT
  0
STYLE
  2
STANDARD1
 70
     0
 40
0.0
 41
1.0
 50
0.0
 71
     0
 42
3.0
  3
txt
  4

  0
ENDTAB
  0
TABLE
  2
VIEW
 70
     0
  0
ENDTAB
  0
TABLE
  2
UCS
 70
     0
  0
ENDTAB
  0
TABLE
  2
APPID
 70
     4
  0
APPID
  2
ACAD
 70
     0
  0
APPID
  2
ACAD_MLEADERVER
 70
     0
  0
APPID
  2
ACAD_EXEMPT_FROM_CAD_STANDARDS
 70
     0
  0
APPID
  2
ACAD_NAV_VCDISPLAY
 70
     0
  0
ENDTAB
  0
TABLE
  2
DIMSTYLE
 70
     1
  0
DIMSTYLE
  2
STANDARD
 70
     0
  3

  4

  5

  6

  7

 40
1.0
 41
0.18
 42
0.0625
 43
0.38
 44
0.18
 45
0.0
 46
0.0
 47
0.0
 48
0.0
140
0.18
141
0.09
142
0.0
143
25.399999999999999
144
1.0
145
0.0
146
1.0
147
0.09
 71
     0
 72
     0
 73
     1
 74
     1
 75
     0
 76
     0
 77
     0
 78
     0
170
     0
171
     2
172
     0
173
     0
174
     0
175
     0
176
     0
177
     0
178
     0
  0
ENDTAB
  0
ENDSEC
  0
SECTION
  2
BLOCKS
  0
BLOCK
  8
0
  2
$MODEL_SPACE
 70
     0
 10
0.0
 20
0.0
 30
0.0
  3
$MODEL_SPACE
  1

  0
ENDBLK
  5
1FE
  8
0
  0
BLOCK
 67
     1
  8
0
  2
$PAPER_SPACE
 70
     0
 10
0.0
 20
0.0
 30
0.0
  3
$PAPER_SPACE
  1

  0
ENDBLK
  5
1FC
 67
     1
  8
0
  0
ENDSEC
  0
SECTION
  2
ENTITIES
  0
LINE
  5
5F4
  8
0
 10
110.2781842579158
 20
30.47080160633368
 30
0.0
 11
110.2781842579158
 21
30.270801606333659
 31
0.0
  0
LINE
  5
5F5
  8
0
 10
103.2781842579158
 20
30.47080160633368
 30
0.0
 11
103.2781842579158
 21
30.270801606333659
 31
0.0
  0
LINE
  5
5F6
  8
0
 10
110.2781842579158
 20
30.270801606333659
 30
0.0
 11
103.2781842579158
 21
30.270801606333642
 31
0.0
  0
LINE
  5
5F7
  8
1
 10
201.3078079724352
 20
25.27080160633378
 30
0.0
 11
201.30780797243511
 21
67.770801606333734
 31
0.0
  0
LINE
  5
5F8
  8
1
 10
42.442506241634497
 20
25.270801606333709
 30
0.0
 11
42.442506241634618
 21
67.770801606333734
 31
0.0
  0
LINE
  5
5FC
  8
0
 10
38.442506241634533
 20
55.270801606333663
 30
0.0
 11
38.442506241634533
 21
58.970801606333708
 31
0.0
  0
LINE
  5
5FD
  8
0
 10
39.242506241634537
 20
59.770801606333691
 30
0.0
 11
45.642506241634578
 21
59.770801606333677
 31
0.0
  0
ARC
  5
5FE
  8
0
 10
39.242506241634537
 20
58.970801606333708
 30
0.0
 40
0.8000000000000002
 50
90.0
 51
180.0
  0
LINE
  5
5FF
  8
0
 10
197.80780797243511
 20
62.770801606333777
 30
0.0
 11
204.80780797243511
 21
62.77080160651024
 31
0.0
  0
ARC
  5
601
  8
0
 10
45.642506241634578
 20
58.970801606333708
 30
0.0
 40
0.8000000000000002
 50
0.0
 51
90.0
  0
LINE
  5
602
  8
0
 10
46.442506241634533
 20
55.270801606333663
 30
0.0
 11
46.442506241634533
 21
58.970801606333708
 31
0.0
  0
LINE
  5
605
  8
0
 10
48.374537007907257
 20
55.270801606333649
 30
0.0
 11
36.510475475361929
 21
55.270801606333748
 31
0.0
  0
LINE
  5
606
  8
0
 10
45.942506241634561
 20
62.770801606333741
 30
0.0
 11
38.942506241634568
 21
62.770801606333741
 31
0.0
  0
LINE
  5
607
  8
0
 10
47.942506241634561
 20
58.099302278987103
 30
0.0
 11
46.442506241634533
 21
58.099302278987103
 31
0.0
  0
LINE
  5
608
  8
0
 10
36.942506241634568
 20
55.270801606333663
 30
0.0
 11
36.942506241634568
 21
60.770801606333748
 31
0.0
  0
LINE
  5
609
  8
0
 10
47.942506241634547
 20
55.270801606333663
 30
0.0
 11
47.942506241634547
 21
60.770801606333748
 31
0.0
  0
LINE
  5
60A
  8
0
 10
38.442506241634533
 20
58.099302278987103
 30
0.0
 11
36.942506241634582
 21
58.099302278987103
 31
0.0
  0
ARC
  5
60B
  8
0
 10
38.942506241634568
 20
60.770801606333748
 30
0.0
 40
2.0
 50
90.0
 51
180.0
  0
ARC
  5
60C
  8
0
 10
45.942506241634561
 20
60.770801606333748
 30
0.0
 40
2.0
 50
0.0
 51
90.0
  0
LINE
  5
60D
  8
0
 10
195.80780797243511
 20
40.549689123562821
 30
0.0
 11
195.80780797243511
 21
60.770801606333777
 31
0.0
  0
LINE
  5
60E
  8
0
 10
206.8078079724354
 20
40.549689123739277
 30
0.0
 11
206.80780797243511
 21
60.770801606510268
 31
0.0
  0
ARC
  5
60F
  8
0
 10
197.80780797243511
 20
60.770801606333777
 30
0.0
 40
2.0
 50
90.0
 51
180.0
  0
ARC
  5
610
  8
0
 10
204.80780797243511
 20
60.77080160651024
 30
0.0
 40
2.0
 50
0.0
 51
90.0
  0
ARC
  5
611
  8
0
 10
201.30780797243511
 20
60.770790809122637
 30
0.0
 40
5.5001025783705817
 50
180.34992970345959
 51
359.6500702964882
  0
LINE
  5
612
  8
0
 10
198.30780797243511
 20
40.549689123562821
 30
0.0
 11
198.307807972435
 21
56.16089619290868
 31
0.0
  0
LINE
  5
613
  8
0
 10
204.30780797243511
 20
40.549689123562821
 30
0.0
 11
204.30780797243511
 21
56.160896192908631
 31
0.0
  0
ARC
  5
614
  8
3
 10
99.008317338785787
 20
124.3880704950079
 30
0.0
 40
14.48250673635196
 50
340.477185862054
 51
19.522814137946
  0
CIRCLE
  5
615
  8
0
 10
124.3468011766868
 20
124.3880704950079
 30
0.0
 40
0.7
  0
CIRCLE
  5
616
  8
0
 10
122.0926978783241
 20
124.3880704950079
 30
0.0
 40
0.7
  0
CIRCLE
  5
617
  8
0
 10
120.0108246103191
 20
124.3880704950079
 30
0.0
 40
0.7
  0
CIRCLE
  5
618
  8
0
 10
115.71008697674
 20
124.3880704950079
 30
0.0
 40
0.7
  0
CIRCLE
  5
619
  8
0
 10
117.8556841701713
 20
124.3880704950079
 30
0.0
 40
0.7
  0
ARC
  5
61A
  8
2
 10
145.88562075330671
 20
-40.559720265601271
 30
0.0
 40
101.0
 50
90.965973498773579
 51
107.3325389904758
  0
ARC
  5
61B
  8
0
 10
155.37269218019301
 20
-11.8235067519835
 30
0.0
 40
70.700000000000003
 50
102.48003011326441
 51
120.88884649435209
  0
ARC
  5
61C
  8
0
 10
145.92073533144469
 20
-56.915199309914392
 30
0.0
 40
119.685
 50
90.0
 51
106.0151822977455
  0
LINE
  5
61D
  8
1
 10
106.7781842579157
 20
25.27080160633372
 30
0.0
 11
106.7781842579158
 21
64.770801606333649
 31
0.0
  0
ARC
  5
61E
  8
0
 10
115.51410042337881
 20
139.9541818806947
 30
0.0
 40
10.1
 50
240.8372934038286
 51
265.30511070240362
  0
LINE
  5
61F
  8
0
 10
99.126349481689601
 20
36.569056286927179
 30
0.0
 11
99.028184257915825
 21
53.442224970730393
 31
0.0
  0
LINE
  5
620
  8
0
 10
100.84615349164309
 20
55.27080160633367
 30
0.0
 11
107.48518425791571
 21
55.270801606333649
 31
0.0
  0
ARC
  5
621
  8
0
 10
100.84615349164309
 20
53.452801606333679
 30
0.0
 40
1.817999999999999
 50
90.0
 51
180.33333333333329
  0
ARC
  5
622
  8
0
 10
123.9541907250282
 20
40.69618256842088
 30
0.0
 40
9.5
 50
120.88884649435209
 51
179.6666666666674
  0
LINE
  5
623
  8
0
 10
114.43001903414179
 20
36.569056286927243
 30
0.0
 11
114.4543514948796
 21
40.751451016293139
 31
0.0
  0
LINE
  5
624
  8
0
 10
99.426344404746942
 20
36.270801606333748
 30
0.0
 11
114.1300241110845
 21
36.27080160633372
 31
0.0
  0
ARC
  5
625
  8
0
 10
107.48518425791571
 20
61.835801606333888
 30
0.0
 40
6.5650000000000013
 50
270.0
 51
325.57744476622838
  0
LINE
  5
626
  8
2
 10
145.46559907705139
 20
55.65774868393396
 30
0.0
 11
145.4029477748486
 21
59.247039383246182
 31
0.0
  0
ARC
  5
627
  8
0
 10
144.4781842579157
 20
60.76291739115868
 30
0.0
 40
6.2999999999999989
 50
308.21387582314492
 51
0.5322537266239706
  0
ARC
  5
628
  8
0
 10
140.84277067557511
 20
50.280922765040792
 30
0.0
 40
7.0700000000000003
 50
51.565630368707168
 51
80.765173680538808
  0
ARC
  5
629
  8
0
 10
146.81030133844391
 20
57.800801606333657
 30
0.0
 40
2.5299999999999998
 50
231.56563036870719
 51
308.21387582314492
  0
ARC
  5
62A
  8
2
 10
144.20313054066099
 20
59.226096495521489
 30
0.0
 40
1.1999999999999991
 50
1.0000000000001461
 51
90.965973498775256
  0
ARC
  5
62B
  8
0
 10
144.4781842579157
 20
60.76291739115868
 30
0.0
 40
6.2999999999999989
 50
359.46774627338539
 51
0.5322537266239706
  0
ARC
  5
62C
  8
0
 10
148.7779124265372
 20
60.821440903332359
 30
0.0
 40
2.0
 50
0.0
 51
76.951651066122892
  0
LINE
  5
62D
  8
0
 10
145.9207353314446
 20
62.769800690085617
 30
0.0
 11
149.2294588154752
 21
62.769800690085617
 31
0.0
  0
ARC
  5
62E
  8
0
 10
99.426344404746942
 20
36.570801606333731
 30
0.0
 40
0.3
 50
180.33333333333289
 51
270.0
  0
CIRCLE
  5
62F
  8
0
 10
106.7781842579157
 20
124.3880704950079
 30
0.0
 40
4.0
  0
LINE
  5
630
  8
0
 10
112.7781842579157
 20
36.27080160633372
 30
0.0
 11
112.7781842579157
 21
30.97080160633379
 31
0.0
  0
LINE
  5
631
  8
0
 10
112.2781842579157
 20
30.47080160633368
 30
0.0
 11
101.2781842579157
 21
30.47080160633368
 31
0.0
  0
LINE
  5
632
  8
0
 10
112.2781842579158
 20
30.47080160633368
 30
0.0
 11
112.7781842579157
 21
30.97080160633379
 31
0.0
  0
LINE
  5
633
  8
0
 10
100.7781842579157
 20
35.470801606333652
 30
0.0
 11
112.7781842579157
 21
35.47080160633368
 31
0.0
  0
LINE
  5
634
  8
0
 10
102.7781842579158
 20
55.270801606333663
 30
0.0
 11
102.7781842579158
 21
58.970801606333708
 31
0.0
  0
ARC
  5
635
  8
0
 10
103.57818425791579
 20
58.970801606333708
 30
0.0
 40
0.8000000000000002
 50
90.0
 51
180.0
  0
LINE
  5
636
  8
0
 10
110.7781842579158
 20
56.156419949850459
 30
0.0
 11
110.7781842579158
 21
58.970801606333708
 31
0.0
  0
LINE
  5
637
  8
0
 10
109.9781842579158
 20
59.77080160633367
 30
0.0
 11
103.57818425791579
 21
59.770801606333627
 31
0.0
  0
ARC
  5
638
  8
0
 10
109.9781842579158
 20
58.970801606333708
 30
0.0
 40
0.8000000000000002
 50
0.0
 51
90.0
  0
LINE
  5
639
  8
0
 10
100.7781842579157
 20
36.27080160633372
 30
0.0
 11
100.7781842579157
 21
30.97080160633379
 31
0.0
  0
LINE
  5
63A
  8
0
 10
101.2781842579157
 20
30.47080160633368
 30
0.0
 11
100.7781842579157
 21
30.97080160633379
 31
0.0
  0
LINE
  5
640
  8
3
 10
100.9648180096443
 20
30.78416785460513
 30
0.0
 11
100.9648180096443
 21
35.47080160633368
 31
0.0
  0
LINE
  5
641
  8
3
 10
101.73223337527349
 20
30.47080160633368
 30
0.0
 11
101.73223337527349
 21
35.47080160633368
 31
0.0
  0
LINE
  5
642
  8
3
 10
102.69759617499049
 20
30.47080160633368
 30
0.0
 11
102.69759617499049
 21
35.47080160633368
 31
0.0
  0
LINE
  5
643
  8
3
 10
103.6691077823493
 20
30.47080160633368
 30
0.0
 11
103.6691077823493
 21
35.47080160633368
 31
0.0
  0
LINE
  5
644
  8
3
 10
104.65906581263241
 20
30.47080160633368
 30
0.0
 11
104.65906581263241
 21
35.47080160633368
 31
0.0
  0
LINE
  5
645
  8
3
 10
105.642875035274
 20
30.47080160633368
 30
0.0
 11
105.642875035274
 21
35.47080160633368
 31
0.0
  0
LINE
  5
646
  8
3
 10
106.7781842579157
 20
30.47080160633368
 30
0.0
 11
106.7781842579157
 21
35.47080160633368
 31
0.0
  0
LINE
  5
647
  8
3
 10
108.897302703199
 20
30.47080160633368
 30
0.0
 11
108.897302703199
 21
35.47080160633368
 31
0.0
  0
LINE
  5
648
  8
3
 10
107.91349348055741
 20
30.47080160633368
 30
0.0
 11
107.91349348055741
 21
35.47080160633368
 31
0.0
  0
LINE
  5
649
  8
3
 10
109.88726073348209
 20
30.47080160633368
 30
0.0
 11
109.88726073348219
 21
35.47080160633368
 31
0.0
  0
LINE
  5
64A
  8
3
 10
111.824135140558
 20
30.47080160633368
 30
0.0
 11
111.824135140558
 21
35.47080160633368
 31
0.0
  0
LINE
  5
64B
  8
3
 10
110.8587723408409
 20
30.47080160633368
 30
0.0
 11
110.8587723408409
 21
35.47080160633368
 31
0.0
  0
LINE
  5
64C
  8
3
 10
112.5915505061871
 20
30.78416785460513
 30
0.0
 11
112.5915505061871
 21
35.47080160633368
 31
0.0
  0
LINE
  5
64D
  8
2
 10
114.4543514948795
 20
40.751451016293231
 30
0.0
 11
114.5322801819211
 21
54.146254503842172
 31
0.0
  0
ARC
  5
64E
  8
0
 10
114.1300241110845
 20
36.570801606333731
 30
0.0
 40
0.3
 50
270.0
 51
359.66666666666703
  0
ARC
  5
64F
  8
2
 10
116.3322497202651
 20
54.135782587403199
 30
0.0
 40
1.8
 50
107.3325389904758
 51
179.666666666667
  0
ARC
  5
650
  8
0
 10
141.1749667037806
 20
52.324093291170321
 30
0.0
 40
5.0
 50
80.765173680538808
 51
102.48003011326441
  0
LINE
  5
651
  8
0
 10
193.95596811926629
 20
36.270801606333862
 30
0.0
 11
208.659647825604
 21
36.270801606333833
 31
0.0
  0
LINE
  5
654
  8
0
 10
206.8078079724352
 20
30.470801606333801
 30
0.0
 11
207.3078079724352
 21
30.970801606333911
 31
0.0
  0
LINE
  5
655
  8
3
 10
205.38839605536029
 20
30.470801606333801
 30
0.0
 11
205.38839605536029
 21
35.470801606333801
 31
0.0
  0
LINE
  5
656
  8
3
 10
206.35375885507739
 20
30.470801606333801
 30
0.0
 11
206.35375885507739
 21
35.470801606333801
 31
0.0
  0
LINE
  5
657
  8
3
 10
204.41688444800161
 20
30.470801606333801
 30
0.0
 11
204.41688444800161
 21
35.470801606333801
 31
0.0
  0
LINE
  5
658
  8
3
 10
202.44311719507689
 20
30.470801606333801
 30
0.0
 11
202.44311719507689
 21
35.470801606333801
 31
0.0
  0
LINE
  5
659
  8
3
 10
203.42692641771851
 20
30.470801606333801
 30
0.0
 11
203.42692641771851
 21
35.470801606333801
 31
0.0
  0
LINE
  5
65A
  8
0
 10
195.80780797243511
 20
30.470801606333801
 30
0.0
 11
195.30780797243511
 21
30.970801606333911
 31
0.0
  0
LINE
  5
65B
  8
3
 10
201.3078079724352
 20
30.470801606333801
 30
0.0
 11
201.3078079724352
 21
35.470801606333801
 31
0.0
  0
LINE
  5
65C
  8
3
 10
196.2618570897929
 20
30.470801606333801
 30
0.0
 11
196.2618570897929
 21
35.470801606333801
 31
0.0
  0
LINE
  5
65D
  8
3
 10
197.22721988951
 20
30.470801606333801
 30
0.0
 11
197.22721988951
 21
35.470801606333801
 31
0.0
  0
LINE
  5
65E
  8
3
 10
198.1987314968687
 20
30.470801606333801
 30
0.0
 11
198.1987314968687
 21
35.470801606333801
 31
0.0
  0
LINE
  5
65F
  8
3
 10
199.18868952715181
 20
30.470801606333801
 30
0.0
 11
199.18868952715181
 21
35.470801606333801
 31
0.0
  0
LINE
  5
660
  8
3
 10
200.1724987497935
 20
30.470801606333801
 30
0.0
 11
200.1724987497935
 21
35.470801606333801
 31
0.0
  0
LINE
  5
661
  8
0
 10
206.8078079724352
 20
30.470801606333801
 30
0.0
 11
195.80780797243511
 21
30.470801606333801
 31
0.0
  0
LINE
  5
662
  8
0
 10
204.80780797243531
 20
30.27080160633378
 30
0.0
 11
197.8078079724352
 21
30.270801606333752
 31
0.0
  0
LINE
  5
663
  8
0
 10
197.8078079724352
 20
30.470801606333801
 30
0.0
 11
197.8078079724352
 21
30.27080160633378
 31
0.0
  0
LINE
  5
664
  8
0
 10
204.80780797243531
 20
30.470801606333801
 30
0.0
 11
204.80780797243531
 21
30.27080160633378
 31
0.0
  0
ARC
  5
665
  8
0
 10
193.95596811926629
 20
36.570801606333838
 30
0.0
 40
0.3
 50
180.33333333333289
 51
270.0
  0
LINE
  5
667
  8
0
 10
207.3078079724352
 20
35.470801606333801
 30
0.0
 11
195.30780797243511
 21
35.470801606333801
 31
0.0
  0
LINE
  5
668
  8
0
 10
195.30780797243511
 20
36.270801606333833
 30
0.0
 11
195.30780797243511
 21
30.970801606333911
 31
0.0
  0
LINE
  5
669
  8
3
 10
195.49444172416369
 20
30.78416785460524
 30
0.0
 11
195.49444172416369
 21
35.470801606333801
 31
0.0
  0
LINE
  5
66B
  8
0
 10
207.3078079724352
 20
36.270801606333833
 30
0.0
 11
207.3078079724352
 21
30.970801606333911
 31
0.0
  0
LINE
  5
66C
  8
3
 10
207.12117422070659
 20
30.78416785460524
 30
0.0
 11
207.12117422070659
 21
35.470801606333801
 31
0.0
  0
LINE
  5
66E
  8
0
 10
193.655973196209
 20
36.569056286927292
 30
0.0
 11
193.55780797243531
 21
53.442224970730507
 31
0.0
  0
ARC
  5
66F
  8
0
 10
195.3757772061625
 20
53.452801606333793
 30
0.0
 40
1.817999999999999
 50
90.0
 51
180.33333333333329
  0
LINE
  5
670
  8
0
 10
195.3757772061625
 20
55.270801606333791
 30
0.0
 11
195.80780797243511
 21
55.270801606333791
 31
0.0
  0
ARC
  5
671
  8
0
 10
207.2398387387031
 20
53.452801606335413
 30
0.0
 40
1.817999999999999
 50
359.66666666668249
 51
90.000000000015433
  0
LINE
  5
672
  8
0
 10
207.23983873870259
 20
55.270801606335411
 30
0.0
 11
206.80780797243511
 21
55.270801606335269
 31
0.0
  0
LINE
  5
673
  8
0
 10
208.9596427486612
 20
36.569056286929367
 30
0.0
 11
209.0578079724304
 21
53.442224970732617
 31
0.0
  0
ARC
  5
674
  8
0
 10
208.65964782560391
 20
36.570801606335863
 30
0.0
 40
0.3
 50
270.00000000001552
 51
359.66666666668249
  0
LINE
  5
675
  8
0
 10
35.090666388465742
 20
36.270801606333791
 30
0.0
 11
49.794346094803331
 21
36.270801606333777
 31
0.0
  0
LINE
  5
678
  8
0
 10
47.942506241634547
 20
30.47080160633373
 30
0.0
 11
48.442506241634533
 21
30.97080160633384
 31
0.0
  0
LINE
  5
679
  8
3
 10
46.523094324559708
 20
30.47080160633373
 30
0.0
 11
46.523094324559708
 21
35.470801606333737
 31
0.0
  0
LINE
  5
67A
  8
3
 10
47.488457124276771
 20
30.47080160633373
 30
0.0
 11
47.488457124276771
 21
35.470801606333737
 31
0.0
  0
LINE
  5
67B
  8
3
 10
45.551582717200937
 20
30.47080160633373
 30
0.0
 11
45.551582717200972
 21
35.470801606333737
 31
0.0
  0
LINE
  5
67C
  8
3
 10
43.577815464276192
 20
30.47080160633373
 30
0.0
 11
43.577815464276192
 21
35.47080160633373
 31
0.0
  0
LINE
  5
67D
  8
3
 10
44.561624686917838
 20
30.47080160633373
 30
0.0
 11
44.561624686917838
 21
35.47080160633373
 31
0.0
  0
LINE
  5
67E
  8
0
 10
36.942506241634497
 20
30.47080160633373
 30
0.0
 11
36.442506241634533
 21
30.97080160633384
 31
0.0
  0
LINE
  5
67F
  8
3
 10
42.442506241634533
 20
30.47080160633373
 30
0.0
 11
42.442506241634533
 21
35.47080160633373
 31
0.0
  0
LINE
  5
680
  8
3
 10
37.396555358992288
 20
30.47080160633373
 30
0.0
 11
37.396555358992288
 21
35.470801606333737
 31
0.0
  0
LINE
  5
681
  8
3
 10
38.361918158709358
 20
30.47080160633373
 30
0.0
 11
38.361918158709358
 21
35.470801606333737
 31
0.0
  0
LINE
  5
682
  8
3
 10
39.333429766068122
 20
30.47080160633373
 30
0.0
 11
39.333429766068093
 21
35.470801606333737
 31
0.0
  0
LINE
  5
683
  8
3
 10
40.32338779635122
 20
30.47080160633373
 30
0.0
 11
40.32338779635122
 21
35.47080160633373
 31
0.0
  0
LINE
  5
684
  8
3
 10
41.307197018992873
 20
30.47080160633373
 30
0.0
 11
41.307197018992873
 21
35.47080160633373
 31
0.0
  0
LINE
  5
685
  8
0
 10
47.942506241634533
 20
30.47080160633373
 30
0.0
 11
36.94250624163454
 21
30.47080160633373
 31
0.0
  0
LINE
  5
686
  8
0
 10
45.942506241634611
 20
30.27080160633372
 30
0.0
 11
38.94250624163459
 21
30.270801606333709
 31
0.0
  0
LINE
  5
687
  8
0
 10
38.94250624163459
 20
30.47080160633373
 30
0.0
 11
38.94250624163459
 21
30.27080160633372
 31
0.0
  0
LINE
  5
688
  8
0
 10
45.942506241634611
 20
30.47080160633373
 30
0.0
 11
45.942506241634611
 21
30.27080160633372
 31
0.0
  0
ARC
  5
689
  8
0
 10
35.090666388465742
 20
36.570801606333788
 30
0.0
 40
0.3
 50
180.33333333333289
 51
270.0
  0
LINE
  5
68B
  8
0
 10
48.442506241634511
 20
35.47080160633373
 30
0.0
 11
36.442506241634511
 21
35.47080160633373
 31
0.0
  0
LINE
  5
68C
  8
0
 10
36.442506241634533
 20
36.270801606333777
 30
0.0
 11
36.442506241634533
 21
30.97080160633384
 31
0.0
  0
LINE
  5
68D
  8
3
 10
36.629139993363111
 20
30.784167854605201
 30
0.0
 11
36.629139993363111
 21
35.47080160633373
 31
0.0
  0
LINE
  5
68F
  8
0
 10
48.442506241634497
 20
36.270801606333777
 30
0.0
 11
48.442506241634533
 21
30.97080160633384
 31
0.0
  0
LINE
  5
691
  8
3
 10
48.255872489905947
 20
30.784167854605201
 30
0.0
 11
48.255872489905947
 21
35.47080160633373
 31
0.0
  0
ARC
  5
693
  8
0
 10
49.794346094803331
 20
36.570801606333788
 30
0.0
 40
0.3
 50
270.0
 51
359.66666666666703
  0
LINE
  5
694
  8
0
 10
34.790671465408401
 20
36.569056286927243
 30
0.0
 11
34.692506241634618
 21
53.44222497073045
 31
0.0
  0
ARC
  5
695
  8
0
 10
36.510475475361922
 20
53.452801606333729
 30
0.0
 40
1.817999999999999
 50
90.0
 51
180.33333333333329
  0
ARC
  5
696
  8
0
 10
48.374537007907257
 20
53.452801606333729
 30
0.0
 40
1.817999999999999
 50
359.66666666666657
 51
90.0
  0
LINE
  5
697
  8
0
 10
50.094341017860778
 20
36.569056286927243
 30
0.0
 11
50.192506241634561
 21
53.44222497073045
 31
0.0
  0
ARC
  5
698
  8
0
 10
106.7781842579157
 20
124.3880704950079
 30
0.0
 40
7.75
 50
60.517066325164748
 51
299.48293367492113
  0
ARC
  5
699
  8
0
 10
145.27818425791571
 20
124.3880704950079
 30
0.0
 40
5.5
 50
270.0
 51
90.0
  0
LINE
  5
69A
  8
0
 10
145.27818425791571
 20
129.8880704950079
 30
0.0
 11
114.6874193658078
 21
129.8880704950079
 31
0.0
  0
ARC
  5
69B
  8
0
 10
115.51410042337869
 20
108.8219591093211
 30
0.0
 40
10.1
 50
94.694889297596447
 51
119.1627065961714
  0
LINE
  5
69C
  8
0
 10
145.27818425791571
 20
118.8880704950079
 30
0.0
 11
114.6874193658078
 21
118.8880704950079
 31
0.0
  0
ARC
  5
69D
  8
3
 10
145.27818425791571
 20
124.3880704950079
 30
0.0
 40
4.5
 50
270.0
 51
90.0
  0
LINE
  5
69E
  8
3
 10
145.27818425791571
 20
128.8880704950079
 30
0.0
 11
114.647394706556
 21
128.8880704950079
 31
0.0
  0
LINE
  5
69F
  8
3
 10
145.27818425791571
 20
119.8880704950079
 30
0.0
 11
114.647394706556
 21
119.8880704950079
 31
0.0
  0
ARC
  5
6A0
  8
3
 10
115.51410042337869
 20
108.8219591093211
 30
0.0
 40
11.1
 50
94.478304306319259
 51
119.1627065961714
  0
ARC
  5
6A1
  8
3
 10
115.51410042337881
 20
139.9541818806947
 30
0.0
 40
11.1
 50
240.8372934038286
 51
265.52169569367823
  0
ARC
  5
6A2
  8
3
 10
106.7781842579157
 20
124.3880704950079
 30
0.0
 40
6.75
 50
60.517066325164748
 51
299.48293367492113
  0
LINE
  5
6A3
  8
1
 10
106.7781842579157
 20
137.1380704950079
 30
0.0
 11
106.7781842579157
 21
111.6380704950079
 31
0.0
  0
LINE
  5
6A4
  8
1
 10
155.7781842579158
 20
124.3880704950079
 30
0.0
 11
94.028184257915768
 21
124.3880704950079
 31
0.0
  0
LINE
  5
6BD
  8
2
 10
45.942506241634632
 20
30.47080160633368
 30
0.0
 11
45.942506241634632
 21
42.47080160633368
 31
0.0
  0
LINE
  5
6BE
  8
2
 10
44.942506241634547
 20
43.470801606333787
 30
0.0
 11
45.942506241634632
 21
42.47080160633368
 31
0.0
  0
LINE
  5
6C4
  8
2
 10
38.942506241634597
 20
30.47080160633368
 30
0.0
 11
38.942506241634597
 21
42.47080160633368
 31
0.0
  0
LINE
  5
6C5
  8
2
 10
39.942506241634547
 20
43.470801606333787
 30
0.0
 11
44.942506241634568
 21
43.470801606333787
 31
0.0
  0
LINE
  5
6C6
  8
2
 10
39.942506241634547
 20
43.470801606333787
 30
0.0
 11
38.942506241634597
 21
42.47080160633368
 31
0.0
  0
LINE
  5
6CA
  8
2
 10
110.2781842579158
 20
30.47080160633362
 30
0.0
 11
110.2781842579158
 21
42.470801606333623
 31
0.0
  0
LINE
  5
6CB
  8
2
 10
109.2781842579157
 20
43.470801606333737
 30
0.0
 11
110.2781842579158
 21
42.470801606333623
 31
0.0
  0
LINE
  5
6CC
  8
2
 10
109.2781842579157
 20
30.8708016063329
 30
0.0
 11
109.2781842579157
 21
40.270801606333627
 31
0.0
  0
LINE
  5
6CD
  8
2
 10
104.2781842579157
 20
30.870801606332929
 30
0.0
 11
104.2781842579157
 21
40.270801606333627
 31
0.0
  0
LINE
  5
6CE
  8
2
 10
109.2781842579157
 20
40.270801606333627
 30
0.0
 11
104.2781842579157
 21
40.270801606333627
 31
0.0
  0
LINE
  5
6CF
  8
2
 10
108.87818425791561
 20
31.27080160633318
 30
0.0
 11
108.87818425791551
 21
41.328210390261397
 31
0.0
  0
LINE
  5
6D0
  8
2
 10
104.6781842579161
 20
31.27080160633318
 30
0.0
 11
104.678184257916
 21
41.328210390261397
 31
0.0
  0
LINE
  5
6D1
  8
2
 10
103.2781842579158
 20
30.47080160633362
 30
0.0
 11
103.2781842579158
 21
42.470801606333623
 31
0.0
  0
LINE
  5
6D2
  8
2
 10
104.2781842579157
 20
43.470801606333737
 30
0.0
 11
109.2781842579158
 21
43.470801606333737
 31
0.0
  0
LINE
  5
6D3
  8
2
 10
104.2781842579157
 20
43.470801606333737
 30
0.0
 11
103.2781842579158
 21
42.470801606333623
 31
0.0
  0
LINE
  5
6D4
  8
2
 10
108.87818425791551
 20
41.328210390261397
 30
0.0
 11
104.678184257916
 21
41.328210390261397
 31
0.0
  0
LINE
  5
6D5
  8
2
 10
106.7781842579157
 20
42.540645955559448
 30
0.0
 11
104.678184257916
 21
41.328210390261397
 31
0.0
  0
LINE
  5
6D6
  8
2
 10
106.7781842579157
 20
42.540645955559448
 30
0.0
 11
108.87818425791551
 21
41.328210390261397
 31
0.0
  0
LINE
  5
6D7
  8
2
 10
204.80780797243531
 20
30.47080160633374
 30
0.0
 11
204.80780797243531
 21
42.47080160633373
 31
0.0
  0
LINE
  5
6D8
  8
2
 10
203.8078079724352
 20
43.470801606333843
 30
0.0
 11
204.80780797243531
 21
42.47080160633373
 31
0.0
  0
LINE
  5
6DE
  8
2
 10
197.8078079724352
 20
30.47080160633374
 30
0.0
 11
197.8078079724352
 21
42.47080160633373
 31
0.0
  0
LINE
  5
6DF
  8
2
 10
198.8078079724352
 20
43.470801606333843
 30
0.0
 11
203.8078079724352
 21
43.470801606333843
 31
0.0
  0
LINE
  5
6E0
  8
2
 10
198.8078079724352
 20
43.470801606333843
 30
0.0
 11
197.8078079724352
 21
42.47080160633373
 31
0.0
  0
LINE
  5
73A
  8
2
 10
108.87818425791539
 20
40.963621929361267
 30
0.0
 11
109.2781842579155
 21
40.270801606333592
 31
0.0
  0
LINE
  5
73B
  8
2
 10
104.6781842579159
 20
40.963621929361267
 30
0.0
 11
104.2781842579159
 21
40.270801606333592
 31
0.0
  0
LINE
  5
73C
  8
2
 10
104.678184257916
 20
31.27080160633318
 30
0.0
 11
103.6781842579164
 21
30.270801606333642
 31
0.0
  0
LINE
  5
73D
  8
2
 10
104.678184257916
 20
31.27080160633318
 30
0.0
 11
108.87818425791539
 21
31.27080160633318
 31
0.0
  0
LINE
  5
73E
  8
2
 10
108.87818425791539
 20
31.27080160633318
 30
0.0
 11
109.878184257915
 21
30.270801606333642
 31
0.0
  0
LINE
  5
745
  8
2
 10
203.8078079724352
 20
30.870801606333011
 30
0.0
 11
203.8078079724352
 21
40.270801606333741
 31
0.0
  0
LINE
  5
746
  8
2
 10
198.8078079724352
 20
30.870801606333039
 30
0.0
 11
198.8078079724352
 21
40.270801606333741
 31
0.0
  0
LINE
  5
747
  8
2
 10
203.8078079724352
 20
40.270801606333741
 30
0.0
 11
198.8078079724352
 21
40.270801606333741
 31
0.0
  0
LINE
  5
748
  8
2
 10
203.40780797243511
 20
31.270801606333301
 30
0.0
 11
203.40780797243491
 21
41.328210390261511
 31
0.0
  0
LINE
  5
749
  8
2
 10
199.2078079724356
 20
31.270801606333301
 30
0.0
 11
199.2078079724354
 21
41.328210390261511
 31
0.0
  0
LINE
  5
74A
  8
2
 10
203.40780797243491
 20
41.328210390261511
 30
0.0
 11
199.2078079724354
 21
41.328210390261511
 31
0.0
  0
LINE
  5
74B
  8
2
 10
201.3078079724352
 20
42.540645955559569
 30
0.0
 11
199.2078079724354
 21
41.328210390261511
 31
0.0
  0
LINE
  5
74C
  8
2
 10
201.3078079724352
 20
42.540645955559569
 30
0.0
 11
203.40780797243491
 21
41.328210390261511
 31
0.0
  0
LINE
  5
74D
  8
2
 10
203.40780797243491
 20
40.963621929361388
 30
0.0
 11
203.80780797243489
 21
40.270801606333713
 31
0.0
  0
LINE
  5
74E
  8
2
 10
199.2078079724354
 20
40.963621929361388
 30
0.0
 11
198.80780797243531
 21
40.270801606333713
 31
0.0
  0
LINE
  5
74F
  8
2
 10
199.2078079724354
 20
31.270801606333301
 30
0.0
 11
198.20780797243589
 21
30.270801606333752
 31
0.0
  0
LINE
  5
750
  8
2
 10
199.2078079724354
 20
31.270801606333301
 30
0.0
 11
203.40780797243491
 21
31.270801606333301
 31
0.0
  0
LINE
  5
751
  8
2
 10
203.40780797243491
 20
31.270801606333301
 30
0.0
 11
204.40780797243451
 21
30.270801606333752
 31
0.0
  0
LINE
  5
752
  8
2
 10
44.942506241634533
 20
30.870801606332961
 30
0.0
 11
44.942506241634547
 21
40.270801606333698
 31
0.0
  0
LINE
  5
753
  8
2
 10
39.942506241634533
 20
30.870801606332989
 30
0.0
 11
39.942506241634547
 21
40.270801606333698
 31
0.0
  0
LINE
  5
754
  8
2
 10
44.942506241634547
 20
40.270801606333698
 30
0.0
 11
39.942506241634547
 21
40.270801606333698
 31
0.0
  0
LINE
  5
755
  8
2
 10
44.542506241634413
 20
31.270801606333251
 30
0.0
 11
44.542506241634278
 21
41.328210390261461
 31
0.0
  0
LINE
  5
756
  8
2
 10
40.342506241634929
 20
31.270801606333251
 30
0.0
 11
40.342506241634808
 21
41.328210390261461
 31
0.0
  0
LINE
  5
757
  8
2
 10
44.542506241634278
 20
41.328210390261461
 30
0.0
 11
40.342506241634808
 21
41.328210390261461
 31
0.0
  0
LINE
  5
758
  8
2
 10
42.442506241634547
 20
42.540645955559512
 30
0.0
 11
40.342506241634808
 21
41.328210390261461
 31
0.0
  0
LINE
  5
759
  8
2
 10
42.442506241634547
 20
42.540645955559512
 30
0.0
 11
44.542506241634278
 21
41.328210390261461
 31
0.0
  0
LINE
  5
75A
  8
2
 10
44.542506241634243
 20
40.963621929361331
 30
0.0
 11
44.942506241634298
 21
40.270801606333663
 31
0.0
  0
LINE
  5
75B
  8
2
 10
40.342506241634759
 20
40.963621929361331
 30
0.0
 11
39.942506241634703
 21
40.270801606333663
 31
0.0
  0
LINE
  5
75C
  8
2
 10
40.34250624163478
 20
31.270801606333251
 30
0.0
 11
39.342506241635242
 21
30.270801606333698
 31
0.0
  0
LINE
  5
75D
  8
2
 10
40.34250624163478
 20
31.270801606333251
 30
0.0
 11
44.54250624163425
 21
31.270801606333251
 31
0.0
  0
LINE
  5
75E
  8
2
 10
44.54250624163425
 20
31.270801606333251
 30
0.0
 11
45.542506241633802
 21
30.270801606333698
 31
0.0
  0
TEXT
  5
7EC
  8
0
 62
     3
 10
0.0
 20
0.0
 30
0.0
 40
10.0
  1
EAL44
  7
STANDARD1
  0
ENDSEC
  0
EOF
