  0
SECTION
  2
HEADER
  9
$ACADVER
  1
AC1009
  9
$INSBASE
 10
0.0
 20
0.0
 30
0.0
  9
$EXTMIN
 10
0.0
 20
-2.960436562073669
 30
0.0
  9
$EXTMAX
 10
244.86155431348021
 20
168.69999999999999
 30
0.0
  9
$LIMMIN
 10
0.0
 20
0.0
  9
$LIMMAX
 10
385.0
 20
270.0
  9
$ORTHOMODE
 70
     1
  9
$REGENMODE
 70
     1
  9
$FILLMODE
 70
     1
  9
$QTEXTMODE
 70
     0
  9
$MIRRTEXT
 70
     0
  9
$DRAGMODE
 70
     2
  9
$LTSCALE
 40
10.0
  9
$OSMODE
 70
    37
  9
$ATTMODE
 70
     1
  9
$TEXTSIZE
 40
0.2
  9
$TRACEWID
 40
0.05
  9
$TEXTSTYLE
  7
STANDARD
  9
$CLAYER
  8
0
  9
$CELTYPE
  6
BYLAYER
  9
$CECOLOR
 62
   256
  9
$DIMSCALE
 40
1.0
  9
$DIMASZ
 40
3.0
  9
$DIMEXO
 40
0.0625
  9
$DIMDLI
 40
0.38
  9
$DIMRND
 40
0.0
  9
$DIMDLE
 40
0.0
  9
$DIMEXE
 40
0.18
  9
$DIMTP
 40
0.0
  9
$DIMTM
 40
0.0
  9
$DIMTXT
 40
3.0
  9
$DIMCEN
 40
0.09
  9
$DIMTSZ
 40
0.0
  9
$DIMTOL
 70
     0
  9
$DIMLIM
 70
     0
  9
$DIMTIH
 70
     1
  9
$DIMTOH
 70
     1
  9
$DIMSE1
 70
     0
  9
$DIMSE2
 70
     0
  9
$DIMTAD
 70
     0
  9
$DIMZIN
 70
     0
  9
$DIMBLK
  1

  9
$DIMASO
 70
     1
  9
$DIMSHO
 70
     1
  9
$DIMPOST
  1

  9
$DIMAPOST
  1

  9
$DIMALT
 70
     0
  9
$DIMALTD
 70
     2
  9
$DIMALTF
 40
25.399999999999999
  9
$DIMLFAC
 40
1.0
  9
$DIMTOFL
 70
     0
  9
$DIMTVP
 40
0.0
  9
$DIMTIX
 70
     0
  9
$DIMSOXD
 70
     0
  9
$DIMSAH
 70
     0
  9
$DIMBLK1
  1

  9
$DIMBLK2
  1

  9
$DIMSTYLE
  2
STANDARD
  9
$DIMCLRD
 70
     0
  9
$DIMCLRE
 70
     0
  9
$DIMCLRT
 70
     0
  9
$DIMTFAC
 40
1.0
  9
$DIMGAP
 40
0.09
  9
$LUNITS
 70
     2
  9
$LUPREC
 70
     4
  9
$SKETCHINC
 40
0.1
  9
$FILLETRAD
 40
0.0
  9
$AUNITS
 70
     0
  9
$AUPREC
 70
     0
  9
$MENU
  1
E:\r13\win\SUPPORT\ACAD
  9
$ELEVATION
 40
0.0
  9
$PELEVATION
 40
0.0
  9
$THICKNESS
 40
0.0
  9
$LIMCHECK
 70
     0
  9
$BLIPMODE
 70
     0
  9
$CHAMFERA
 40
0.0
  9
$CHAMFERB
 40
0.0
  9
$SKPOLY
 70
     0
  9
$TDCREATE
 40
2450365.3691899311
  9
$TDUPDATE
 40
2457162.6021451969
  9
$TDINDWG
 40
0.0509159375
  9
$TDUSRTIMER
 40
0.0509159375
  9
$USRTIMER
 70
     1
  9
$ANGBASE
 50
0.0
  9
$ANGDIR
 70
     0
  9
$PDMODE
 70
     0
  9
$PDSIZE
 40
0.0
  9
$PLINEWID
 40
0.0
  9
$COORDS
 70
     1
  9
$SPLFRAME
 70
     0
  9
$SPLINETYPE
 70
     6
  9
$SPLINESEGS
 70
     8
  9
$ATTDIA
 70
     0
  9
$ATTREQ
 70
     1
  9
$HANDLING
 70
     1
  9
$HANDSEED
  5
822
  9
$SURFTAB1
 70
     6
  9
$SURFTAB2
 70
     6
  9
$SURFTYPE
 70
     6
  9
$SURFU
 70
     6
  9
$SURFV
 70
     6
  9
$UCSNAME
  2

  9
$UCSORG
 10
0.0
 20
0.0
 30
0.0
  9
$UCSXDIR
 10
1.0
 20
0.0
 30
0.0
  9
$UCSYDIR
 10
0.0
 20
1.0
 30
0.0
  9
$PUCSNAME
  2

  9
$PUCSORG
 10
0.0
 20
0.0
 30
0.0
  9
$PUCSXDIR
 10
1.0
 20
0.0
 30
0.0
  9
$PUCSYDIR
 10
0.0
 20
1.0
 30
0.0
  9
$USERI1
 70
     3
  9
$USERI2
 70
     1
  9
$USERI3
 70
     1
  9
$USERI4
 70
     0
  9
$USERI5
 70
     0
  9
$USERR1
 40
1.0
  9
$USERR2
 40
3.0
  9
$USERR3
 40
3.0
  9
$USERR4
 40
3.0
  9
$USERR5
 40
10.0
  9
$WORLDVIEW
 70
     1
  9
$SHADEDGE
 70
     3
  9
$SHADEDIF
 70
    70
  9
$TILEMODE
 70
     1
  9
$MAXACTVP
 70
    16
  9
$PLIMCHECK
 70
     0
  9
$PEXTMIN
 10
1.0000000000000000E+020
 20
1.0000000000000000E+020
 30
1.0000000000000000E+020
  9
$PEXTMAX
 10
-1.0000000000000000E+020
 20
-1.0000000000000000E+020
 30
-1.0000000000000000E+020
  9
$PLIMMIN
 10
0.0
 20
0.0
  9
$PLIMMAX
 10
12.0
 20
9.0
  9
$UNITMODE
 70
     0
  9
$VISRETAIN
 70
     0
  9
$PLINEGEN
 70
     0
  9
$PSLTSCALE
 70
     0
  0
ENDSEC
  0
SECTION
  2
TABLES
  0
TABLE
  2
VPORT
 70
     1
  0
VPORT
  2
*ACTIVE
 70
     0
 10
0.0
 20
0.0
 11
1.0
 21
1.0
 12
228.4003971912714
 22
150.30180753261629
 13
0.0
 23
0.0
 14
5.0
 24
5.0
 15
0.0
 25
0.0
 16
0.0
 26
0.0
 36
1.0
 17
0.0
 27
0.0
 37
0.0
 40
309.01950150819818
 41
1.816239316239316
 42
50.0
 43
0.0
 44
0.0
 50
0.0
 51
0.0
 71
     0
 72
   100
 73
     1
 74
     0
 75
     0
 76
     0
 77
     0
 78
     0
  0
ENDTAB
  0
TABLE
  2
LTYPE
 70
     4
  0
LTYPE
  2
CONTINUOUS
 70
     0
  3
Solid Line
 72
    65
 73
     0
 40
0.0
  0
LTYPE
  2
CENTER
 70
     0
  3
____ _ ____ _ ____ _ ____ _ ____ _ ____ _ ____
 72
    65
 73
     4
 40
2.0
 49
1.25
 49
-0.25
 49
0.25
 49
-0.25
  0
LTYPE
  2
HIDDEN
 70
     0
  3
_ _ _ _ _ _ _ _ _ _ _ _ _ _ _ _ _ _ _ _ _ _ _
 72
    65
 73
     2
 40
0.375
 49
0.25
 49
-0.125
  0
LTYPE
  2
PHANTOM2
 70
     0
  3
___ _ _ ___ _ _ ___ _ _ ___ _ _
 72
    65
 73
     6
 40
1.25
 49
0.625
 49
-0.125
 49
0.125
 49
-0.125
 49
0.125
 49
-0.125
  0
ENDTAB
  0
TABLE
  2
LAYER
 70
     5
  0
LAYER
  2
0
 70
     0
 62
     7
  6
CONTINUOUS
  0
LAYER
  2
1
 70
     0
 62
     1
  6
CENTER
  0
LAYER
  2
2
 70
     0
 62
     2
  6
HIDDEN
  0
LAYER
  2
3
 70
     0
 62
     3
  6
CONTINUOUS
  0
LAYER
  2
DEFPOINTS
 70
     0
 62
     7
  6
CONTINUOUS
  0
ENDTAB
  0
TABLE
  2
STYLE
 70
     2
  0
STYLE
  2
STANDARD
 70
     0
 40
0.0
 41
1.0
 50
0.0
 71
     0
 42
0.2
  3
SIMPLEX
  4
BIGFONT
  0
STYLE
  2
STANDARD1
 70
     0
 40
0.0
 41
1.0
 50
0.0
 71
     0
 42
3.0
  3
txt
  4

  0
ENDTAB
  0
TABLE
  2
VIEW
 70
     0
  0
ENDTAB
  0
TABLE
  2
UCS
 70
     0
  0
ENDTAB
  0
TABLE
  2
APPID
 70
     6
  0
APPID
  2
ACAD
 70
     0
  0
APPID
  2
ACAD_MLEADERVER
 70
     0
  0
APPID
  2
ACAD_EXEMPT_FROM_CAD_STANDARDS
 70
     0
  0
APPID
  2
ACAD_NAV_VCDISPLAY
 70
     0
  0
APPID
  2
ACAD_DSTYLE_DIMJAG
 70
     0
  0
APPID
  2
ACAD_DSTYLE_DIMTALN
 70
     0
  0
ENDTAB
  0
TABLE
  2
DIMSTYLE
 70
     1
  0
DIMSTYLE
  2
STANDARD
 70
     0
  3

  4

  5

  6

  7

 40
1.0
 41
0.18
 42
0.0625
 43
0.38
 44
0.18
 45
0.0
 46
0.0
 47
0.0
 48
0.0
140
0.18
141
0.09
142
0.0
143
25.399999999999999
144
1.0
145
0.0
146
1.0
147
0.09
 71
     0
 72
     0
 73
     1
 74
     1
 75
     0
 76
     0
 77
     0
 78
     0
170
     0
171
     2
172
     0
173
     0
174
     0
175
     0
176
     0
177
     0
178
     0
  0
ENDTAB
  0
ENDSEC
  0
SECTION
  2
BLOCKS
  0
BLOCK
  8
0
  2
$MODEL_SPACE
 70
     0
 10
0.0
 20
0.0
 30
0.0
  3
$MODEL_SPACE
  1

  0
ENDBLK
  5
1EB
  8
0
  0
BLOCK
 67
     1
  8
0
  2
$PAPER_SPACE
 70
     0
 10
0.0
 20
0.0
 30
0.0
  3
$PAPER_SPACE
  1

  0
ENDBLK
  5
1E9
 67
     1
  8
0
  0
ENDSEC
  0
SECTION
  2
ENTITIES
  0
LINE
  5
163
  8
0
 10
131.36278646458231
 20
61.0
 30
0.0
 11
131.36278646458231
 21
47.165063509461113
 31
0.0
  0
LINE
  5
164
  8
3
 10
130.31580680769551
 20
59.000000000000227
 30
0.0
 11
130.31580680769551
 21
45.351641549242117
 31
0.0
  0
LINE
  5
165
  8
3
 10
124.4097661214691
 20
59.000000000000227
 30
0.0
 11
124.4097661214691
 21
45.351641549242117
 31
0.0
  0
LINE
  5
166
  8
0
 10
123.3627864645823
 20
61.0
 30
0.0
 11
123.3627864645824
 21
47.165063509461113
 31
0.0
  0
LINE
  5
169
  8
0
 10
124.6127864645823
 20
45.0
 30
0.0
 11
123.3627864645824
 21
47.165063509461113
 31
0.0
  0
LINE
  5
16A
  8
0
 10
123.3627864645824
 20
47.165063509461113
 30
0.0
 11
131.3627864645822
 21
47.165063509461042
 31
0.0
  0
LINE
  5
16B
  8
0
 10
130.1127864645822
 20
45.0
 30
0.0
 11
124.6127864645823
 21
45.0
 31
0.0
  0
LINE
  5
16C
  8
0
 10
131.36278646458231
 20
47.165063509461113
 30
0.0
 11
130.11278646458231
 21
45.0
 31
0.0
  0
LINE
  5
16F
  8
0
 10
131.36278646458231
 20
59.000000000000227
 30
0.0
 11
123.3627864645823
 21
59.000000000000227
 31
0.0
  0
CIRCLE
  5
4BD
  8
0
 10
127.3627864645823
 20
154.19999999999999
 30
0.0
 40
5.4000000000000004
  0
ARC
  5
4BE
  8
0
 10
131.76278646458209
 20
97.400000000000091
 30
0.0
 40
1.0
 50
0.0
 51
90.0
  0
LINE
  5
4BF
  8
0
 10
131.76278646458209
 20
98.400000000000105
 30
0.0
 11
122.96278646458219
 21
98.400000000000105
 31
0.0
  0
LINE
  5
4C0
  8
0
 10
132.76278646458221
 20
94.731327757611425
 30
0.0
 11
132.76278646458221
 21
97.400000000000091
 31
0.0
  0
ARC
  5
4C1
  8
0
 10
122.96278646458219
 20
97.400000000000091
 30
0.0
 40
1.0
 50
90.0
 51
180.0
  0
LINE
  5
4C2
  8
0
 10
121.96278646458219
 20
93.400000000000077
 30
0.0
 11
121.96278646458219
 21
97.400000000000091
 31
0.0
  0
LINE
  5
4C3
  8
0
 10
134.86278646458231
 20
61.799999999999891
 30
0.0
 11
134.26278646458229
 21
61.199999999999989
 31
0.0
  0
LINE
  5
4C4
  8
0
 10
134.86278646458231
 20
69.0
 30
0.0
 11
134.86278646458231
 21
61.799999999999891
 31
0.0
  0
LINE
  5
4C5
  8
2
 10
136.76137890117411
 20
74.767223104458481
 30
0.0
 11
136.86525349251141
 21
91.862678862594407
 31
0.0
  0
LINE
  5
4C6
  8
0
 10
119.8627864645823
 20
61.799999999999962
 30
0.0
 11
120.46278646458229
 21
61.200000000000038
 31
0.0
  0
LINE
  5
4C7
  8
0
 10
119.8627864645823
 20
69.0
 30
0.0
 11
119.8627864645823
 21
61.799999999999962
 31
0.0
  0
LINE
  5
4C8
  8
0
 10
120.46278646458229
 20
61.200000000000038
 30
0.0
 11
134.26278646458229
 21
61.200000000000038
 31
0.0
  0
LINE
  5
4C9
  8
0
 10
119.8627864645823
 20
67.999999999999943
 30
0.0
 11
134.86278646458231
 21
68.0
 31
0.0
  0
ARC
  5
4CA
  8
0
 10
187.8627864645822
 20
101.5000000000001
 30
0.0
 40
2.5
 50
2.3910729895675442
 51
89.999999999999588
  0
LINE
  5
4CB
  8
0
 10
187.8627864645822
 20
104.0000000000001
 30
0.0
 11
182.58610473984891
 21
104.0000000000001
 31
0.0
  0
LINE
  5
4CC
  8
2
 10
184.5515915976238
 20
95.935464242920844
 30
0.0
 11
184.48534112890729
 21
99.730951053707386
 31
0.0
  0
ARC
  5
4CD
  8
0
 10
179.01618583191791
 20
90.670341838754894
 30
0.0
 40
7.5750000000000011
 50
47.636674913815028
 51
67.670727145868085
  0
ARC
  5
4CE
  8
0
 10
186.03742405767841
 20
98.278000000000034
 30
0.0
 40
2.778
 50
226.36535271183931
 51
315.26356537728572
  0
ARC
  5
4CF
  8
0
 10
182.84116777408639
 20
101.78624812546229
 30
0.0
 40
7.5216430270795342
 50
313.41664324423522
 51
358.6138827821585
  0
ARC
  5
4D0
  8
2
 10
182.98556958617269
 20
99.704772444051628
 30
0.0
 40
1.5
 50
0.9999999999985179
 51
91.080949145711045
  0
ARC
  5
4D1
  8
2
 10
139.3652068481139
 20
91.847407326617827
 30
0.0
 40
2.5
 50
106.7801033010431
 51
179.65000000000131
  0
ARC
  5
4D2
  8
0
 10
128.17078646458211
 20
101.9849999999999
 30
0.0
 40
8.5850000000000009
 50
270.0
 51
325.62418432622258
  0
ARC
  5
4D3
  8
0
 10
119.88274877590921
 20
91.380000000000095
 30
0.0
 40
2.02
 50
90.0
 51
180.3499999999986
  0
LINE
  5
4D4
  8
0
 10
128.17078646458211
 20
93.400000000000077
 30
0.0
 11
119.88274877590921
 21
93.400000000000077
 31
0.0
  0
ARC
  5
4D5
  8
0
 10
182.58610473984891
 20
-62.64999999999975
 30
0.0
 40
166.65000000000001
 50
90.0
 51
106.49946753813531
  0
ARC
  5
4D6
  8
2
 10
186.0553959809798
 20
-62.992268837914366
 30
0.0
 40
164.226
 50
91.080949145708615
 51
106.7801033010427
  0
LINE
  5
4D7
  8
0
 10
136.72614850180361
 20
69.0
 30
0.0
 11
117.99942442736091
 21
69.0
 31
0.0
  0
ARC
  5
4D8
  8
0
 10
149.64113093195471
 20
74.687300481867055
 30
0.0
 40
12.880000000000001
 50
119.4133831322485
 51
179.64446751947241
  0
CIRCLE
  5
4D9
  8
0
 10
149.4290556245009
 20
154.19999999999999
 30
0.0
 40
0.9000000000000001
  0
CIRCLE
  5
4DA
  8
0
 10
141.5147560477447
 20
154.19999999999999
 30
0.0
 40
0.9000000000000001
  0
CIRCLE
  5
4DB
  8
0
 10
144.14370918774739
 20
154.19999999999999
 30
0.0
 40
0.9000000000000001
  0
CIRCLE
  5
4DC
  8
0
 10
146.77240511229499
 20
154.19999999999999
 30
0.0
 40
0.9000000000000001
  0
ARC
  5
4DD
  8
3
 10
103.1561307074916
 20
154.19999999999999
 30
0.0
 40
31.935543275418951
 50
349.93181562997762
 51
10.06818437002239
  0
CIRCLE
  5
4DE
  8
0
 10
138.9076254142789
 20
154.19999999999999
 30
0.0
 40
0.9000000000000001
  0
LINE
  5
4DF
  8
1
 10
127.3627864645822
 20
103.40000000000011
 30
0.0
 11
127.3627864645823
 21
40.0
 31
0.0
  0
ARC
  5
4E0
  8
0
 10
192.91750075344399
 20
-2.0739541657327498
 30
0.0
 40
101.0
 50
97.736332650601057
 51
119.4133831322485
  0
LINE
  5
4E1
  8
0
 10
117.99942442736091
 20
69.0
 30
0.0
 11
117.8627864645822
 21
91.367660598930911
 31
0.0
  0
LINE
  5
4E2
  8
1
 10
235.3615543134801
 20
109.0000000000001
 30
0.0
 11
235.3615543134801
 21
40.000000000000099
 31
0.0
  0
LINE
  5
4E3
  8
1
 10
43.941096937708188
 20
109.0
 30
0.0
 11
43.941096937708252
 21
40.00000000000005
 31
0.0
  0
LINE
  5
4E4
  8
0
 10
38.541096937708303
 20
93.400000000000148
 30
0.0
 11
38.541096937708303
 21
97.400000000000205
 31
0.0
  0
ARC
  5
4E5
  8
0
 10
39.541096937708247
 20
97.400000000000205
 30
0.0
 40
1.0
 50
90.0
 51
180.0
  0
LINE
  5
4E7
  8
0
 10
228.61155431348001
 20
101.5000000000001
 30
0.0
 11
228.61155431348021
 21
74.767223104458424
 31
0.0
  0
LINE
  5
4E8
  8
0
 10
242.1115543134801
 20
101.5000000000001
 30
0.0
 11
242.1115543134801
 21
74.767223104458424
 31
0.0
  0
LINE
  5
4E9
  8
0
 10
231.8615543134801
 20
96.466689850834314
 30
0.0
 11
231.8615543134801
 21
74.767223104458424
 31
0.0
  0
LINE
  5
4EA
  8
0
 10
238.8615543134801
 20
96.466689850834314
 30
0.0
 11
238.8615543134801
 21
74.767223104458424
 31
0.0
  0
ARC
  5
4EB
  8
0
 10
231.11155431348001
 20
101.5000000000001
 30
0.0
 40
2.5
 50
90.0
 51
180.0
  0
ARC
  5
4EC
  8
0
 10
239.6115543134801
 20
101.5000000000001
 30
0.0
 40
2.5
 50
0.0
 51
90.0
  0
LINE
  5
4ED
  8
0
 10
48.341096937708201
 20
98.400000000000148
 30
0.0
 11
39.541096937708247
 21
98.400000000000148
 31
0.0
  0
ARC
  5
4EE
  8
0
 10
48.341096937708201
 20
97.400000000000205
 30
0.0
 40
1.0
 50
0.0
 51
90.0
  0
LINE
  5
4EF
  8
0
 10
49.341096937708137
 20
93.400000000000148
 30
0.0
 11
49.341096937708137
 21
97.400000000000205
 31
0.0
  0
LINE
  5
4F3
  8
0
 10
50.69109693770821
 20
96.905281409502606
 30
0.0
 11
49.341096937708137
 21
96.905281409502606
 31
0.0
  0
LINE
  5
4F4
  8
0
 10
38.541096937708303
 20
96.905281409502564
 30
0.0
 11
37.19109693770821
 21
96.905281409502535
 31
0.0
  0
ARC
  5
4F7
  8
0
 10
235.36155431348001
 20
102.2968524297474
 30
0.0
 40
6.7968524297474691
 50
186.73130950690751
 51
353.26869049309249
  0
LINE
  5
4F8
  8
3
 10
133.4938068057906
 20
61.200859994477703
 30
0.0
 11
133.49380680579051
 21
68.0
 31
0.0
  0
LINE
  5
4F9
  8
3
 10
132.3938068057906
 20
61.200859994477703
 30
0.0
 11
132.3938068057906
 21
68.0
 31
0.0
  0
LINE
  5
4FA
  8
3
 10
131.2938068057905
 20
61.200859994477703
 30
0.0
 11
131.2938068057905
 21
68.0
 31
0.0
  0
LINE
  5
4FB
  8
3
 10
130.19380680579059
 20
61.200859994477703
 30
0.0
 11
130.1938068057905
 21
68.0
 31
0.0
  0
LINE
  5
4FC
  8
3
 10
129.09380680579059
 20
61.200859994477703
 30
0.0
 11
129.09380680579059
 21
68.0
 31
0.0
  0
LINE
  5
4FD
  8
3
 10
127.9938068057906
 20
61.200859994477703
 30
0.0
 11
127.9938068057907
 21
68.0
 31
0.0
  0
LINE
  5
4FE
  8
3
 10
126.7317661233738
 20
61.200859994477703
 30
0.0
 11
126.7317661233738
 21
68.0
 31
0.0
  0
LINE
  5
4FF
  8
3
 10
134.48978600246471
 20
61.426999537882352
 30
0.0
 11
134.48978600246471
 21
68.0
 31
0.0
  0
LINE
  5
500
  8
3
 10
121.231766123374
 20
61.200859994477639
 30
0.0
 11
121.231766123374
 21
67.999999999999943
 31
0.0
  0
LINE
  5
501
  8
3
 10
122.331766123374
 20
61.200859994477639
 30
0.0
 11
122.331766123374
 21
67.999999999999943
 31
0.0
  0
LINE
  5
502
  8
3
 10
123.4317661233741
 20
61.200859994477639
 30
0.0
 11
123.4317661233741
 21
67.999999999999943
 31
0.0
  0
LINE
  5
503
  8
3
 10
124.531766123374
 20
61.200859994477639
 30
0.0
 11
124.531766123374
 21
67.999999999999943
 31
0.0
  0
LINE
  5
504
  8
3
 10
125.63176612337401
 20
61.200859994477639
 30
0.0
 11
125.63176612337401
 21
68.0
 31
0.0
  0
LINE
  5
505
  8
3
 10
120.2357869267
 20
61.426999537882352
 30
0.0
 11
120.2357869266999
 21
67.999999999999943
 31
0.0
  0
LINE
  5
506
  8
0
 10
136.72614850180361
 20
69.000000000000057
 30
0.0
 11
136.7613789011728
 21
74.767223104264417
 31
0.0
  0
ARC
  5
507
  8
0
 10
179.99450250927521
 20
93.052257344981854
 30
0.0
 40
5.0
 50
67.670727145868085
 51
97.736332650601057
  0
LINE
  5
508
  8
0
 10
53.304458974929602
 20
69.0
 30
0.0
 11
34.577734900486902
 21
69.000000000000057
 31
0.0
  0
LINE
  5
509
  8
0
 10
34.577734900486902
 20
69.000000000000057
 30
0.0
 11
34.441096937708188
 21
91.367660598930954
 31
0.0
  0
ARC
  5
50A
  8
0
 10
36.461059249035188
 20
91.380000000000166
 30
0.0
 40
2.02
 50
90.0
 51
180.3499999999986
  0
LINE
  5
50B
  8
0
 10
51.421134626380791
 20
93.400000000000205
 30
0.0
 11
36.461059249035188
 21
93.400000000000148
 31
0.0
  0
LINE
  5
50C
  8
0
 10
225.99819227625869
 20
69.000000000000114
 30
0.0
 11
225.8615543134801
 21
91.367660598931025
 31
0.0
  0
LINE
  5
50D
  8
0
 10
242.84159200215319
 20
93.400000000000148
 30
0.0
 11
242.1115543134801
 21
93.400000000000148
 31
0.0
  0
ARC
  5
50E
  8
0
 10
227.88151662480701
 20
91.380000000000223
 30
0.0
 40
2.02
 50
90.0
 51
180.3499999999986
  0
LINE
  5
50F
  8
0
 10
244.72491635070139
 20
69.000000000000114
 30
0.0
 11
225.99819227625869
 21
69.000000000000114
 31
0.0
  0
ARC
  5
510
  8
0
 10
242.84159200215319
 20
91.380000000000223
 30
0.0
 40
2.02
 50
359.6499999999981
 51
90.0
  0
LINE
  5
511
  8
0
 10
244.72491635070139
 20
69.000000000000114
 30
0.0
 11
244.86155431348021
 21
91.367660598931025
 31
0.0
  0
LINE
  5
512
  8
0
 10
228.61155431348001
 20
93.400000000000205
 30
0.0
 11
227.88151662480701
 21
93.400000000000205
 31
0.0
  0
ARC
  5
513
  8
0
 10
127.3627864645823
 20
154.19999999999999
 30
0.0
 40
9.5
 50
59.201618289706978
 51
300.79838171029297
  0
ARC
  5
514
  8
0
 10
183.61278646458231
 20
154.19999999999999
 30
0.0
 40
6.75
 50
270.0
 51
90.0
  0
LINE
  5
515
  8
0
 10
183.61278646458231
 20
160.94999999999999
 30
0.0
 11
137.34714923844021
 21
160.94999999999999
 31
0.0
  0
ARC
  5
516
  8
0
 10
137.34714923844021
 20
170.94999999999999
 30
0.0
 40
10.0
 50
239.201618289707
 51
270.0
  0
LINE
  5
517
  8
0
 10
183.61278646458231
 20
147.44999999999999
 30
0.0
 11
137.34714923844021
 21
147.44999999999999
 31
0.0
  0
ARC
  5
518
  8
0
 10
137.34714923844021
 20
137.44999999999999
 30
0.0
 40
10.0
 50
90.0
 51
120.798381710293
  0
ARC
  5
519
  8
3
 10
183.61278646458231
 20
154.19999999999999
 30
0.0
 40
5.25
 50
270.0
 51
90.0
  0
LINE
  5
51A
  8
3
 10
183.61278646458231
 20
148.94999999999999
 30
0.0
 11
137.34714923844021
 21
148.94999999999999
 31
0.0
  0
LINE
  5
51B
  8
3
 10
183.61278646458231
 20
159.44999999999999
 30
0.0
 11
137.34714923844021
 21
159.44999999999999
 31
0.0
  0
ARC
  5
51C
  8
3
 10
137.34714923844021
 20
170.94999999999999
 30
0.0
 40
11.5
 50
239.201618289707
 51
270.0
  0
ARC
  5
51D
  8
3
 10
127.3627864645823
 20
154.19999999999999
 30
0.0
 40
8.0
 50
59.201618289706978
 51
300.79838171029297
  0
ARC
  5
51E
  8
3
 10
137.34714923844021
 20
137.44999999999999
 30
0.0
 40
11.5
 50
90.0
 51
120.798381710293
  0
LINE
  5
51F
  8
1
 10
127.3627864645823
 20
168.69999999999999
 30
0.0
 11
127.3627864645823
 21
139.69999999999999
 31
0.0
  0
LINE
  5
520
  8
1
 10
195.36278646458231
 20
154.19999999999999
 30
0.0
 11
112.8627864645823
 21
154.19999999999999
 31
0.0
  0
LINE
  5
521
  8
0
 10
53.304458974929616
 20
69.000000000000099
 30
0.0
 11
53.44109693770821
 21
91.36766059893101
 31
0.0
  0
ARC
  5
522
  8
0
 10
51.421134626381217
 20
91.380000000000194
 30
0.0
 40
2.02
 50
359.6500000000018
 51
90.0
  0
LINE
  5
523
  8
0
 10
51.441096937708281
 20
61.799999999999919
 30
0.0
 11
50.841096937708258
 21
61.20000000000001
 31
0.0
  0
LINE
  5
524
  8
0
 10
51.441096937708252
 20
69.000000000000028
 30
0.0
 11
51.441096937708281
 21
61.799999999999919
 31
0.0
  0
LINE
  5
525
  8
0
 10
36.441096937708252
 20
61.799999999999983
 30
0.0
 11
37.041096937708282
 21
61.200000000000081
 31
0.0
  0
LINE
  5
526
  8
0
 10
36.441096937708252
 20
69.000000000000028
 30
0.0
 11
36.441096937708252
 21
61.799999999999983
 31
0.0
  0
LINE
  5
527
  8
0
 10
37.041096937708282
 20
61.200000000000081
 30
0.0
 11
50.841096937708279
 21
61.200000000000081
 31
0.0
  0
LINE
  5
528
  8
0
 10
36.441096937708252
 20
67.999999999999972
 30
0.0
 11
51.441096937708281
 21
68.000000000000028
 31
0.0
  0
LINE
  5
529
  8
3
 10
50.072117278916572
 20
61.200859994477717
 30
0.0
 11
50.072117278916537
 21
68.000000000000028
 31
0.0
  0
LINE
  5
52A
  8
3
 10
48.972117278916599
 20
61.200859994477717
 30
0.0
 11
48.972117278916599
 21
68.000000000000028
 31
0.0
  0
LINE
  5
52B
  8
3
 10
47.872117278916463
 20
61.200859994477717
 30
0.0
 11
47.872117278916491
 21
68.000000000000028
 31
0.0
  0
LINE
  5
52C
  8
3
 10
46.772117278916546
 20
61.200859994477717
 30
0.0
 11
46.772117278916518
 21
68.000000000000028
 31
0.0
  0
LINE
  5
52D
  8
3
 10
45.672117278916588
 20
61.200859994477717
 30
0.0
 11
45.672117278916588
 21
68.000000000000028
 31
0.0
  0
LINE
  5
52E
  8
3
 10
44.572117278916622
 20
61.200859994477717
 30
0.0
 11
44.57211727891665
 21
68.000000000000028
 31
0.0
  0
LINE
  5
52F
  8
3
 10
43.310076596499833
 20
61.200859994477717
 30
0.0
 11
43.310076596499833
 21
68.000000000000028
 31
0.0
  0
LINE
  5
530
  8
3
 10
51.068096475590707
 20
61.426999537882381
 30
0.0
 11
51.068096475590707
 21
68.000000000000028
 31
0.0
  0
LINE
  5
531
  8
3
 10
37.810076596500032
 20
61.200859994477661
 30
0.0
 11
37.810076596500032
 21
67.999999999999972
 31
0.0
  0
LINE
  5
532
  8
3
 10
38.910076596499991
 20
61.200859994477661
 30
0.0
 11
38.910076596499962
 21
67.999999999999972
 31
0.0
  0
LINE
  5
533
  8
3
 10
40.010076596500127
 20
61.200859994477661
 30
0.0
 11
40.01007659650007
 21
67.999999999999972
 31
0.0
  0
LINE
  5
534
  8
3
 10
41.110076596500029
 20
61.200859994477661
 30
0.0
 11
41.110076596500029
 21
67.999999999999972
 31
0.0
  0
LINE
  5
535
  8
3
 10
42.210076596500002
 20
61.200859994477661
 30
0.0
 11
42.210076596499967
 21
68.000000000000028
 31
0.0
  0
LINE
  5
536
  8
3
 10
36.81409739982594
 20
61.426999537882381
 30
0.0
 11
36.814097399825862
 21
67.999999999999972
 31
0.0
  0
LINE
  5
537
  8
0
 10
242.8615543134801
 20
61.799999999999891
 30
0.0
 11
242.2615543134801
 21
61.199999999999989
 31
0.0
  0
LINE
  5
538
  8
0
 10
242.8615543134801
 20
69.0
 30
0.0
 11
242.8615543134801
 21
61.799999999999891
 31
0.0
  0
LINE
  5
539
  8
0
 10
227.8615543134801
 20
61.799999999999962
 30
0.0
 11
228.46155431348009
 21
61.200000000000038
 31
0.0
  0
LINE
  5
53A
  8
0
 10
227.8615543134801
 20
69.0
 30
0.0
 11
227.8615543134801
 21
61.799999999999962
 31
0.0
  0
LINE
  5
53B
  8
0
 10
228.46155431348009
 20
61.200000000000038
 30
0.0
 11
242.2615543134801
 21
61.200000000000038
 31
0.0
  0
LINE
  5
53C
  8
0
 10
227.8615543134801
 20
67.999999999999943
 30
0.0
 11
242.8615543134801
 21
68.0
 31
0.0
  0
LINE
  5
53D
  8
3
 10
241.49257465468841
 20
61.200859994477703
 30
0.0
 11
241.49257465468841
 21
68.0
 31
0.0
  0
LINE
  5
53E
  8
3
 10
240.39257465468839
 20
61.200859994477703
 30
0.0
 11
240.39257465468839
 21
68.0
 31
0.0
  0
LINE
  5
53F
  8
3
 10
239.29257465468831
 20
61.200859994477703
 30
0.0
 11
239.29257465468831
 21
68.0
 31
0.0
  0
LINE
  5
540
  8
3
 10
238.1925746546884
 20
61.200859994477703
 30
0.0
 11
238.1925746546884
 21
68.0
 31
0.0
  0
LINE
  5
541
  8
3
 10
237.09257465468841
 20
61.200859994477703
 30
0.0
 11
237.09257465468841
 21
68.0
 31
0.0
  0
LINE
  5
542
  8
3
 10
235.9925746546885
 20
61.200859994477703
 30
0.0
 11
235.9925746546885
 21
68.0
 31
0.0
  0
LINE
  5
543
  8
3
 10
234.7305339722717
 20
61.200859994477703
 30
0.0
 11
234.7305339722717
 21
68.0
 31
0.0
  0
LINE
  5
544
  8
3
 10
242.4885538513625
 20
61.426999537882352
 30
0.0
 11
242.4885538513625
 21
68.0
 31
0.0
  0
LINE
  5
545
  8
3
 10
229.2305339722719
 20
61.200859994477639
 30
0.0
 11
229.2305339722719
 21
67.999999999999943
 31
0.0
  0
LINE
  5
546
  8
3
 10
230.33053397227181
 20
61.200859994477639
 30
0.0
 11
230.33053397227181
 21
67.999999999999943
 31
0.0
  0
LINE
  5
547
  8
3
 10
231.430533972272
 20
61.200859994477639
 30
0.0
 11
231.43053397227189
 21
67.999999999999943
 31
0.0
  0
LINE
  5
548
  8
3
 10
232.53053397227191
 20
61.200859994477639
 30
0.0
 11
232.53053397227191
 21
67.999999999999943
 31
0.0
  0
LINE
  5
549
  8
3
 10
233.63053397227191
 20
61.200859994477639
 30
0.0
 11
233.63053397227179
 21
68.0
 31
0.0
  0
LINE
  5
54A
  8
3
 10
228.23455477559779
 20
61.426999537882352
 30
0.0
 11
228.2345547755977
 21
67.999999999999943
 31
0.0
  0
LINE
  5
54B
  8
0
 10
132.36278646458231
 20
61.200000000000038
 30
0.0
 11
132.36278646458231
 21
61.0
 31
0.0
  0
LINE
  5
54C
  8
0
 10
122.3627864645823
 20
61.200000000000038
 30
0.0
 11
122.3627864645823
 21
61.0
 31
0.0
  0
LINE
  5
54D
  8
0
 10
122.3627864645823
 20
61.0
 30
0.0
 11
132.36278646458231
 21
61.0
 31
0.0
  0
LINE
  5
553
  8
0
 10
240.36155431348021
 20
61.200000000000038
 30
0.0
 11
240.36155431348021
 21
61.0
 31
0.0
  0
LINE
  5
554
  8
0
 10
230.36155431348021
 20
61.200000000000038
 30
0.0
 11
230.36155431348021
 21
61.0
 31
0.0
  0
LINE
  5
555
  8
0
 10
230.36155431348021
 20
61.0
 30
0.0
 11
240.36155431348021
 21
61.0
 31
0.0
  0
LINE
  5
563
  8
0
 10
48.941096937708288
 20
61.200000000000081
 30
0.0
 11
48.941096937708288
 21
61.000000000000028
 31
0.0
  0
LINE
  5
564
  8
0
 10
38.941096937708281
 20
61.200000000000081
 30
0.0
 11
38.941096937708281
 21
61.000000000000028
 31
0.0
  0
LINE
  5
565
  8
0
 10
38.941096937708281
 20
61.000000000000028
 30
0.0
 11
48.941096937708288
 21
61.000000000000028
 31
0.0
  0
LINE
  5
5DD
  8
0
 10
239.36155431348001
 20
61.0
 30
0.0
 11
239.36155431348001
 21
47.165063509461113
 31
0.0
  0
LINE
  5
5DE
  8
3
 10
238.31457465659321
 20
59.000000000000227
 30
0.0
 11
238.31457465659321
 21
45.351641549242117
 31
0.0
  0
LINE
  5
5DF
  8
3
 10
232.4085339703669
 20
59.000000000000227
 30
0.0
 11
232.4085339703669
 21
45.351641549242117
 31
0.0
  0
LINE
  5
5E0
  8
0
 10
231.3615543134801
 20
61.0
 30
0.0
 11
231.3615543134801
 21
47.165063509461113
 31
0.0
  0
LINE
  5
5E1
  8
0
 10
232.61155431348001
 20
45.0
 30
0.0
 11
231.3615543134801
 21
47.165063509461113
 31
0.0
  0
LINE
  5
5E2
  8
0
 10
231.3615543134801
 20
47.165063509461113
 30
0.0
 11
239.36155431348001
 21
47.165063509461042
 31
0.0
  0
LINE
  5
5E3
  8
0
 10
238.11155431348001
 20
45.0
 30
0.0
 11
232.61155431348001
 21
45.0
 31
0.0
  0
LINE
  5
5E4
  8
0
 10
239.36155431348001
 20
47.165063509461113
 30
0.0
 11
238.1115543134801
 21
45.0
 31
0.0
  0
LINE
  5
5E5
  8
0
 10
239.36155431348001
 20
59.000000000000227
 30
0.0
 11
231.3615543134801
 21
59.000000000000227
 31
0.0
  0
LINE
  5
5E8
  8
0
 10
47.941096937708181
 20
60.999999999999929
 30
0.0
 11
47.941096937708181
 21
47.165063509461042
 31
0.0
  0
LINE
  5
5E9
  8
3
 10
46.894117280821341
 20
59.000000000000163
 30
0.0
 11
46.894117280821341
 21
45.351641549242039
 31
0.0
  0
LINE
  5
5EA
  8
3
 10
40.988076594595
 20
59.000000000000163
 30
0.0
 11
40.988076594595
 21
45.351641549242039
 31
0.0
  0
LINE
  5
5EB
  8
0
 10
39.941096937708167
 20
60.999999999999929
 30
0.0
 11
39.941096937708281
 21
47.165063509461042
 31
0.0
  0
LINE
  5
5EC
  8
0
 10
41.19109693770816
 20
44.999999999999922
 30
0.0
 11
39.941096937708281
 21
47.165063509461042
 31
0.0
  0
LINE
  5
5ED
  8
0
 10
39.941096937708281
 20
47.165063509461042
 30
0.0
 11
47.941096937708117
 21
47.165063509460971
 31
0.0
  0
LINE
  5
5EE
  8
0
 10
46.691096937708117
 20
44.999999999999922
 30
0.0
 11
41.19109693770816
 21
44.999999999999922
 31
0.0
  0
LINE
  5
5EF
  8
0
 10
47.941096937708181
 20
47.165063509461042
 30
0.0
 11
46.691096937708181
 21
44.999999999999922
 31
0.0
  0
LINE
  5
5F0
  8
0
 10
47.941096937708181
 20
59.000000000000163
 30
0.0
 11
39.941096937708167
 21
59.000000000000163
 31
0.0
  0
LINE
  5
64E
  8
0
 10
231.11155431348001
 20
104.0000000000001
 30
0.0
 11
239.6115543134801
 21
104.0000000000001
 31
0.0
  0
LINE
  5
64F
  8
0
 10
37.19109693770821
 20
101.5000000000001
 30
0.0
 11
37.19109693770821
 21
93.400000000000148
 31
0.0
  0
LINE
  5
650
  8
0
 10
50.69109693770821
 20
101.5000000000001
 30
0.0
 11
50.69109693770821
 21
93.400000000000148
 31
0.0
  0
LINE
  5
651
  8
0
 10
39.69109693770821
 20
104.0000000000001
 30
0.0
 11
48.19109693770821
 21
104.0000000000001
 31
0.0
  0
ARC
  5
652
  8
0
 10
39.69109693770821
 20
101.5000000000001
 30
0.0
 40
2.5
 50
90.0
 51
180.0
  0
ARC
  5
653
  8
0
 10
48.19109693770821
 20
101.5000000000001
 30
0.0
 40
2.5
 50
0.0
 51
90.0
  0
LINE
  5
6A7
  8
3
 10
238.31457465659329
 20
59.000000000000213
 30
0.0
 11
239.3615543134801
 21
60.81342196021923
 31
0.0
  0
LINE
  5
6A8
  8
3
 10
232.4085339703669
 20
59.000000000000213
 30
0.0
 11
231.3615543134801
 21
60.813421960219181
 31
0.0
  0
LINE
  5
6A9
  8
3
 10
130.31580680769551
 20
59.000000000000213
 30
0.0
 11
131.36278646458231
 21
60.81342196021923
 31
0.0
  0
LINE
  5
6AA
  8
3
 10
124.4097661214691
 20
59.000000000000213
 30
0.0
 11
123.3627864645823
 21
60.813421960219181
 31
0.0
  0
LINE
  5
6AB
  8
3
 10
46.89411728082144
 20
59.000000000000142
 30
0.0
 11
47.941096937708281
 21
60.813421960219159
 31
0.0
  0
LINE
  5
6AC
  8
3
 10
40.988076594595107
 20
59.000000000000142
 30
0.0
 11
39.941096937708252
 21
60.813421960219102
 31
0.0
  0
TEXT
  5
73A
  8
0
 62
     3
 10
0.0
 20
0.0
 30
0.0
 40
10.0
  1
EAL63AX16-SUS
  7
STANDARD1
  0
ENDSEC
  0
EOF
