  0
SECTION
  2
HEADER
  9
$ACADVER
  1
AC1009
  9
$INSBASE
 10
0.0
 20
0.0
 30
0.0
  9
$EXTMIN
 10
0.0
 20
-2.960436562073669
 30
0.0
  9
$EXTMAX
 10
326.33803822640249
 20
252.61709671405211
 30
0.0
  9
$LIMMIN
 10
0.0
 20
0.0
  9
$LIMMAX
 10
385.0
 20
270.0
  9
$ORTHOMODE
 70
     1
  9
$REGENMODE
 70
     1
  9
$FILLMODE
 70
     1
  9
$QTEXTMODE
 70
     0
  9
$MIRRTEXT
 70
     0
  9
$DRAGMODE
 70
     2
  9
$LTSCALE
 40
10.0
  9
$OSMODE
 70
  3071
  9
$ATTMODE
 70
     1
  9
$TEXTSIZE
 40
0.2
  9
$TRACEWID
 40
0.05
  9
$TEXTSTYLE
  7
STANDARD
  9
$CLAYER
  8
0
  9
$CELTYPE
  6
BYLAYER
  9
$CECOLOR
 62
   256
  9
$DIMSCALE
 40
1.0
  9
$DIMASZ
 40
3.0
  9
$DIMEXO
 40
0.0625
  9
$DIMDLI
 40
0.38
  9
$DIMRND
 40
0.0
  9
$DIMDLE
 40
0.0
  9
$DIMEXE
 40
0.18
  9
$DIMTP
 40
0.0
  9
$DIMTM
 40
0.0
  9
$DIMTXT
 40
3.0
  9
$DIMCEN
 40
0.09
  9
$DIMTSZ
 40
0.0
  9
$DIMTOL
 70
     0
  9
$DIMLIM
 70
     0
  9
$DIMTIH
 70
     1
  9
$DIMTOH
 70
     1
  9
$DIMSE1
 70
     0
  9
$DIMSE2
 70
     0
  9
$DIMTAD
 70
     0
  9
$DIMZIN
 70
     0
  9
$DIMBLK
  1

  9
$DIMASO
 70
     1
  9
$DIMSHO
 70
     1
  9
$DIMPOST
  1

  9
$DIMAPOST
  1

  9
$DIMALT
 70
     0
  9
$DIMALTD
 70
     2
  9
$DIMALTF
 40
25.399999999999999
  9
$DIMLFAC
 40
1.0
  9
$DIMTOFL
 70
     0
  9
$DIMTVP
 40
0.0
  9
$DIMTIX
 70
     0
  9
$DIMSOXD
 70
     0
  9
$DIMSAH
 70
     0
  9
$DIMBLK1
  1

  9
$DIMBLK2
  1

  9
$DIMSTYLE
  2
STANDARD
  9
$DIMCLRD
 70
     0
  9
$DIMCLRE
 70
     0
  9
$DIMCLRT
 70
     0
  9
$DIMTFAC
 40
1.0
  9
$DIMGAP
 40
0.09
  9
$LUNITS
 70
     2
  9
$LUPREC
 70
     4
  9
$SKETCHINC
 40
0.1
  9
$FILLETRAD
 40
0.0
  9
$AUNITS
 70
     0
  9
$AUPREC
 70
     0
  9
$MENU
  1
E:\r13\win\SUPPORT\ACAD
  9
$ELEVATION
 40
0.0
  9
$PELEVATION
 40
0.0
  9
$THICKNESS
 40
0.0
  9
$LIMCHECK
 70
     0
  9
$BLIPMODE
 70
     0
  9
$CHAMFERA
 40
0.0
  9
$CHAMFERB
 40
0.0
  9
$SKPOLY
 70
     0
  9
$TDCREATE
 40
2450365.3627084489
  9
$TDUPDATE
 40
2456598.6254823031
  9
$TDINDWG
 40
0.0628727662
  9
$TDUSRTIMER
 40
0.0628727662
  9
$USRTIMER
 70
     1
  9
$ANGBASE
 50
0.0
  9
$ANGDIR
 70
     0
  9
$PDMODE
 70
     0
  9
$PDSIZE
 40
0.0
  9
$PLINEWID
 40
0.0
  9
$COORDS
 70
     1
  9
$SPLFRAME
 70
     0
  9
$SPLINETYPE
 70
     6
  9
$SPLINESEGS
 70
     8
  9
$ATTDIA
 70
     0
  9
$ATTREQ
 70
     1
  9
$HANDLING
 70
     1
  9
$HANDSEED
  5
79A
  9
$SURFTAB1
 70
     6
  9
$SURFTAB2
 70
     6
  9
$SURFTYPE
 70
     6
  9
$SURFU
 70
     6
  9
$SURFV
 70
     6
  9
$UCSNAME
  2

  9
$UCSORG
 10
0.0
 20
0.0
 30
0.0
  9
$UCSXDIR
 10
1.0
 20
0.0
 30
0.0
  9
$UCSYDIR
 10
0.0
 20
1.0
 30
0.0
  9
$PUCSNAME
  2

  9
$PUCSORG
 10
0.0
 20
0.0
 30
0.0
  9
$PUCSXDIR
 10
1.0
 20
0.0
 30
0.0
  9
$PUCSYDIR
 10
0.0
 20
1.0
 30
0.0
  9
$USERI1
 70
     3
  9
$USERI2
 70
     1
  9
$USERI3
 70
     1
  9
$USERI4
 70
     0
  9
$USERI5
 70
     0
  9
$USERR1
 40
1.0
  9
$USERR2
 40
3.0
  9
$USERR3
 40
3.0
  9
$USERR4
 40
3.0
  9
$USERR5
 40
10.0
  9
$WORLDVIEW
 70
     1
  9
$SHADEDGE
 70
     3
  9
$SHADEDIF
 70
    70
  9
$TILEMODE
 70
     1
  9
$MAXACTVP
 70
    16
  9
$PLIMCHECK
 70
     0
  9
$PEXTMIN
 10
1.0000000000000000E+020
 20
1.0000000000000000E+020
 30
1.0000000000000000E+020
  9
$PEXTMAX
 10
-1.0000000000000000E+020
 20
-1.0000000000000000E+020
 30
-1.0000000000000000E+020
  9
$PLIMMIN
 10
0.0
 20
0.0
  9
$PLIMMAX
 10
12.0
 20
9.0
  9
$UNITMODE
 70
     0
  9
$VISRETAIN
 70
     0
  9
$PLINEGEN
 70
     0
  9
$PSLTSCALE
 70
     0
  0
ENDSEC
  0
SECTION
  2
TABLES
  0
TABLE
  2
VPORT
 70
     1
  0
VPORT
  2
*ACTIVE
 70
     0
 10
0.0
 20
0.0
 11
1.0
 21
1.0
 12
200.05795575583809
 22
133.5127261426681
 13
0.0
 23
0.0
 14
5.0
 24
5.0
 15
0.0
 25
0.0
 16
0.0
 26
0.0
 36
1.0
 17
0.0
 27
0.0
 37
0.0
 40
275.42274993631997
 41
1.831871345029239
 42
50.0
 43
0.0
 44
0.0
 50
0.0
 51
0.0
 71
     0
 72
   100
 73
     1
 74
     0
 75
     0
 76
     0
 77
     0
 78
     0
  0
ENDTAB
  0
TABLE
  2
LTYPE
 70
     4
  0
LTYPE
  2
CONTINUOUS
 70
     0
  3
Solid Line
 72
    65
 73
     0
 40
0.0
  0
LTYPE
  2
CENTER
 70
     0
  3
____ _ ____ _ ____ _ ____ _ ____ _ ____ _ ____
 72
    65
 73
     4
 40
2.0
 49
1.25
 49
-0.25
 49
0.25
 49
-0.25
  0
LTYPE
  2
HIDDEN
 70
     0
  3
_ _ _ _ _ _ _ _ _ _ _ _ _ _ _ _ _ _ _ _ _ _ _
 72
    65
 73
     2
 40
0.375
 49
0.25
 49
-0.125
  0
LTYPE
  2
PHANTOM2
 70
     0
  3
___ _ _ ___ _ _ ___ _ _ ___ _ _
 72
    65
 73
     6
 40
1.25
 49
0.625
 49
-0.125
 49
0.125
 49
-0.125
 49
0.125
 49
-0.125
  0
ENDTAB
  0
TABLE
  2
LAYER
 70
     5
  0
LAYER
  2
0
 70
     0
 62
     7
  6
CONTINUOUS
  0
LAYER
  2
1
 70
     0
 62
     1
  6
CENTER
  0
LAYER
  2
2
 70
     0
 62
     2
  6
HIDDEN
  0
LAYER
  2
3
 70
     0
 62
     3
  6
CONTINUOUS
  0
LAYER
  2
DEFPOINTS
 70
     0
 62
     7
  6
CONTINUOUS
  0
ENDTAB
  0
TABLE
  2
STYLE
 70
     2
  0
STYLE
  2
STANDARD
 70
     0
 40
0.0
 41
1.0
 50
0.0
 71
     0
 42
0.2
  3
SIMPLEX
  4
BIGFONT
  0
STYLE
  2
STANDARD1
 70
     0
 40
0.0
 41
1.0
 50
0.0
 71
     0
 42
3.0
  3
txt
  4

  0
ENDTAB
  0
TABLE
  2
VIEW
 70
     0
  0
ENDTAB
  0
TABLE
  2
UCS
 70
     0
  0
ENDTAB
  0
TABLE
  2
APPID
 70
     8
  0
APPID
  2
ACAD
 70
     0
  0
APPID
  2
ACAD_MLEADERVER
 70
     0
  0
APPID
  2
ACAD_EXEMPT_FROM_CAD_STANDARDS
 70
     0
  0
APPID
  2
ACAD_NAV_VCDISPLAY
 70
     0
  0
APPID
  2
GENIUS_GENODEF_13
 70
     0
  0
APPID
  2
GENIUS_GENFIL_13
 70
     0
  0
APPID
  2
GENIUS_GENOBJ-N-CHA_13
 70
     0
  0
APPID
  2
GENIUS_GENOREF_13
 70
     0
  0
ENDTAB
  0
TABLE
  2
DIMSTYLE
 70
     1
  0
DIMSTYLE
  2
STANDARD
 70
     0
  3

  4

  5

  6

  7

 40
1.0
 41
0.18
 42
0.0625
 43
0.38
 44
0.18
 45
0.0
 46
0.0
 47
0.0
 48
0.0
140
0.18
141
0.09
142
0.0
143
25.399999999999999
144
1.0
145
0.0
146
1.0
147
0.09
 71
     0
 72
     0
 73
     1
 74
     1
 75
     0
 76
     0
 77
     0
 78
     0
170
     0
171
     2
172
     0
173
     0
174
     0
175
     0
176
     0
177
     0
178
     0
  0
ENDTAB
  0
ENDSEC
  0
SECTION
  2
BLOCKS
  0
BLOCK
  8
0
  2
$MODEL_SPACE
 70
     0
 10
0.0
 20
0.0
 30
0.0
  3
$MODEL_SPACE
  1

  0
ENDBLK
  5
216
  8
0
  0
BLOCK
 67
     1
  8
0
  2
$PAPER_SPACE
 70
     0
 10
0.0
 20
0.0
 30
0.0
  3
$PAPER_SPACE
  1

  0
ENDBLK
  5
214
 67
     1
  8
0
  0
ENDSEC
  0
SECTION
  2
ENTITIES
  0
LINE
  5
3E
  8
0
 10
170.42327188579961
 20
68.367096714052082
 30
0.0
 11
171.92327188579961
 21
70.965172925405454
 31
0.0
  0
LINE
  5
43
  8
3
 10
170.7887344878676
 20
106.3670967140519
 30
0.0
 11
170.7887344878676
 21
69.00009650909999
 31
0.0
  0
LINE
  5
44
  8
0
 10
171.92327188579961
 20
108.3670967140521
 30
0.0
 11
171.92327188579961
 21
70.965172925405454
 31
0.0
  0
LINE
  5
4A
  8
0
 10
163.42327188579981
 20
68.367096714052082
 30
0.0
 11
161.92327188579961
 21
70.965172925405454
 31
0.0
  0
LINE
  5
4D
  8
0
 10
161.92327188579961
 20
108.3670967140521
 30
0.0
 11
161.92327188579961
 21
70.965172925405454
 31
0.0
  0
LINE
  5
4E
  8
3
 10
163.0578092837317
 20
106.3670967140519
 30
0.0
 11
163.0578092837317
 21
69.000096509100274
 31
0.0
  0
LINE
  5
4F
  8
0
 10
161.92327188579961
 20
70.965172925405454
 30
0.0
 11
171.92327188579961
 21
70.965172925405454
 31
0.0
  0
LINE
  5
50
  8
0
 10
163.42327188579961
 20
68.367096714052082
 30
0.0
 11
170.42327188579961
 21
68.367096714052082
 31
0.0
  0
LINE
  5
51
  8
0
 10
171.92327188579961
 20
106.3670967140519
 30
0.0
 11
161.92327188579961
 21
106.3670967140519
 31
0.0
  0
LINE
  5
46A
  8
0
 10
176.42327188579961
 20
109.5670967140521
 30
0.0
 11
176.42327188579961
 21
120.367096714052
 31
0.0
  0
LINE
  5
46B
  8
0
 10
176.42327188579961
 20
116.8486520176523
 30
0.0
 11
157.42327188579961
 21
116.8486520176523
 31
0.0
  0
LINE
  5
46C
  8
0
 10
175.42327188579949
 20
108.567096714052
 30
0.0
 11
158.42327188579949
 21
108.567096714052
 31
0.0
  0
LINE
  5
46D
  8
0
 10
176.42327188579949
 20
109.567096714052
 30
0.0
 11
175.42327188579949
 21
108.567096714052
 31
0.0
  0
LINE
  5
46E
  8
2
 10
179.0509044340362
 20
126.6181006281811
 30
0.0
 11
179.1752170078359
 21
147.9856170112952
 31
0.0
  0
LINE
  5
46F
  8
0
 10
241.92327188580049
 20
162.3670967140522
 30
0.0
 11
234.3182718858003
 21
162.3670967140522
 31
0.0
  0
ARC
  5
470
  8
2
 10
236.6969011594534
 20
157.2880967140521
 30
0.0
 40
2.0
 50
1.000000000000961
 51
90.0
  0
LINE
  5
471
  8
2
 10
236.6969011594534
 20
159.2880967140523
 30
0.0
 11
234.9395710034002
 21
159.2880967140523
 31
0.0
  0
ARC
  5
472
  8
0
 10
241.92327188579961
 20
159.3670967140522
 30
0.0
 40
3.0
 50
359.77583242650502
 51
90.0
  0
LINE
  5
473
  8
2
 10
238.77856843703719
 20
152.6268352503736
 30
0.0
 11
238.69659654976621
 21
157.3230015269267
 31
0.0
  0
ARC
  5
474
  8
0
 10
236.84327188579971
 20
159.33609671405191
 30
0.0
 40
8.0800000000000001
 50
308.72154229019628
 51
0.1365927234630216
  0
ARC
  5
475
  8
0
 10
240.00503526185949
 20
155.3926103746316
 30
0.0
 40
3.0255136605795601
 50
226.60080238125539
 51
308.72154229019651
  0
ARC
  5
476
  8
2
 10
182.1751462264458
 20
147.96472405293471
 30
0.0
 40
3.0
 50
106.777871266074
 51
179.6666666666658
  0
ARC
  5
477
  8
2
 10
237.11172090506659
 20
-28.890721358447351
 30
0.0
 40
188.19135422850351
 50
90.661336361047574
 51
107.2487248972209
  0
ARC
  5
478
  8
0
 10
249.5270521180183
 20
37.669246040040363
 30
0.0
 40
119.8233664309672
 50
99.727323429568386
 51
121.74157353333359
  0
ARC
  5
479
  8
0
 10
194.20064804843111
 20
126.5299619981529
 30
0.0
 40
15.15
 50
120.5971720838519
 51
179.6666666666666
  0
ARC
  5
47A
  8
0
 10
172.4203196830679
 20
154.36709671405211
 30
0.0
 40
1.0
 50
0.0
 51
90.0
  0
ARC
  5
47B
  8
0
 10
161.4262240885314
 20
154.36709671405211
 30
0.0
 40
1.0
 50
90.0
 51
180.0
  0
LINE
  5
47C
  8
0
 10
172.4203196830679
 20
155.367096714052
 30
0.0
 11
161.4262240885314
 21
155.367096714052
 31
0.0
  0
ARC
  5
47D
  8
0
 10
156.67327188579961
 20
147.6570967140519
 30
0.0
 40
2.0
 50
90.0
 51
180.33333333333329
  0
LINE
  5
47E
  8
0
 10
166.92327188579961
 20
149.65709671405179
 30
0.0
 11
156.67327188579961
 21
149.65709671405179
 31
0.0
  0
LINE
  5
47F
  8
0
 10
160.42622408853131
 20
149.65709671405179
 30
0.0
 11
160.42622408853131
 21
154.36709671405211
 31
0.0
  0
LINE
  5
480
  8
0
 10
173.42031968306779
 20
154.36709671405211
 30
0.0
 11
173.42031968306779
 21
151.31219391232341
 31
0.0
  0
LINE
  5
481
  8
0
 10
157.42327188579961
 20
109.5670967140518
 30
0.0
 11
157.42327188579961
 21
120.367096714052
 31
0.0
  0
LINE
  5
482
  8
0
 10
157.42327188579949
 20
109.567096714052
 30
0.0
 11
158.42327188579949
 21
108.567096714052
 31
0.0
  0
ARC
  5
483
  8
0
 10
155.13026634256869
 20
120.66709671405199
 30
0.0
 40
0.3
 50
180.33333333333249
 51
270.0
  0
LINE
  5
484
  8
0
 10
154.83027141951121
 20
120.6653513946456
 30
0.0
 11
154.673305732084
 21
147.645461251342
 31
0.0
  0
LINE
  5
485
  8
1
 10
166.92327188579961
 20
160.367096714052
 30
0.0
 11
166.92327188579969
 21
63.36709671405206
 31
0.0
  0
ARC
  5
486
  8
0
 10
234.3182718858003
 20
-39.632903285946469
 30
0.0
 40
201.99999999999861
 50
90.0
 51
106.68421962983049
  0
LINE
  5
487
  8
0
 10
178.7162774290307
 20
120.367096714052
 30
0.0
 11
155.13026634256869
 21
120.367096714052
 31
0.0
  0
ARC
  5
488
  8
0
 10
167.56533527420501
 20
160.8320358197721
 30
0.0
 40
11.19336899290321
 50
266.71164902276979
 51
321.4949031803913
  0
CIRCLE
  5
489
  8
0
 10
187.64932076358991
 20
235.36709671405211
 30
0.0
 40
1.125
  0
CIRCLE
  5
48A
  8
0
 10
191.00334762016999
 20
235.36709671405211
 30
0.0
 40
1.125
  0
CIRCLE
  5
48B
  8
0
 10
194.2936461010691
 20
235.36709671405211
 30
0.0
 40
1.125
  0
CIRCLE
  5
48C
  8
0
 10
181.05383646566369
 20
235.36709671405211
 30
0.0
 40
1.125
  0
CIRCLE
  5
48D
  8
0
 10
184.3465471393088
 20
235.36709671405211
 30
0.0
 40
1.125
  0
CIRCLE
  5
48E
  8
0
 10
166.92327188579961
 20
235.36709671405211
 30
0.0
 40
6.5
  0
ARC
  5
48F
  8
3
 10
155.47610706117609
 20
235.36709671405211
 30
0.0
 40
20.848630204285762
 50
339.48671815285542
 51
20.513281847144579
  0
LINE
  5
490
  8
1
 10
70.49052597309003
 20
167.367096714052
 30
0.0
 11
70.490525973090087
 21
63.367096714052089
 31
0.0
  0
LINE
  5
491
  8
0
 10
76.987573770358253
 20
154.36709671405211
 30
0.0
 11
76.987573770358267
 21
149.65709671405179
 31
0.0
  0
LINE
  5
492
  8
0
 10
63.993478175821672
 20
149.65709671405179
 30
0.0
 11
63.993478175821672
 21
154.36709671405211
 31
0.0
  0
LINE
  5
493
  8
1
 10
314.08807207268688
 20
167.367096714052
 30
0.0
 11
314.088072072687
 21
63.367096714052089
 31
0.0
  0
LINE
  5
494
  8
0
 10
306.08807207268688
 20
159.367096714052
 30
0.0
 11
306.08807207268683
 21
126.6181006281811
 31
0.0
  0
LINE
  5
495
  8
0
 10
322.08807207268688
 20
159.367096714052
 30
0.0
 11
322.08807207268688
 21
126.6180369199854
 31
0.0
  0
LINE
  5
496
  8
0
 10
309.08807207268688
 20
162.367096714052
 30
0.0
 11
319.088072072687
 21
162.367096714052
 31
0.0
  0
ARC
  5
497
  8
0
 10
309.08807207268688
 20
159.367096714052
 30
0.0
 40
3.0
 50
90.0
 51
180.0
  0
ARC
  5
498
  8
0
 10
314.08807207268688
 20
160.4385252718092
 30
0.0
 40
8.0714285696137882
 50
187.62814957239149
 51
352.37185042761263
  0
LINE
  5
499
  8
0
 10
309.9880720726868
 20
153.4677658999199
 30
0.0
 11
309.9880720726868
 21
126.6181006281811
 31
0.0
  0
LINE
  5
49A
  8
0
 10
318.18807207268679
 20
153.4677658999197
 30
0.0
 11
318.18807207268679
 21
126.618100628181
 31
0.0
  0
LINE
  5
49B
  8
0
 10
75.490525973089916
 20
162.36709671405211
 30
0.0
 11
65.490525973089973
 21
162.36709671405211
 31
0.0
  0
LINE
  5
49C
  8
0
 10
78.490525973090001
 20
153.8632205569848
 30
0.0
 11
76.987573770358267
 21
153.8632205569848
 31
0.0
  0
LINE
  5
49D
  8
0
 10
62.490525973090058
 20
159.36709671405211
 30
0.0
 11
62.490525973090058
 21
149.65709671405179
 31
0.0
  0
LINE
  5
49E
  8
0
 10
78.490525973090001
 20
159.36709671405211
 30
0.0
 11
78.490525973090001
 21
149.65709671405179
 31
0.0
  0
ARC
  5
49F
  8
0
 10
65.490525973089973
 20
159.36709671405211
 30
0.0
 40
3.0
 50
90.0
 51
180.0
  0
ARC
  5
4A0
  8
0
 10
75.490525973089916
 20
159.36709671405211
 30
0.0
 40
3.0
 50
0.0
 51
90.0
  0
LINE
  5
4A1
  8
0
 10
63.993478175821672
 20
153.8632205569848
 30
0.0
 11
62.490525973090058
 21
153.8632205569848
 31
0.0
  0
LINE
  5
4A2
  8
0
 10
173.42327188579961
 20
108.567096714052
 30
0.0
 11
173.42327188579961
 21
108.367096714052
 31
0.0
  0
LINE
  5
4A3
  8
0
 10
160.42327188579949
 20
108.567096714052
 30
0.0
 11
160.42327188579949
 21
108.367096714052
 31
0.0
  0
LINE
  5
4A4
  8
3
 10
158.5966202642775
 20
108.5670967140521
 30
0.0
 11
158.5966202642775
 21
116.8486520176522
 31
0.0
  0
LINE
  5
4A5
  8
3
 10
160.1896281846029
 20
108.567096714052
 30
0.0
 11
160.1896281846029
 21
116.8486520176522
 31
0.0
  0
LINE
  5
4A6
  8
3
 10
161.79278265219139
 20
108.567096714052
 30
0.0
 11
161.79278265219139
 21
116.8486520176522
 31
0.0
  0
LINE
  5
4A7
  8
3
 10
163.42637676156949
 20
108.567096714052
 30
0.0
 11
163.42637676156949
 21
116.8486520176522
 31
0.0
  0
LINE
  5
4A8
  8
3
 10
165.0498243236845
 20
108.567096714052
 30
0.0
 11
165.0498243236845
 21
116.8486520176522
 31
0.0
  0
LINE
  5
4A9
  8
3
 10
170.42016701002939
 20
108.567096714052
 30
0.0
 11
170.42016701002939
 21
116.8486520176522
 31
0.0
  0
LINE
  5
4AA
  8
3
 10
168.7967194479144
 20
108.567096714052
 30
0.0
 11
168.79671944791451
 21
116.8486520176522
 31
0.0
  0
LINE
  5
4AB
  8
3
 10
172.05376111940751
 20
108.567096714052
 30
0.0
 11
172.05376111940751
 21
116.8486520176522
 31
0.0
  0
LINE
  5
4AC
  8
3
 10
173.65691558699601
 20
108.567096714052
 30
0.0
 11
173.65691558699609
 21
116.8486520176522
 31
0.0
  0
LINE
  5
4AD
  8
3
 10
175.2499235073214
 20
108.567096714052
 30
0.0
 11
175.2499235073214
 21
116.8486520176522
 31
0.0
  0
LINE
  5
4AE
  8
3
 10
166.92327188579941
 20
108.567096714052
 30
0.0
 11
166.92327188579949
 21
116.8486520176523
 31
0.0
  0
LINE
  5
4AF
  8
0
 10
179.01627235208829
 20
120.6653513946457
 30
0.0
 11
179.05090443403631
 21
126.6181006281811
 31
0.0
  0
ARC
  5
4B0
  8
0
 10
231.0555000405559
 20
145.92847674050569
 30
0.0
 40
10.0
 50
46.600802381255583
 51
100.2168119135555
  0
LINE
  5
4B1
  8
0
 10
173.42327188579961
 20
108.3670967140521
 30
0.0
 11
160.42327188579949
 21
108.367096714052
 31
0.0
  0
LINE
  5
4B2
  8
0
 10
323.588072072687
 20
109.5670967140521
 30
0.0
 11
323.588072072687
 21
120.367096714052
 31
0.0
  0
LINE
  5
4B3
  8
3
 10
319.21856130629482
 20
108.567096714052
 30
0.0
 11
319.21856130629482
 21
116.8486520176522
 31
0.0
  0
LINE
  5
4B4
  8
3
 10
320.82171577388328
 20
108.567096714052
 30
0.0
 11
320.82171577388328
 21
116.8486520176522
 31
0.0
  0
LINE
  5
4B5
  8
3
 10
322.4147236942087
 20
108.567096714052
 30
0.0
 11
322.4147236942087
 21
116.8486520176522
 31
0.0
  0
LINE
  5
4B6
  8
0
 10
304.588072072687
 20
109.5670967140518
 30
0.0
 11
304.588072072687
 21
120.367096714052
 31
0.0
  0
LINE
  5
4B7
  8
3
 10
307.3544283714902
 20
108.567096714052
 30
0.0
 11
307.3544283714902
 21
116.8486520176522
 31
0.0
  0
LINE
  5
4B8
  8
3
 10
312.21462451057181
 20
108.567096714052
 30
0.0
 11
312.21462451057181
 21
116.8486520176522
 31
0.0
  0
LINE
  5
4B9
  8
3
 10
310.59117694845679
 20
108.567096714052
 30
0.0
 11
310.59117694845679
 21
116.8486520176522
 31
0.0
  0
LINE
  5
4BA
  8
3
 10
308.95758283907873
 20
108.567096714052
 30
0.0
 11
308.95758283907873
 21
116.8486520176522
 31
0.0
  0
LINE
  5
4BB
  8
3
 10
305.76142045116489
 20
108.5670967140521
 30
0.0
 11
305.76142045116489
 21
116.8486520176522
 31
0.0
  0
LINE
  5
4BC
  8
3
 10
317.58496719691669
 20
108.567096714052
 30
0.0
 11
317.58496719691669
 21
116.8486520176522
 31
0.0
  0
LINE
  5
4BD
  8
3
 10
315.96151963480168
 20
108.567096714052
 30
0.0
 11
315.96151963480168
 21
116.8486520176522
 31
0.0
  0
LINE
  5
4BE
  8
3
 10
314.08807207268683
 20
108.567096714052
 30
0.0
 11
314.08807207268683
 21
116.8486520176523
 31
0.0
  0
LINE
  5
4BF
  8
0
 10
322.58807207268683
 20
108.567096714052
 30
0.0
 11
305.58807207268683
 21
108.567096714052
 31
0.0
  0
LINE
  5
4C0
  8
0
 10
320.58807207268688
 20
108.3670967140521
 30
0.0
 11
307.58807207268683
 21
108.367096714052
 31
0.0
  0
LINE
  5
4C1
  8
0
 10
304.58807207268683
 20
109.567096714052
 30
0.0
 11
305.58807207268683
 21
108.567096714052
 31
0.0
  0
LINE
  5
4C2
  8
0
 10
307.58807207268683
 20
108.567096714052
 30
0.0
 11
307.58807207268683
 21
108.367096714052
 31
0.0
  0
LINE
  5
4C3
  8
0
 10
323.58807207268683
 20
109.567096714052
 30
0.0
 11
322.58807207268683
 21
108.567096714052
 31
0.0
  0
LINE
  5
4C4
  8
0
 10
320.58807207268688
 20
108.567096714052
 30
0.0
 11
320.58807207268688
 21
108.367096714052
 31
0.0
  0
LINE
  5
4C5
  8
0
 10
323.588072072687
 20
116.8486520176523
 30
0.0
 11
304.588072072687
 21
116.8486520176523
 31
0.0
  0
LINE
  5
4C6
  8
0
 10
325.88107761591777
 20
120.367096714052
 30
0.0
 11
302.29506652945588
 21
120.367096714052
 31
0.0
  0
ARC
  5
4C7
  8
0
 10
302.29506652945588
 20
120.66709671405199
 30
0.0
 40
0.3
 50
180.33333333333249
 51
270.0
  0
ARC
  5
4C8
  8
0
 10
325.88107761591777
 20
120.66709671405199
 30
0.0
 40
0.3
 50
270.0
 51
359.66666666666657
  0
LINE
  5
4C9
  8
0
 10
301.99507160639843
 20
120.6653513946456
 30
0.0
 11
301.83810591897128
 21
147.645461251342
 31
0.0
  0
ARC
  5
4CA
  8
0
 10
303.83807207268688
 20
147.6570967140519
 30
0.0
 40
2.0
 50
90.0
 51
180.33333333333329
  0
LINE
  5
4CB
  8
0
 10
324.33807207268688
 20
149.65709671405179
 30
0.0
 11
322.08807207268688
 21
149.65709671405179
 31
0.0
  0
ARC
  5
4CC
  8
0
 10
324.33807207268688
 20
147.6570967140519
 30
0.0
 40
2.0
 50
359.66666666666657
 51
90.0
  0
LINE
  5
4CD
  8
0
 10
326.1810725389754
 20
120.6653513946456
 30
0.0
 11
326.33803822640249
 21
147.645461251342
 31
0.0
  0
LINE
  5
4CE
  8
0
 10
306.08807207268683
 20
149.6570967140517
 30
0.0
 11
303.83807207268688
 21
149.65709671405179
 31
0.0
  0
LINE
  5
4CF
  8
0
 10
79.990525973090016
 20
109.5670967140521
 30
0.0
 11
79.990525973090016
 21
120.3670967140521
 31
0.0
  0
LINE
  5
4D0
  8
3
 10
75.621015206697891
 20
108.567096714052
 30
0.0
 11
75.621015206697891
 21
116.8486520176523
 31
0.0
  0
LINE
  5
4D1
  8
3
 10
77.224169674286415
 20
108.567096714052
 30
0.0
 11
77.224169674286443
 21
116.8486520176523
 31
0.0
  0
LINE
  5
4D2
  8
3
 10
78.817177594611763
 20
108.567096714052
 30
0.0
 11
78.817177594611778
 21
116.8486520176523
 31
0.0
  0
LINE
  5
4D3
  8
0
 10
60.990525973090008
 20
109.5670967140518
 30
0.0
 11
60.990525973090008
 21
120.3670967140521
 31
0.0
  0
LINE
  5
4D4
  8
3
 10
63.756882271893282
 20
108.567096714052
 30
0.0
 11
63.756882271893247
 21
116.8486520176523
 31
0.0
  0
LINE
  5
4D5
  8
3
 10
68.617078410974884
 20
108.567096714052
 30
0.0
 11
68.617078410974855
 21
116.8486520176523
 31
0.0
  0
LINE
  5
4D6
  8
3
 10
66.993630848859922
 20
108.567096714052
 30
0.0
 11
66.993630848859894
 21
116.8486520176523
 31
0.0
  0
LINE
  5
4D7
  8
3
 10
65.360036739481785
 20
108.567096714052
 30
0.0
 11
65.360036739481785
 21
116.8486520176523
 31
0.0
  0
LINE
  5
4D8
  8
3
 10
62.163874351567912
 20
108.567096714052
 30
0.0
 11
62.163874351567912
 21
116.8486520176523
 31
0.0
  0
LINE
  5
4D9
  8
3
 10
73.987421097319753
 20
108.567096714052
 30
0.0
 11
73.987421097319796
 21
116.8486520176523
 31
0.0
  0
LINE
  5
4DA
  8
3
 10
72.363973535204806
 20
108.567096714052
 30
0.0
 11
72.363973535204835
 21
116.8486520176523
 31
0.0
  0
LINE
  5
4DB
  8
3
 10
70.490525973089817
 20
108.5670967140521
 30
0.0
 11
70.490525973089845
 21
116.8486520176523
 31
0.0
  0
LINE
  5
4DC
  8
0
 10
78.990525973089916
 20
108.567096714052
 30
0.0
 11
61.990525973089838
 21
108.567096714052
 31
0.0
  0
LINE
  5
4DD
  8
0
 10
76.990525973089973
 20
108.3670967140521
 30
0.0
 11
63.990525973089838
 21
108.3670967140521
 31
0.0
  0
LINE
  5
4DE
  8
0
 10
60.990525973089873
 20
109.567096714052
 30
0.0
 11
61.990525973089881
 21
108.567096714052
 31
0.0
  0
LINE
  5
4DF
  8
0
 10
63.990525973089838
 20
108.567096714052
 30
0.0
 11
63.990525973089838
 21
108.3670967140521
 31
0.0
  0
LINE
  5
4E0
  8
0
 10
79.990525973089859
 20
109.567096714052
 30
0.0
 11
78.990525973089859
 21
108.567096714052
 31
0.0
  0
LINE
  5
4E1
  8
0
 10
76.990525973089959
 20
108.567096714052
 30
0.0
 11
76.990525973089959
 21
108.3670967140521
 31
0.0
  0
LINE
  5
4E2
  8
0
 10
58.397525506801571
 20
120.6653513946456
 30
0.0
 11
58.240559819374418
 21
147.645461251342
 31
0.0
  0
LINE
  5
4E3
  8
0
 10
79.990525973090016
 20
116.8486520176523
 30
0.0
 11
60.990525973090008
 21
116.8486520176523
 31
0.0
  0
ARC
  5
4E4
  8
0
 10
58.697520429859082
 20
120.66709671405209
 30
0.0
 40
0.3
 50
180.33333333333249
 51
270.0
  0
LINE
  5
4E5
  8
0
 10
80.740525973090044
 20
149.65709671405179
 30
0.0
 11
60.24052597309003
 21
149.65709671405179
 31
0.0
  0
ARC
  5
4E6
  8
0
 10
60.24052597309003
 20
147.6570967140519
 30
0.0
 40
2.0
 50
90.0
 51
180.33333333333329
  0
LINE
  5
4E7
  8
0
 10
82.283531516320977
 20
120.3670967140521
 30
0.0
 11
58.697520429859082
 21
120.3670967140521
 31
0.0
  0
ARC
  5
4E8
  8
0
 10
80.740525973090044
 20
147.6570967140519
 30
0.0
 40
2.0
 50
359.66666666666657
 51
90.0
  0
LINE
  5
4E9
  8
0
 10
82.583526439378488
 20
120.6653513946456
 30
0.0
 11
82.740492126805634
 21
147.645461251342
 31
0.0
  0
ARC
  5
4EA
  8
0
 10
82.283531516320977
 20
120.66709671405209
 30
0.0
 40
0.3
 50
270.0
 51
359.66666666666657
  0
LINE
  5
4EB
  8
0
 10
75.98757377035821
 20
155.367096714052
 30
0.0
 11
64.993478175821735
 21
155.367096714052
 31
0.0
  0
ARC
  5
4EC
  8
0
 10
64.993478175821735
 20
154.36709671405211
 30
0.0
 40
1.0
 50
90.0
 51
180.0
  0
ARC
  5
4ED
  8
0
 10
75.98757377035821
 20
154.36709671405211
 30
0.0
 40
1.0
 50
0.0
 51
90.0
  0
ARC
  5
4EE
  8
0
 10
236.92327188579961
 20
235.36709671405211
 30
0.0
 40
8.0
 50
270.0
 51
90.0
  0
LINE
  5
4EF
  8
0
 10
236.92327188579961
 20
243.36709671405211
 30
0.0
 11
181.56610289622949
 21
243.36709671405211
 31
0.0
  0
LINE
  5
4F0
  8
0
 10
236.92327188579961
 20
227.36709671405211
 30
0.0
 11
181.56610289622949
 21
227.36709671405211
 31
0.0
  0
LINE
  5
4F1
  8
1
 10
166.92327188579961
 20
252.61709671405211
 30
0.0
 11
166.92327188579961
 21
218.11709671405211
 31
0.0
  0
LINE
  5
4F2
  8
1
 10
249.92327188579961
 20
235.36709671405211
 30
0.0
 11
149.67327188579961
 21
235.36709671405211
 31
0.0
  0
LINE
  5
4F3
  8
3
 10
236.92327188579961
 20
241.86709671405211
 30
0.0
 11
181.56610289622949
 21
241.86709671405211
 31
0.0
  0
ARC
  5
4F4
  8
3
 10
236.92327188579961
 20
235.36709671405211
 30
0.0
 40
6.5
 50
270.0
 51
90.0
  0
LINE
  5
4F5
  8
3
 10
236.92327188579961
 20
228.86709671405211
 30
0.0
 11
181.56610289622949
 21
228.86709671405211
 31
0.0
  0
ARC
  5
4F6
  8
0
 10
166.92327188579961
 20
235.36709671405211
 30
0.0
 40
12.25
 50
57.629847925549932
 51
302.37015207444972
  0
ARC
  5
4F7
  8
3
 10
166.92327188579961
 20
235.36709671405211
 30
0.0
 40
10.75
 50
57.629847925549932
 51
302.37015207444972
  0
ARC
  5
4F8
  8
0
 10
181.56610289622949
 20
212.26709671405209
 30
0.0
 40
15.1
 50
90.0
 51
122.37015207444961
  0
ARC
  5
4F9
  8
3
 10
181.56610289622949
 20
212.26709671405209
 30
0.0
 40
16.600000000000001
 50
90.0
 51
122.37015207444961
  0
ARC
  5
4FA
  8
0
 10
181.56610289622949
 20
258.4670967140521
 30
0.0
 40
15.1
 50
237.62984792554991
 51
270.0
  0
ARC
  5
4FB
  8
3
 10
181.56610289622949
 20
258.4670967140521
 30
0.0
 40
16.600000000000001
 50
237.62984792554991
 51
270.0
  0
ARC
  5
4FC
  8
0
 10
178.7162774290307
 20
120.66709671405209
 30
0.0
 40
0.3
 50
270.0
 51
359.66666666666742
  0
ARC
  5
4FD
  8
0
 10
319.088072072687
 20
159.3670967140522
 30
0.0
 40
3.0
 50
0.0000000000016284
 51
90.0
  0
LINE
  5
534
  8
0
 10
317.588072072687
 20
68.367096714052281
 30
0.0
 11
319.08807207268711
 21
70.965172925405653
 31
0.0
  0
LINE
  5
535
  8
3
 10
317.95353467475502
 20
106.3670967140521
 30
0.0
 11
317.95353467475502
 21
69.000096509100189
 31
0.0
  0
LINE
  5
536
  8
0
 10
319.08807207268711
 20
108.36709671405229
 30
0.0
 11
319.08807207268711
 21
70.965172925405653
 31
0.0
  0
LINE
  5
538
  8
0
 10
310.58807207268723
 20
68.367096714052281
 30
0.0
 11
309.088072072687
 21
70.965172925405653
 31
0.0
  0
LINE
  5
539
  8
0
 10
309.088072072687
 20
108.36709671405229
 30
0.0
 11
309.088072072687
 21
70.965172925405653
 31
0.0
  0
LINE
  5
53A
  8
3
 10
310.22260947061909
 20
106.3670967140521
 30
0.0
 11
310.22260947061909
 21
69.000096509100473
 31
0.0
  0
LINE
  5
53B
  8
0
 10
309.088072072687
 20
70.965172925405653
 30
0.0
 11
319.08807207268711
 21
70.965172925405653
 31
0.0
  0
LINE
  5
53C
  8
0
 10
310.58807207268711
 20
68.367096714052281
 30
0.0
 11
317.588072072687
 21
68.367096714052281
 31
0.0
  0
LINE
  5
53D
  8
0
 10
319.08807207268711
 20
106.3670967140521
 30
0.0
 11
309.088072072687
 21
106.3670967140521
 31
0.0
  0
LINE
  5
53F
  8
0
 10
73.990525973090001
 20
68.367096714052096
 30
0.0
 11
75.490525973090001
 21
70.965172925405454
 31
0.0
  0
LINE
  5
540
  8
3
 10
74.355988575157909
 20
106.3670967140519
 30
0.0
 11
74.355988575157909
 21
69.000096509100004
 31
0.0
  0
LINE
  5
541
  8
0
 10
75.490525973090001
 20
108.3670967140521
 30
0.0
 11
75.490525973090001
 21
70.965172925405454
 31
0.0
  0
LINE
  5
543
  8
0
 10
66.990525973090115
 20
68.367096714052096
 30
0.0
 11
65.490525973090001
 21
70.965172925405454
 31
0.0
  0
LINE
  5
544
  8
0
 10
65.490525973090001
 20
108.3670967140521
 30
0.0
 11
65.490525973090001
 21
70.965172925405454
 31
0.0
  0
LINE
  5
545
  8
3
 10
66.625063371021994
 20
106.3670967140519
 30
0.0
 11
66.625063371021994
 21
69.000096509100274
 31
0.0
  0
LINE
  5
546
  8
0
 10
65.490525973090001
 20
70.965172925405454
 30
0.0
 11
75.490525973090001
 21
70.965172925405454
 31
0.0
  0
LINE
  5
547
  8
0
 10
66.990525973089973
 20
68.367096714052096
 30
0.0
 11
73.990525973089973
 21
68.367096714052096
 31
0.0
  0
LINE
  5
548
  8
0
 10
75.490525973090001
 20
106.3670967140519
 30
0.0
 11
65.490525973090001
 21
106.3670967140519
 31
0.0
  0
LINE
  5
6B3
  8
3
 10
317.95353467475502
 20
106.367096714052
 30
0.0
 11
319.08807207268711
 21
108.3321731303574
 31
0.0
  0
LINE
  5
6B4
  8
3
 10
310.22260947061909
 20
106.3670967140521
 30
0.0
 11
309.088072072687
 21
108.3321731303575
 31
0.0
  0
LINE
  5
6B5
  8
3
 10
170.7887344878676
 20
106.3670967140518
 30
0.0
 11
171.92327188579969
 21
108.33217313035721
 31
0.0
  0
LINE
  5
6B6
  8
3
 10
163.0578092837317
 20
106.3670967140519
 30
0.0
 11
161.92327188579969
 21
108.3321731303573
 31
0.0
  0
LINE
  5
6B7
  8
3
 10
74.355988575158023
 20
106.3670967140518
 30
0.0
 11
75.490525973090115
 21
108.33217313035721
 31
0.0
  0
LINE
  5
6B8
  8
3
 10
66.625063371022151
 20
106.3670967140519
 30
0.0
 11
65.490525973090115
 21
108.3321731303573
 31
0.0
  0
TEXT
  5
746
  8
0
 62
     3
 10
0.0
 20
0.0
 30
0.0
 40
10.0
  1
EAL78X40-SUS
  7
STANDARD1
  0
ENDSEC
  0
EOF
