  0
SECTION
  2
HEADER
  9
$ACADVER
  1
AC1009
  9
$INSBASE
 10
0.0
 20
0.0
 30
0.0
  9
$EXTMIN
 10
0.0
 20
-2.960436562073669
 30
0.0
  9
$EXTMAX
 10
337.30991504722471
 20
190.8388178929282
 30
0.0
  9
$LIMMIN
 10
0.0
 20
0.0
  9
$LIMMAX
 10
375.0
 20
270.0
  9
$ORTHOMODE
 70
     1
  9
$REGENMODE
 70
     1
  9
$FILLMODE
 70
     1
  9
$QTEXTMODE
 70
     0
  9
$MIRRTEXT
 70
     0
  9
$DRAGMODE
 70
     2
  9
$LTSCALE
 40
10.0
  9
$OSMODE
 70
  3071
  9
$ATTMODE
 70
     1
  9
$TEXTSIZE
 40
0.2
  9
$TRACEWID
 40
0.05
  9
$TEXTSTYLE
  7
STANDARD
  9
$CLAYER
  8
0
  9
$CELTYPE
  6
BYLAYER
  9
$CECOLOR
 62
   256
  9
$DIMSCALE
 40
1.0
  9
$DIMASZ
 40
3.0
  9
$DIMEXO
 40
0.0625
  9
$DIMDLI
 40
0.38
  9
$DIMRND
 40
0.0
  9
$DIMDLE
 40
0.0
  9
$DIMEXE
 40
0.18
  9
$DIMTP
 40
0.0
  9
$DIMTM
 40
0.0
  9
$DIMTXT
 40
3.0
  9
$DIMCEN
 40
0.09
  9
$DIMTSZ
 40
0.0
  9
$DIMTOL
 70
     0
  9
$DIMLIM
 70
     0
  9
$DIMTIH
 70
     1
  9
$DIMTOH
 70
     1
  9
$DIMSE1
 70
     0
  9
$DIMSE2
 70
     0
  9
$DIMTAD
 70
     0
  9
$DIMZIN
 70
     0
  9
$DIMBLK
  1

  9
$DIMASO
 70
     1
  9
$DIMSHO
 70
     1
  9
$DIMPOST
  1

  9
$DIMAPOST
  1

  9
$DIMALT
 70
     0
  9
$DIMALTD
 70
     2
  9
$DIMALTF
 40
25.399999999999999
  9
$DIMLFAC
 40
1.0
  9
$DIMTOFL
 70
     0
  9
$DIMTVP
 40
0.0
  9
$DIMTIX
 70
     0
  9
$DIMSOXD
 70
     0
  9
$DIMSAH
 70
     0
  9
$DIMBLK1
  1

  9
$DIMBLK2
  1

  9
$DIMSTYLE
  2
STANDARD
  9
$DIMCLRD
 70
     0
  9
$DIMCLRE
 70
     0
  9
$DIMCLRT
 70
     0
  9
$DIMTFAC
 40
1.0
  9
$DIMGAP
 40
0.09
  9
$LUNITS
 70
     2
  9
$LUPREC
 70
     4
  9
$SKETCHINC
 40
0.1
  9
$FILLETRAD
 40
20.0
  9
$AUNITS
 70
     0
  9
$AUPREC
 70
     0
  9
$MENU
  1
E:\r13\win\SUPPORT\ACAD
  9
$ELEVATION
 40
0.0
  9
$PELEVATION
 40
0.0
  9
$THICKNESS
 40
0.0
  9
$LIMCHECK
 70
     0
  9
$BLIPMODE
 70
     0
  9
$CHAMFERA
 40
0.0
  9
$CHAMFERB
 40
0.0
  9
$SKPOLY
 70
     0
  9
$TDCREATE
 40
2450372.5292593748
  9
$TDUPDATE
 40
2456598.625623195
  9
$TDINDWG
 40
0.032192037
  9
$TDUSRTIMER
 40
0.032192037
  9
$USRTIMER
 70
     1
  9
$ANGBASE
 50
0.0
  9
$ANGDIR
 70
     0
  9
$PDMODE
 70
     0
  9
$PDSIZE
 40
0.0
  9
$PLINEWID
 40
0.0
  9
$COORDS
 70
     1
  9
$SPLFRAME
 70
     0
  9
$SPLINETYPE
 70
     6
  9
$SPLINESEGS
 70
     8
  9
$ATTDIA
 70
     0
  9
$ATTREQ
 70
     1
  9
$HANDLING
 70
     1
  9
$HANDSEED
  5
642
  9
$SURFTAB1
 70
     6
  9
$SURFTAB2
 70
     6
  9
$SURFTYPE
 70
     6
  9
$SURFU
 70
     6
  9
$SURFV
 70
     6
  9
$UCSNAME
  2

  9
$UCSORG
 10
0.0
 20
0.0
 30
0.0
  9
$UCSXDIR
 10
1.0
 20
0.0
 30
0.0
  9
$UCSYDIR
 10
0.0
 20
1.0
 30
0.0
  9
$PUCSNAME
  2

  9
$PUCSORG
 10
0.0
 20
0.0
 30
0.0
  9
$PUCSXDIR
 10
1.0
 20
0.0
 30
0.0
  9
$PUCSYDIR
 10
0.0
 20
1.0
 30
0.0
  9
$USERI1
 70
     3
  9
$USERI2
 70
     1
  9
$USERI3
 70
     1
  9
$USERI4
 70
     0
  9
$USERI5
 70
     0
  9
$USERR1
 40
1.0
  9
$USERR2
 40
3.0
  9
$USERR3
 40
3.0
  9
$USERR4
 40
3.0
  9
$USERR5
 40
10.0
  9
$WORLDVIEW
 70
     1
  9
$SHADEDGE
 70
     3
  9
$SHADEDIF
 70
    70
  9
$TILEMODE
 70
     1
  9
$MAXACTVP
 70
    16
  9
$PLIMCHECK
 70
     0
  9
$PEXTMIN
 10
1.0000000000000000E+020
 20
1.0000000000000000E+020
 30
1.0000000000000000E+020
  9
$PEXTMAX
 10
-1.0000000000000000E+020
 20
-1.0000000000000000E+020
 30
-1.0000000000000000E+020
  9
$PLIMMIN
 10
0.0
 20
0.0
  9
$PLIMMAX
 10
12.0
 20
9.0
  9
$UNITMODE
 70
     0
  9
$VISRETAIN
 70
     0
  9
$PLINEGEN
 70
     0
  9
$PSLTSCALE
 70
     0
  0
ENDSEC
  0
SECTION
  2
TABLES
  0
TABLE
  2
VPORT
 70
     1
  0
VPORT
  2
*ACTIVE
 70
     0
 10
0.0
 20
0.0
 11
1.0
 21
1.0
 12
195.0581083320873
 22
133.5127261426681
 13
0.0
 23
0.0
 14
10.0
 24
10.0
 15
10.0
 25
10.0
 16
0.0
 26
0.0
 36
1.0
 17
0.0
 27
0.0
 37
0.0
 40
275.42274993631997
 41
1.831871345029239
 42
50.0
 43
0.0
 44
0.0
 50
0.0
 51
0.0
 71
     0
 72
   100
 73
     1
 74
     0
 75
     0
 76
     0
 77
     0
 78
     0
  0
ENDTAB
  0
TABLE
  2
LTYPE
 70
     4
  0
LTYPE
  2
CONTINUOUS
 70
     0
  3
Solid Line
 72
    65
 73
     0
 40
0.0
  0
LTYPE
  2
CENTER
 70
     0
  3
____ _ ____ _ ____ _ ____ _ ____ _ ____ _ ____
 72
    65
 73
     4
 40
2.0
 49
1.25
 49
-0.25
 49
0.25
 49
-0.25
  0
LTYPE
  2
HIDDEN
 70
     0
  3
_ _ _ _ _ _ _ _ _ _ _ _ _ _ _ _ _ _ _ _ _ _ _
 72
    65
 73
     2
 40
0.375
 49
0.25
 49
-0.125
  0
LTYPE
  2
PHANTOM2
 70
     0
  3
___ _ _ ___ _ _ ___ _ _ ___ _ _
 72
    65
 73
     6
 40
1.25
 49
0.625
 49
-0.125
 49
0.125
 49
-0.125
 49
0.125
 49
-0.125
  0
ENDTAB
  0
TABLE
  2
LAYER
 70
     5
  0
LAYER
  2
0
 70
     0
 62
     7
  6
CONTINUOUS
  0
LAYER
  2
1
 70
     0
 62
     1
  6
CENTER
  0
LAYER
  2
2
 70
     0
 62
     2
  6
HIDDEN
  0
LAYER
  2
3
 70
     0
 62
     3
  6
CONTINUOUS
  0
LAYER
  2
DEFPOINTS
 70
     0
 62
     7
  6
CONTINUOUS
  0
ENDTAB
  0
TABLE
  2
STYLE
 70
     2
  0
STYLE
  2
STANDARD
 70
     0
 40
0.0
 41
1.0
 50
0.0
 71
     0
 42
0.2
  3
SIMPLEX
  4
BIGFONT
  0
STYLE
  2
STANDARD1
 70
     0
 40
0.0
 41
1.0
 50
0.0
 71
     0
 42
3.0
  3
txt
  4

  0
ENDTAB
  0
TABLE
  2
VIEW
 70
     0
  0
ENDTAB
  0
TABLE
  2
UCS
 70
     0
  0
ENDTAB
  0
TABLE
  2
APPID
 70
     4
  0
APPID
  2
ACAD
 70
     0
  0
APPID
  2
ACAD_MLEADERVER
 70
     0
  0
APPID
  2
ACAD_EXEMPT_FROM_CAD_STANDARDS
 70
     0
  0
APPID
  2
ACAD_NAV_VCDISPLAY
 70
     0
  0
ENDTAB
  0
TABLE
  2
DIMSTYLE
 70
     1
  0
DIMSTYLE
  2
STANDARD
 70
     0
  3

  4

  5

  6

  7

 40
1.0
 41
0.18
 42
0.0625
 43
0.38
 44
0.18
 45
0.0
 46
0.0
 47
0.0
 48
0.0
140
0.18
141
0.09
142
0.0
143
25.399999999999999
144
1.0
145
0.0
146
1.0
147
0.09
 71
     0
 72
     0
 73
     1
 74
     1
 75
     0
 76
     0
 77
     0
 78
     0
170
     0
171
     2
172
     0
173
     0
174
     0
175
     0
176
     0
177
     0
178
     0
  0
ENDTAB
  0
ENDSEC
  0
SECTION
  2
BLOCKS
  0
BLOCK
  8
0
  2
$MODEL_SPACE
 70
     0
 10
0.0
 20
0.0
 30
0.0
  3
$MODEL_SPACE
  1

  0
ENDBLK
  5
2A8
  8
0
  0
BLOCK
 67
     1
  8
0
  2
$PAPER_SPACE
 70
     0
 10
0.0
 20
0.0
 30
0.0
  3
$PAPER_SPACE
  1

  0
ENDBLK
  5
2A6
 67
     1
  8
0
  0
BLOCK
  8
0
  2
EAL95
 70
     0
 10
0.0
 20
0.0
 30
0.0
  3
EAL95
  1

  0
LINE
  5
475
  8
0
 10
47.432382641426599
 20
89.276008165365624
 30
0.0
 11
48.739300241611609
 21
89.276008165365624
 31
0.0
  0
LINE
  5
476
  8
0
 10
65.432382641426614
 20
89.276008165365596
 30
0.0
 11
64.125465041241583
 21
89.276008165365624
 31
0.0
  0
ARC
  5
477
  8
0
 10
324.05991504722471
 20
98.507711691154981
 30
0.0
 40
9.0900000000001455
 50
188.43237409560871
 51
351.56762590438399
  0
ARC
  5
478
  8
0
 10
329.05991504722459
 20
96.917711691154835
 30
0.0
 40
4.0
 50
0.0
 51
90.0
  0
LINE
  5
479
  8
0
 10
329.05991504722459
 20
100.91771169115481
 30
0.0
 11
319.05991504722448
 21
100.91771169115481
 31
0.0
  0
ARC
  5
47A
  8
0
 10
319.05991504722448
 20
96.917711691154835
 30
0.0
 40
4.0
 50
90.0
 51
180.0
  0
LINE
  5
47B
  8
0
 10
315.05991504722459
 20
57.587246938867963
 30
0.0
 11
315.05991504722459
 21
96.917711691154835
 31
0.0
  0
LINE
  5
47C
  8
0
 10
333.05991504722471
 20
57.587246938867963
 30
0.0
 11
333.05991504722459
 21
96.917711691154835
 31
0.0
  0
LINE
  5
47D
  8
1
 10
324.05991504722471
 20
31.41771169115486
 30
0.0
 11
324.05991504722482
 21
105.91771169115481
 31
0.0
  0
ARC
  5
47E
  8
0
 10
61.432382641426713
 20
96.917711691154835
 30
0.0
 40
4.0
 50
0.0
 51
90.0
  0
ARC
  5
47F
  8
0
 10
51.432382641426713
 20
96.917711691154835
 30
0.0
 40
4.0
 50
90.0
 51
180.0
  0
LINE
  5
480
  8
0
 10
65.432382641426599
 20
83.757711691154725
 30
0.0
 11
65.432382641426713
 21
96.917711691154835
 31
0.0
  0
LINE
  5
481
  8
0
 10
47.432382641426599
 20
83.757711691154796
 30
0.0
 11
47.432382641426599
 21
96.917711691154835
 31
0.0
  0
LINE
  5
482
  8
0
 10
61.432382641426713
 20
100.91771169115481
 30
0.0
 11
51.432382641426713
 21
100.91771169115481
 31
0.0
  0
LINE
  5
483
  8
0
 10
64.15782085679966
 20
83.757711691154725
 30
0.0
 11
64.15782085679966
 21
88.917711691154807
 31
0.0
  0
ARC
  5
484
  8
0
 10
62.15782085679966
 20
88.917711691154807
 30
0.0
 40
2.0
 50
0.0
 51
90.0
  0
LINE
  5
485
  8
0
 10
50.706944426053539
 20
90.917711691154807
 30
0.0
 11
62.15782085679966
 21
90.917711691154807
 31
0.0
  0
LINE
  5
486
  8
0
 10
48.706944426053539
 20
83.757711691154796
 30
0.0
 11
48.706944426053539
 21
88.917711691154807
 31
0.0
  0
ARC
  5
487
  8
0
 10
50.706944426053539
 20
88.917711691154807
 30
0.0
 40
2.0
 50
90.0
 51
180.0
  0
LINE
  5
488
  8
1
 10
56.432382641426592
 20
31.417711691154839
 30
0.0
 11
56.432382641426592
 21
105.91771169115481
 31
0.0
  0
LINE
  5
489
  8
0
 10
158.2077914022
 20
36.417711691154842
 30
0.0
 11
158.2077914022
 21
36.617711691154817
 31
0.0
  0
LINE
  5
48A
  8
0
 10
161.4577914022
 20
37.617711691154767
 30
0.0
 11
161.4577914022
 21
49.417711691154828
 31
0.0
  0
LINE
  5
48B
  8
0
 10
161.4577914022
 20
37.617711691154767
 30
0.0
 11
160.4577914022
 21
36.617711691154767
 31
0.0
  0
LINE
  5
48C
  8
0
 10
139.9577914022
 20
37.617711691154767
 30
0.0
 11
140.9577914022
 21
36.617711691154767
 31
0.0
  0
LINE
  5
48D
  8
0
 10
139.9577914022
 20
37.617711691154767
 30
0.0
 11
139.9577914022
 21
49.4177116911548
 31
0.0
  0
LINE
  5
48E
  8
0
 10
160.4577914021998
 20
36.617711691154568
 30
0.0
 11
140.9577914022
 21
36.617711691154767
 31
0.0
  0
LINE
  5
48F
  8
0
 10
139.9577914022
 20
48.03653440658038
 30
0.0
 11
161.4577914022
 21
48.0365344065805
 31
0.0
  0
LINE
  5
490
  8
0
 10
158.2077914022
 20
36.417711691154842
 30
0.0
 11
143.2077914022
 21
36.417711691154842
 31
0.0
  0
LINE
  5
491
  8
0
 10
143.2077914022
 20
36.417711691154842
 30
0.0
 11
143.2077914022
 21
36.617711691154817
 31
0.0
  0
LINE
  5
492
  8
2
 10
145.2077914022
 20
63.917711691154828
 30
0.0
 11
156.20779140219989
 21
63.917711691154828
 31
0.0
  0
LINE
  5
493
  8
2
 10
143.2077914022
 20
36.617711691154817
 30
0.0
 11
143.2077914022
 21
61.917711691154828
 31
0.0
  0
LINE
  5
494
  8
2
 10
145.2077914022
 20
63.917711691154828
 30
0.0
 11
143.2077914022
 21
61.917711691154828
 31
0.0
  0
LINE
  5
495
  8
2
 10
145.7813026522
 20
59.417711691154828
 30
0.0
 11
150.7077914022
 21
62.262021297126999
 31
0.0
  0
LINE
  5
496
  8
2
 10
155.63428015220001
 20
59.417711691154828
 30
0.0
 11
150.7077914022
 21
62.262021297126999
 31
0.0
  0
LINE
  5
497
  8
2
 10
155.63428015220001
 20
59.417711691154828
 30
0.0
 11
145.7813026522
 21
59.417711691154828
 31
0.0
  0
LINE
  5
498
  8
2
 10
145.7813026522
 20
37.491222941154859
 30
0.0
 11
145.7813026522
 21
59.417711691154828
 31
0.0
  0
LINE
  5
499
  8
2
 10
155.63428015220001
 20
37.491222941154859
 30
0.0
 11
155.63428015220001
 21
59.417711691154828
 31
0.0
  0
LINE
  5
49A
  8
2
 10
156.7077914022
 20
56.417711691154828
 30
0.0
 11
144.7077914022
 21
56.417711691154828
 31
0.0
  0
LINE
  5
49B
  8
2
 10
145.7813026522
 20
37.491222941154859
 30
0.0
 11
144.7077914022
 21
36.417711691154842
 31
0.0
  0
LINE
  5
49C
  8
2
 10
155.63428015220001
 20
37.491222941154859
 30
0.0
 11
145.7813026522
 21
37.491222941154859
 31
0.0
  0
LINE
  5
49D
  8
2
 10
156.7077914022
 20
36.417711691154842
 30
0.0
 11
155.63428015220001
 21
37.491222941154859
 31
0.0
  0
LINE
  5
49E
  8
2
 10
144.7077914022
 20
56.417711691154828
 30
0.0
 11
145.7813026522
 21
58.277087718651579
 31
0.0
  0
LINE
  5
49F
  8
2
 10
144.7077914022
 20
36.417711691154842
 30
0.0
 11
144.7077914022
 21
56.417711691154828
 31
0.0
  0
LINE
  5
4A0
  8
2
 10
156.7077914022
 20
56.417711691154828
 30
0.0
 11
155.63428015220001
 21
58.277087718651579
 31
0.0
  0
LINE
  5
4A1
  8
2
 10
156.7077914022
 20
36.417711691154842
 30
0.0
 11
156.70779140219989
 21
56.417711691154828
 31
0.0
  0
LINE
  5
4A2
  8
2
 10
156.2077914022
 20
63.917711691154828
 30
0.0
 11
158.2077914022
 21
61.917711691154828
 31
0.0
  0
LINE
  5
4A3
  8
2
 10
158.2077914022
 20
36.617711691154817
 30
0.0
 11
158.2077914022
 21
61.917711691154828
 31
0.0
  0
CIRCLE
  5
4A4
  8
0
 10
150.7077914022
 20
172.5888178929282
 30
0.0
 40
7.7254382153730026
  0
LINE
  5
4A5
  8
0
 10
158.43322961757309
 20
86.271002955371443
 30
0.0
 11
158.43322961757309
 21
88.917711691154807
 31
0.0
  0
ARC
  5
4A6
  8
0
 10
156.43322961757309
 20
88.917711691154807
 30
0.0
 40
2.0
 50
0.0
 51
90.0
  0
ARC
  5
4A7
  8
0
 10
144.98235318682691
 20
88.917711691154807
 30
0.0
 40
2.0
 50
90.0
 51
180.0
  0
LINE
  5
4A8
  8
0
 10
142.98235318682691
 20
83.757711691154796
 30
0.0
 11
142.98235318682691
 21
88.917711691154807
 31
0.0
  0
LINE
  5
4A9
  8
0
 10
144.98235318682691
 20
90.917711691154807
 30
0.0
 11
156.43322961757309
 21
90.917711691154807
 31
0.0
  0
ARC
  5
4AA
  8
0
 10
139.98274771821269
 20
81.232711691154634
 30
0.0
 40
2.524999999999999
 50
90.0
 51
180.33703010985781
  0
LINE
  5
4AB
  8
2
 10
163.96322458286539
 20
82.141499720097215
 30
0.0
 11
163.81878780179949
 21
57.587246938867793
 31
0.0
  0
LINE
  5
4AC
  8
0
 10
137.4577914022
 20
81.217859006942888
 30
0.0
 11
137.64309676685389
 21
49.715947015802783
 31
0.0
  0
CIRCLE
  5
4AD
  8
0
 10
175.17258331565941
 20
172.5888178929282
 30
0.0
 40
1.3634999999999999
  0
ARC
  5
4AE
  8
3
 10
130.59947657359029
 20
172.56452711770581
 30
0.0
 40
31.675434209421791
 50
344.86157354107701
 51
15.23698501758186
  0
CIRCLE
  5
4AF
  8
0
 10
167.1565116151358
 20
172.5888178929282
 30
0.0
 40
1.3634999999999999
  0
CIRCLE
  5
4B0
  8
0
 10
171.1567737713759
 20
172.5888178929282
 30
0.0
 40
1.3634999999999999
  0
CIRCLE
  5
4B1
  8
0
 10
179.20356973494509
 20
172.5888178929282
 30
0.0
 40
1.3634999999999999
  0
CIRCLE
  5
4B2
  8
0
 10
183.2487899431668
 20
172.5888178929282
 30
0.0
 40
1.3634999999999999
  0
LINE
  5
4B3
  8
0
 10
137.94309157667709
 20
49.4177116911548
 30
0.0
 11
163.47249122772291
 21
49.417711691154828
 31
0.0
  0
ARC
  5
4B4
  8
0
 10
137.94309157667709
 20
49.717711691154697
 30
0.0
 40
0.3
 50
180.33703010985781
 51
270.0
  0
ARC
  5
4B5
  8
2
 10
244.25657883330501
 20
-172.00530561149779
 30
0.0
 40
269.0
 50
91.618727792854486
 51
106.7953215705931
  0
ARC
  5
4B6
  8
0
 10
239.33391372490161
 20
-169.68757477411441
 30
0.0
 40
270.69999999999999
 50
91.515696292597184
 51
106.6776825174959
  0
ARC
  5
4B7
  8
0
 10
254.07063160895001
 20
-64.460897301693464
 30
0.0
 40
159.58000000000001
 50
98.453944111209395
 51
120.6398656758813
  0
LINE
  5
4B8
  8
1
 10
150.7077914022
 20
31.417711691154839
 30
0.0
 11
150.7077914022
 21
95.917711691154807
 31
0.0
  0
ARC
  5
4B9
  8
0
 10
181.49348201388739
 20
57.48327814938505
 30
0.0
 40
17.675000000000001
 50
119.6776086027442
 51
179.66296989014211
  0
ARC
  5
4BA
  8
0
 10
150.7077914022
 20
96.887711691154621
 30
0.0
 40
13.130000000000001
 50
270.0
 51
326.4187220424941
  0
LINE
  5
4BB
  8
0
 10
150.7077914022
 20
83.757711691154753
 30
0.0
 11
139.98274771821269
 21
83.757711691154725
 31
0.0
  0
ARC
  5
4BC
  8
2
 10
167.498163425283
 20
82.120705962200574
 30
0.0
 40
3.5350000000000001
 50
105.9280523083379
 51
179.66296989014211
  0
LINE
  5
4BD
  8
0
 10
184.6297781611419
 20
95.239782489332526
 30
0.0
 11
184.59801961772209
 21
95.387916364323416
 31
0.0
  0
LINE
  5
4BE
  8
0
 10
184.6297781611419
 20
95.239782489332526
 30
0.0
 11
184.59801961772209
 21
95.387916364323416
 31
0.0
  0
LINE
  5
4BF
  8
0
 10
184.6297781611419
 20
95.239782489332526
 30
0.0
 11
184.59801961772209
 21
95.387916364323416
 31
0.0
  0
LINE
  5
4C0
  8
0
 10
184.6297781611419
 20
95.239782489332526
 30
0.0
 11
184.59801961772209
 21
95.387916364323416
 31
0.0
  0
ARC
  5
4C1
  8
0
 10
230.29823786729401
 20
84.485749953502079
 30
0.0
 40
9.0899999999999999
 50
42.117285527322132
 51
75.168991647594979
  0
LINE
  5
4C2
  8
2
 10
239.01118716272489
 20
89.47834887480343
 30
0.0
 11
238.91957826387161
 21
94.726619175150233
 31
0.0
  0
ARC
  5
4C3
  8
0
 10
236.61868069450571
 20
97.599146901453793
 30
0.0
 40
9.0899999999999999
 50
303.23371287585252
 51
359.19854065576578
  0
ARC
  5
4C4
  8
0
 10
239.6631288935219
 20
92.952711691154846
 30
0.0
 40
3.5350000000000001
 50
222.11728552732151
 51
303.23371287585348
  0
LINE
  5
4C5
  8
0
 10
232.17368069450561
 20
100.91771169115481
 30
0.0
 11
242.43938729961519
 21
100.91771169115481
 31
0.0
  0
ARC
  5
4C6
  8
2
 10
236.7199133345276
 20
94.688223880988232
 30
0.0
 40
2.2000000000000002
 50
0.9999999999993336
 51
91.618727792854486
  0
ARC
  5
4C7
  8
0
 10
242.17368069450549
 20
97.392711691154716
 30
0.0
 40
3.5350000000000001
 50
1.2852105841743591
 51
85.689324273744575
  0
LINE
  5
4C8
  8
0
 10
319.30991504722459
 20
57.587246938867992
 30
0.0
 11
319.30991504722459
 21
90.75751169373541
 31
0.0
  0
LINE
  5
4C9
  8
0
 10
328.80991504722459
 20
57.587246938867992
 30
0.0
 11
328.80991504722471
 21
90.757511693735367
 31
0.0
  0
LINE
  5
4CA
  8
3
 10
160.77126754119331
 20
36.931187830148048
 30
0.0
 11
160.77126754119331
 21
48.03653440658038
 31
0.0
  0
LINE
  5
4CB
  8
3
 10
159.4821514162513
 20
36.617711691154739
 30
0.0
 11
159.48215141625141
 21
48.036534406580422
 31
0.0
  0
LINE
  5
4CC
  8
3
 10
157.8173729969331
 20
36.617711691154739
 30
0.0
 11
157.8173729969331
 21
48.036534406580422
 31
0.0
  0
LINE
  5
4CD
  8
3
 10
156.04588218768839
 20
36.61771169115471
 30
0.0
 11
156.04588218768839
 21
48.036534406580422
 31
0.0
  0
LINE
  5
4CE
  8
3
 10
154.26310799749319
 20
36.617711691154682
 30
0.0
 11
154.26310799749319
 21
48.036534406580422
 31
0.0
  0
LINE
  5
4CF
  8
3
 10
152.44648366444591
 20
36.617711691154682
 30
0.0
 11
152.44648366444591
 21
48.036534406580436
 31
0.0
  0
LINE
  5
4D0
  8
3
 10
150.7077914022
 20
36.617711691154682
 30
0.0
 11
150.7077914022
 21
48.036534406580436
 31
0.0
  0
LINE
  5
4D1
  8
3
 10
148.96909913995401
 20
36.617711691154682
 30
0.0
 11
148.96909913995401
 21
48.036534406580436
 31
0.0
  0
LINE
  5
4D2
  8
3
 10
147.15247480690681
 20
36.617711691154682
 30
0.0
 11
147.15247480690681
 21
48.036534406580422
 31
0.0
  0
LINE
  5
4D3
  8
3
 10
145.36970061671161
 20
36.61771169115471
 30
0.0
 11
145.36970061671161
 21
48.036534406580422
 31
0.0
  0
LINE
  5
4D4
  8
3
 10
143.5982098074669
 20
36.617711691154739
 30
0.0
 11
143.5982098074669
 21
48.036534406580422
 31
0.0
  0
LINE
  5
4D5
  8
3
 10
141.9334313881487
 20
36.617711691154739
 30
0.0
 11
141.93343138814859
 21
48.036534406580422
 31
0.0
  0
LINE
  5
4D6
  8
3
 10
140.64431526320669
 20
36.931187830148048
 30
0.0
 11
140.64431526320669
 21
48.03653440658038
 31
0.0
  0
LINE
  5
4D7
  8
0
 10
163.81878780179949
 20
57.587246938867963
 30
0.0
 11
163.77248603754609
 21
49.71594701580284
 31
0.0
  0
ARC
  5
4D8
  8
0
 10
163.47249122772291
 20
49.71771169115474
 30
0.0
 40
0.3
 50
270.0
 51
359.66296989014222
  0
ARC
  5
4D9
  8
0
 10
231.34515092692649
 20
88.43949160484587
 30
0.0
 40
5.0
 50
75.168991647594979
 51
98.453944111209395
  0
LINE
  5
4DA
  8
0
 10
311.29521522170188
 20
49.4177116911548
 30
0.0
 11
336.8246148727477
 21
49.417711691154828
 31
0.0
  0
LINE
  5
4DB
  8
0
 10
331.55991504722471
 20
36.417711691154842
 30
0.0
 11
316.55991504722471
 21
36.417711691154842
 31
0.0
  0
LINE
  5
4DC
  8
0
 10
333.80991504722448
 20
36.617711691154568
 30
0.0
 11
314.30991504722471
 21
36.617711691154767
 31
0.0
  0
LINE
  5
4DD
  8
0
 10
313.30991504722471
 20
48.03653440658038
 30
0.0
 11
334.80991504722471
 21
48.0365344065805
 31
0.0
  0
LINE
  5
4DE
  8
2
 10
328.98640379722468
 20
37.491222941154859
 30
0.0
 11
319.13342629722467
 21
37.491222941154859
 31
0.0
  0
LINE
  5
4DF
  8
0
 10
313.30991504722471
 20
37.617711691154767
 30
0.0
 11
313.30991504722471
 21
48.417711691154672
 31
0.0
  0
LINE
  5
4E0
  8
0
 10
313.30991504722471
 20
37.617711691154767
 30
0.0
 11
314.30991504722471
 21
36.617711691154767
 31
0.0
  0
LINE
  5
4E1
  8
0
 10
316.55991504722471
 20
36.417711691154842
 30
0.0
 11
316.55991504722471
 21
36.617711691154817
 31
0.0
  0
LINE
  5
4E2
  8
2
 10
319.13342629722467
 20
37.491222941154859
 30
0.0
 11
318.05991504722471
 21
36.417711691154842
 31
0.0
  0
LINE
  5
4E3
  8
0
 10
313.30991504722482
 20
48.417711691154672
 30
0.0
 11
313.30991504722482
 21
49.4177116911548
 31
0.0
  0
ARC
  5
4E4
  8
0
 10
311.29521522170188
 20
49.717711691154697
 30
0.0
 40
0.3
 50
180.33703010985781
 51
270.0
  0
LINE
  5
4E5
  8
0
 10
334.80991504722471
 20
37.617711691154767
 30
0.0
 11
334.80991504722471
 21
48.417711691154672
 31
0.0
  0
LINE
  5
4E6
  8
2
 10
330.05991504722471
 20
36.417711691154842
 30
0.0
 11
328.98640379722468
 21
37.491222941154859
 31
0.0
  0
LINE
  5
4E7
  8
0
 10
334.80991504722471
 20
37.617711691154767
 30
0.0
 11
333.80991504722471
 21
36.617711691154767
 31
0.0
  0
LINE
  5
4E8
  8
0
 10
331.55991504722471
 20
36.417711691154842
 30
0.0
 11
331.55991504722471
 21
36.617711691154817
 31
0.0
  0
LINE
  5
4E9
  8
0
 10
334.80991504722459
 20
48.417711691154672
 30
0.0
 11
334.80991504722459
 21
49.4177116911548
 31
0.0
  0
ARC
  5
4EA
  8
0
 10
336.8246148727477
 20
49.71771169115474
 30
0.0
 40
0.3
 50
270.0
 51
359.66296989014222
  0
LINE
  5
4EB
  8
2
 10
330.05991504722471
 20
36.417711691154842
 30
0.0
 11
330.05991504722471
 21
56.417711691154828
 31
0.0
  0
LINE
  5
4EC
  8
2
 10
316.55991504722471
 20
36.617711691154817
 30
0.0
 11
316.55991504722471
 21
61.917711691154828
 31
0.0
  0
LINE
  5
4ED
  8
2
 10
319.13342629722467
 20
37.491222941154859
 30
0.0
 11
319.13342629722467
 21
59.417711691154828
 31
0.0
  0
LINE
  5
4EE
  8
2
 10
318.05991504722471
 20
36.417711691154842
 30
0.0
 11
318.05991504722471
 21
56.417711691154828
 31
0.0
  0
LINE
  5
4EF
  8
2
 10
328.98640379722468
 20
37.491222941154859
 30
0.0
 11
328.98640379722468
 21
59.417711691154828
 31
0.0
  0
LINE
  5
4F0
  8
2
 10
331.55991504722471
 20
36.617711691154817
 30
0.0
 11
331.55991504722471
 21
61.917711691154828
 31
0.0
  0
LINE
  5
4F1
  8
2
 10
318.55991504722471
 20
63.917711691154828
 30
0.0
 11
329.55991504722471
 21
63.917711691154828
 31
0.0
  0
LINE
  5
4F2
  8
2
 10
319.13342629722467
 20
59.417711691154828
 30
0.0
 11
324.05991504722471
 21
62.262021297126999
 31
0.0
  0
LINE
  5
4F3
  8
2
 10
328.98640379722468
 20
59.417711691154828
 30
0.0
 11
319.13342629722467
 21
59.417711691154828
 31
0.0
  0
LINE
  5
4F4
  8
2
 10
330.05991504722471
 20
56.417711691154828
 30
0.0
 11
318.05991504722471
 21
56.417711691154828
 31
0.0
  0
LINE
  5
4F5
  8
2
 10
318.05991504722471
 20
56.417711691154828
 30
0.0
 11
319.13342629722467
 21
58.277087718651579
 31
0.0
  0
LINE
  5
4F6
  8
2
 10
318.55991504722471
 20
63.917711691154828
 30
0.0
 11
316.55991504722471
 21
61.917711691154828
 31
0.0
  0
LINE
  5
4F7
  8
2
 10
329.55991504722471
 20
63.917711691154828
 30
0.0
 11
331.55991504722471
 21
61.917711691154828
 31
0.0
  0
LINE
  5
4F8
  8
2
 10
330.05991504722471
 20
56.417711691154828
 30
0.0
 11
328.98640379722468
 21
58.277087718651579
 31
0.0
  0
LINE
  5
4F9
  8
2
 10
328.98640379722468
 20
59.417711691154828
 30
0.0
 11
324.05991504722471
 21
62.262021297126999
 31
0.0
  0
LINE
  5
4FA
  8
0
 10
310.80991504722471
 20
81.217859006942888
 30
0.0
 11
310.99522041187862
 21
49.715947015802783
 31
0.0
  0
LINE
  5
4FB
  8
0
 10
315.05991504722459
 20
83.757711691154725
 30
0.0
 11
313.33487136323748
 21
83.757711691154725
 31
0.0
  0
ARC
  5
4FC
  8
0
 10
313.33487136323748
 20
81.232711691154634
 30
0.0
 40
2.524999999999999
 50
90.0
 51
180.33703010985781
  0
LINE
  5
4FD
  8
0
 10
333.05991504722459
 20
83.757711691154725
 30
0.0
 11
334.78495873121187
 21
83.757711691154725
 31
0.0
  0
ARC
  5
4FE
  8
0
 10
334.78495873121187
 20
81.232711691154634
 30
0.0
 40
2.524999999999999
 50
359.66296989014222
 51
90.0
  0
LINE
  5
4FF
  8
0
 10
337.30991504722471
 20
81.217859006942888
 30
0.0
 11
337.12460968257079
 21
49.715947015802783
 31
0.0
  0
LINE
  5
500
  8
2
 10
62.432382641426599
 20
36.417711691154842
 30
0.0
 11
62.432382641426571
 21
56.417711691154828
 31
0.0
  0
LINE
  5
501
  8
2
 10
48.932382641426592
 20
36.617711691154817
 30
0.0
 11
48.932382641426592
 21
61.917711691154828
 31
0.0
  0
LINE
  5
502
  8
2
 10
51.505893891426631
 20
37.491222941154859
 30
0.0
 11
51.505893891426631
 21
59.417711691154828
 31
0.0
  0
LINE
  5
503
  8
2
 10
50.432382641426599
 20
36.417711691154842
 30
0.0
 11
50.432382641426599
 21
56.417711691154828
 31
0.0
  0
LINE
  5
504
  8
2
 10
61.358871391426568
 20
37.491222941154859
 30
0.0
 11
61.358871391426568
 21
59.417711691154828
 31
0.0
  0
LINE
  5
505
  8
2
 10
63.932382641426592
 20
36.617711691154817
 30
0.0
 11
63.932382641426592
 21
61.917711691154828
 31
0.0
  0
LINE
  5
506
  8
0
 10
63.932382641426592
 20
36.417711691154842
 30
0.0
 11
48.932382641426592
 21
36.417711691154842
 31
0.0
  0
LINE
  5
507
  8
0
 10
66.182382641426372
 20
36.617711691154568
 30
0.0
 11
46.682382641426599
 21
36.617711691154767
 31
0.0
  0
LINE
  5
508
  8
0
 10
45.682382641426592
 20
48.03653440658038
 30
0.0
 11
67.182382641426599
 21
48.0365344065805
 31
0.0
  0
LINE
  5
509
  8
2
 10
61.358871391426568
 20
37.491222941154859
 30
0.0
 11
51.505893891426631
 21
37.491222941154859
 31
0.0
  0
LINE
  5
50A
  8
0
 10
45.682382641426592
 20
37.617711691154767
 30
0.0
 11
45.682382641426592
 21
49.4177116911548
 31
0.0
  0
LINE
  5
50B
  8
0
 10
45.682382641426592
 20
37.617711691154767
 30
0.0
 11
46.682382641426599
 21
36.617711691154767
 31
0.0
  0
LINE
  5
50C
  8
0
 10
48.932382641426592
 20
36.417711691154842
 30
0.0
 11
48.932382641426592
 21
36.617711691154817
 31
0.0
  0
LINE
  5
50D
  8
2
 10
51.505893891426631
 20
37.491222941154859
 30
0.0
 11
50.432382641426599
 21
36.417711691154842
 31
0.0
  0
ARC
  5
50E
  8
0
 10
43.667682815903738
 20
49.717711691154697
 30
0.0
 40
0.3
 50
180.33703010985781
 51
270.0
  0
LINE
  5
50F
  8
0
 10
67.182382641426599
 20
37.617711691154767
 30
0.0
 11
67.182382641426599
 21
49.417711691154828
 31
0.0
  0
LINE
  5
510
  8
2
 10
62.432382641426599
 20
36.417711691154842
 30
0.0
 11
61.358871391426568
 21
37.491222941154859
 31
0.0
  0
LINE
  5
511
  8
0
 10
67.182382641426599
 20
37.617711691154767
 30
0.0
 11
66.182382641426599
 21
36.617711691154767
 31
0.0
  0
LINE
  5
512
  8
0
 10
63.932382641426592
 20
36.417711691154842
 30
0.0
 11
63.932382641426592
 21
36.617711691154817
 31
0.0
  0
LINE
  5
513
  8
2
 10
50.932382641426599
 20
63.917711691154828
 30
0.0
 11
61.932382641426571
 21
63.917711691154828
 31
0.0
  0
LINE
  5
514
  8
2
 10
51.505893891426631
 20
59.417711691154828
 30
0.0
 11
56.432382641426592
 21
62.262021297126999
 31
0.0
  0
LINE
  5
515
  8
2
 10
61.358871391426568
 20
59.417711691154828
 30
0.0
 11
51.505893891426631
 21
59.417711691154828
 31
0.0
  0
LINE
  5
516
  8
2
 10
62.432382641426599
 20
56.417711691154828
 30
0.0
 11
50.432382641426599
 21
56.417711691154828
 31
0.0
  0
LINE
  5
517
  8
2
 10
50.432382641426599
 20
56.417711691154828
 30
0.0
 11
51.505893891426631
 21
58.277087718651579
 31
0.0
  0
LINE
  5
518
  8
2
 10
50.932382641426599
 20
63.917711691154828
 30
0.0
 11
48.932382641426592
 21
61.917711691154828
 31
0.0
  0
LINE
  5
519
  8
2
 10
61.932382641426599
 20
63.917711691154828
 30
0.0
 11
63.932382641426592
 21
61.917711691154828
 31
0.0
  0
LINE
  5
51A
  8
2
 10
62.432382641426599
 20
56.417711691154828
 30
0.0
 11
61.358871391426568
 21
58.277087718651579
 31
0.0
  0
LINE
  5
51B
  8
2
 10
61.358871391426568
 20
59.417711691154828
 30
0.0
 11
56.432382641426592
 21
62.262021297126999
 31
0.0
  0
LINE
  5
51C
  8
0
 10
43.182382641426571
 20
81.217859006942888
 30
0.0
 11
43.367688006080478
 21
49.715947015802783
 31
0.0
  0
LINE
  5
51D
  8
0
 10
43.667682815903738
 20
49.4177116911548
 30
0.0
 11
69.19708246694951
 21
49.417711691154828
 31
0.0
  0
ARC
  5
51E
  8
0
 10
45.70733895743934
 20
81.232711691154634
 30
0.0
 40
2.524999999999999
 50
90.0
 51
180.33703010985781
  0
LINE
  5
51F
  8
0
 10
67.157426325413851
 20
83.757711691154796
 30
0.0
 11
45.70733895743934
 21
83.757711691154725
 31
0.0
  0
LINE
  5
520
  8
0
 10
69.682382641426614
 20
81.217859006942888
 30
0.0
 11
69.497077276772714
 21
49.715947015802783
 31
0.0
  0
ARC
  5
521
  8
0
 10
67.157426325413851
 20
81.232711691154634
 30
0.0
 40
2.524999999999999
 50
359.66296989014222
 51
90.0
  0
ARC
  5
522
  8
0
 10
150.7077914022
 20
172.5888178929282
 30
0.0
 40
13.25
 50
60.713019183660393
 51
299.28698081633962
  0
ARC
  5
523
  8
0
 10
236.7077914022
 20
172.5888178929282
 30
0.0
 40
9.0
 50
270.0
 51
90.0
  0
LINE
  5
524
  8
0
 10
236.7077914022
 20
181.5888178929282
 30
0.0
 11
166.973168741813
 21
181.5888178929282
 31
0.0
  0
ARC
  5
525
  8
0
 10
166.973168741813
 20
201.58881789292829
 30
0.0
 40
20.0
 50
240.71301918366041
 51
270.0
  0
ARC
  5
526
  8
0
 10
166.973168741813
 20
143.5888178929282
 30
0.0
 40
20.0
 50
90.0
 51
119.28698081633959
  0
LINE
  5
527
  8
0
 10
236.7077914022
 20
163.5888178929282
 30
0.0
 11
166.973168741813
 21
163.5888178929282
 31
0.0
  0
LINE
  5
528
  8
3
 10
236.7077914022
 20
180.0888178929282
 30
0.0
 11
166.973168741813
 21
180.0888178929282
 31
0.0
  0
ARC
  5
529
  8
3
 10
236.7077914022
 20
172.5888178929282
 30
0.0
 40
7.5
 50
270.0
 51
90.0
  0
LINE
  5
52A
  8
3
 10
236.7077914022
 20
165.0888178929282
 30
0.0
 11
166.973168741813
 21
165.0888178929282
 31
0.0
  0
ARC
  5
52B
  8
3
 10
150.7077914022
 20
172.5888178929282
 30
0.0
 40
11.75
 50
60.713019183660393
 51
299.28698081633962
  0
ARC
  5
52C
  8
3
 10
166.973168741813
 20
201.58881789292829
 30
0.0
 40
21.5
 50
240.71301918366041
 51
270.0
  0
ARC
  5
52D
  8
3
 10
166.973168741813
 20
143.5888178929282
 30
0.0
 40
21.5
 50
90.0
 51
119.28698081633959
  0
LINE
  5
52E
  8
1
 10
150.7077914022
 20
190.8388178929282
 30
0.0
 11
150.7077914022
 21
154.3388178929282
 31
0.0
  0
LINE
  5
52F
  8
1
 10
250.7077914022
 20
172.5888178929282
 30
0.0
 11
132.4577914022
 21
172.5888178929282
 31
0.0
  0
ARC
  5
530
  8
0
 10
69.197082466949453
 20
49.717711691154697
 30
0.0
 40
0.3
 50
270.0
 51
359.66296989014222
  0
LINE
  5
531
  8
3
 10
66.49585878041988
 20
36.931187830148048
 30
0.0
 11
66.49585878041988
 21
48.03653440658038
 31
0.0
  0
LINE
  5
532
  8
3
 10
65.206742655477925
 20
36.617711691154739
 30
0.0
 11
65.206742655477981
 21
48.036534406580422
 31
0.0
  0
LINE
  5
533
  8
3
 10
63.541964236159671
 20
36.617711691154739
 30
0.0
 11
63.541964236159671
 21
48.036534406580422
 31
0.0
  0
LINE
  5
534
  8
3
 10
61.770473426914961
 20
36.61771169115471
 30
0.0
 11
61.770473426914961
 21
48.036534406580422
 31
0.0
  0
LINE
  5
535
  8
3
 10
59.98769923671982
 20
36.617711691154682
 30
0.0
 11
59.987699236719791
 21
48.036534406580422
 31
0.0
  0
LINE
  5
536
  8
3
 10
58.171074903672562
 20
36.617711691154682
 30
0.0
 11
58.171074903672562
 21
48.036534406580436
 31
0.0
  0
LINE
  5
537
  8
3
 10
56.432382641426592
 20
36.617711691154682
 30
0.0
 11
56.432382641426592
 21
48.036534406580436
 31
0.0
  0
LINE
  5
538
  8
3
 10
54.69369037918063
 20
36.617711691154682
 30
0.0
 11
54.69369037918063
 21
48.036534406580436
 31
0.0
  0
LINE
  5
539
  8
3
 10
52.877066046133379
 20
36.617711691154682
 30
0.0
 11
52.8770660461334
 21
48.036534406580422
 31
0.0
  0
LINE
  5
53A
  8
3
 10
51.094291855938238
 20
36.61771169115471
 30
0.0
 11
51.094291855938238
 21
48.036534406580422
 31
0.0
  0
LINE
  5
53B
  8
3
 10
49.32280104669352
 20
36.617711691154739
 30
0.0
 11
49.32280104669352
 21
48.036534406580422
 31
0.0
  0
LINE
  5
53C
  8
3
 10
47.658022627375267
 20
36.617711691154739
 30
0.0
 11
47.658022627375217
 21
48.036534406580422
 31
0.0
  0
LINE
  5
53D
  8
3
 10
46.368906502433319
 20
36.931187830148048
 30
0.0
 11
46.368906502433319
 21
48.03653440658038
 31
0.0
  0
LINE
  5
53E
  8
3
 10
334.12339118621787
 20
36.931187830147941
 30
0.0
 11
334.12339118621787
 21
48.03653440658028
 31
0.0
  0
LINE
  5
53F
  8
3
 10
332.834275061276
 20
36.617711691154632
 30
0.0
 11
332.834275061276
 21
48.036534406580301
 31
0.0
  0
LINE
  5
540
  8
3
 10
331.16949664195772
 20
36.617711691154632
 30
0.0
 11
331.16949664195772
 21
48.036534406580301
 31
0.0
  0
LINE
  5
541
  8
3
 10
329.39800583271301
 20
36.617711691154597
 30
0.0
 11
329.39800583271301
 21
48.036534406580301
 31
0.0
  0
LINE
  5
542
  8
3
 10
327.61523164251793
 20
36.617711691154568
 30
0.0
 11
327.61523164251781
 21
48.036534406580301
 31
0.0
  0
LINE
  5
543
  8
3
 10
325.79860730947058
 20
36.617711691154568
 30
0.0
 11
325.79860730947058
 21
48.03653440658033
 31
0.0
  0
LINE
  5
544
  8
3
 10
324.05991504722471
 20
36.617711691154568
 30
0.0
 11
324.05991504722471
 21
48.03653440658033
 31
0.0
  0
LINE
  5
545
  8
3
 10
322.32122278497872
 20
36.617711691154568
 30
0.0
 11
322.32122278497872
 21
48.03653440658033
 31
0.0
  0
LINE
  5
546
  8
3
 10
320.50459845193137
 20
36.617711691154568
 30
0.0
 11
320.50459845193149
 21
48.036534406580301
 31
0.0
  0
LINE
  5
547
  8
3
 10
318.72182426173629
 20
36.617711691154597
 30
0.0
 11
318.72182426173629
 21
48.036534406580301
 31
0.0
  0
LINE
  5
548
  8
3
 10
316.95033345249158
 20
36.617711691154632
 30
0.0
 11
316.95033345249158
 21
48.036534406580301
 31
0.0
  0
LINE
  5
549
  8
3
 10
315.28555503317341
 20
36.617711691154632
 30
0.0
 11
315.28555503317318
 21
48.036534406580301
 31
0.0
  0
LINE
  5
54A
  8
3
 10
313.99643890823143
 20
36.931187830147941
 30
0.0
 11
313.99643890823143
 21
48.03653440658028
 31
0.0
  0
ENDBLK
  5
54E
  8
0
  0
ENDSEC
  0
SECTION
  2
ENTITIES
  0
INSERT
  5
54F
  8
0
  2
EAL95
 10
0.0
 20
0.0
 30
0.0
  0
TEXT
  5
5EC
  8
0
 62
     3
 10
0.0
 20
0.0
 30
0.0
 40
10.0
  1
EAL95-SUS
  7
STANDARD1
  0
ENDSEC
  0
EOF
