  0
SECTION
  2
HEADER
  9
$ACADVER
  1
AC1009
  9
$INSBASE
 10
0.0
 20
0.0
 30
0.0
  9
$EXTMIN
 10
0.0
 20
-2.960436562073669
 30
0.0
  9
$EXTMAX
 10
189.54492302569119
 20
186.14181669790949
 30
0.0
  9
$LIMMIN
 10
0.0
 20
0.0
  9
$LIMMAX
 10
375.0
 20
270.0
  9
$ORTHOMODE
 70
     1
  9
$REGENMODE
 70
     1
  9
$FILLMODE
 70
     1
  9
$QTEXTMODE
 70
     0
  9
$MIRRTEXT
 70
     0
  9
$DRAGMODE
 70
     2
  9
$LTSCALE
 40
10.0
  9
$OSMODE
 70
  3071
  9
$ATTMODE
 70
     1
  9
$TEXTSIZE
 40
5.0
  9
$TRACEWID
 40
0.05
  9
$TEXTSTYLE
  7
STANDARD
  9
$CLAYER
  8
0
  9
$CELTYPE
  6
BYLAYER
  9
$CECOLOR
 62
   256
  9
$DIMSCALE
 40
1.0
  9
$DIMASZ
 40
3.0
  9
$DIMEXO
 40
2.0
  9
$DIMDLI
 40
0.38
  9
$DIMRND
 40
0.0
  9
$DIMDLE
 40
0.0
  9
$DIMEXE
 40
2.0
  9
$DIMTP
 40
0.0
  9
$DIMTM
 40
0.0
  9
$DIMTXT
 40
3.2000000000000002
  9
$DIMCEN
 40
0.0
  9
$DIMTSZ
 40
0.0
  9
$DIMTOL
 70
     0
  9
$DIMLIM
 70
     0
  9
$DIMTIH
 70
     0
  9
$DIMTOH
 70
     0
  9
$DIMSE1
 70
     0
  9
$DIMSE2
 70
     0
  9
$DIMTAD
 70
     1
  9
$DIMZIN
 70
     0
  9
$DIMBLK
  1

  9
$DIMASO
 70
     1
  9
$DIMSHO
 70
     0
  9
$DIMPOST
  1

  9
$DIMAPOST
  1

  9
$DIMALT
 70
     0
  9
$DIMALTD
 70
     2
  9
$DIMALTF
 40
25.399999999999999
  9
$DIMLFAC
 40
1.0
  9
$DIMTOFL
 70
     1
  9
$DIMTVP
 40
1.6000000000000001
  9
$DIMTIX
 70
     1
  9
$DIMSOXD
 70
     0
  9
$DIMSAH
 70
     0
  9
$DIMBLK1
  1

  9
$DIMBLK2
  1

  9
$DIMSTYLE
  2
STANDARD
  9
$DIMCLRD
 70
     0
  9
$DIMCLRE
 70
     0
  9
$DIMCLRT
 70
     0
  9
$DIMTFAC
 40
1.0
  9
$DIMGAP
 40
0.09
  9
$LUNITS
 70
     2
  9
$LUPREC
 70
     4
  9
$SKETCHINC
 40
0.1
  9
$FILLETRAD
 40
0.0
  9
$AUNITS
 70
     0
  9
$AUPREC
 70
     4
  9
$MENU
  1
E:\r13\win\SUPPORT\ACAD
  9
$ELEVATION
 40
0.0
  9
$PELEVATION
 40
0.0
  9
$THICKNESS
 40
0.0
  9
$LIMCHECK
 70
     0
  9
$BLIPMODE
 70
     0
  9
$CHAMFERA
 40
0.0
  9
$CHAMFERB
 40
0.0
  9
$SKPOLY
 70
     0
  9
$TDCREATE
 40
2449839.783958334
  9
$TDUPDATE
 40
2456598.6415778468
  9
$TDINDWG
 40
0.0653270718
  9
$TDUSRTIMER
 40
0.0653270718
  9
$USRTIMER
 70
     1
  9
$ANGBASE
 50
0.0
  9
$ANGDIR
 70
     0
  9
$PDMODE
 70
     0
  9
$PDSIZE
 40
0.0
  9
$PLINEWID
 40
0.0
  9
$COORDS
 70
     1
  9
$SPLFRAME
 70
     0
  9
$SPLINETYPE
 70
     6
  9
$SPLINESEGS
 70
     8
  9
$ATTDIA
 70
     0
  9
$ATTREQ
 70
     1
  9
$HANDLING
 70
     1
  9
$HANDSEED
  5
2C62
  9
$SURFTAB1
 70
     6
  9
$SURFTAB2
 70
     6
  9
$SURFTYPE
 70
     6
  9
$SURFU
 70
     6
  9
$SURFV
 70
     6
  9
$UCSNAME
  2

  9
$UCSORG
 10
0.0
 20
0.0
 30
0.0
  9
$UCSXDIR
 10
1.0
 20
0.0
 30
0.0
  9
$UCSYDIR
 10
0.0
 20
1.0
 30
0.0
  9
$PUCSNAME
  2

  9
$PUCSORG
 10
0.0
 20
0.0
 30
0.0
  9
$PUCSXDIR
 10
1.0
 20
0.0
 30
0.0
  9
$PUCSYDIR
 10
0.0
 20
1.0
 30
0.0
  9
$USERI1
 70
     0
  9
$USERI2
 70
     1
  9
$USERI3
 70
     1
  9
$USERI4
 70
     0
  9
$USERI5
 70
     0
  9
$USERR1
 40
0.0
  9
$USERR2
 40
0.0
  9
$USERR3
 40
0.0
  9
$USERR4
 40
0.0
  9
$USERR5
 40
0.0
  9
$WORLDVIEW
 70
     1
  9
$SHADEDGE
 70
     3
  9
$SHADEDIF
 70
    70
  9
$TILEMODE
 70
     1
  9
$MAXACTVP
 70
    16
  9
$PLIMCHECK
 70
     0
  9
$PEXTMIN
 10
1.0000000000000000E+020
 20
1.0000000000000000E+020
 30
1.0000000000000000E+020
  9
$PEXTMAX
 10
-1.0000000000000000E+020
 20
-1.0000000000000000E+020
 30
-1.0000000000000000E+020
  9
$PLIMMIN
 10
0.0
 20
0.0
  9
$PLIMMAX
 10
12.0
 20
9.0
  9
$UNITMODE
 70
     0
  9
$VISRETAIN
 70
     0
  9
$PLINEGEN
 70
     0
  9
$PSLTSCALE
 70
     0
  0
ENDSEC
  0
SECTION
  2
TABLES
  0
TABLE
  2
VPORT
 70
     1
  0
VPORT
  2
*ACTIVE
 70
     0
 10
0.0
 20
0.0
 11
1.0
 21
1.0
 12
195.0581083320873
 22
133.5127261426681
 13
0.0
 23
0.0
 14
10.0
 24
10.0
 15
10.0
 25
10.0
 16
0.0
 26
0.0
 36
1.0
 17
0.0
 27
0.0
 37
0.0
 40
275.42274993631997
 41
1.831871345029239
 42
50.0
 43
0.0
 44
0.0
 50
0.0
 51
0.0
 71
     0
 72
   500
 73
     1
 74
     0
 75
     0
 76
     0
 77
     0
 78
     2
  0
ENDTAB
  0
TABLE
  2
LTYPE
 70
     4
  0
LTYPE
  2
CONTINUOUS
 70
     0
  3
Solid Line
 72
    65
 73
     0
 40
0.0
  0
LTYPE
  2
CENTER
 70
     0
  3
____ _ ____ _ ____ _ ____ _ ____ _ ____ _ ____
 72
    65
 73
     4
 40
2.0
 49
1.25
 49
-0.25
 49
0.25
 49
-0.25
  0
LTYPE
  2
HIDDEN
 70
     0
  3
_ _ _ _ _ _ _ _ _ _ _ _ _ _ _ _ _ _ _ _ _ _ _
 72
    65
 73
     2
 40
0.375
 49
0.25
 49
-0.125
  0
LTYPE
  2
PHANTOM2
 70
     0
  3
___ _ _ ___ _ _ ___ _ _ ___ _ _
 72
    65
 73
     6
 40
1.25
 49
0.625
 49
-0.125
 49
0.125
 49
-0.125
 49
0.125
 49
-0.125
  0
ENDTAB
  0
TABLE
  2
LAYER
 70
     4
  0
LAYER
  2
0
 70
     0
 62
     7
  6
CONTINUOUS
  0
LAYER
  2
1
 70
     0
 62
     1
  6
CENTER
  0
LAYER
  2
2
 70
     0
 62
     2
  6
HIDDEN
  0
LAYER
  2
DEFPOINTS
 70
     0
 62
     7
  6
CONTINUOUS
  0
ENDTAB
  0
TABLE
  2
STYLE
 70
     2
  0
STYLE
  2
STANDARD
 70
     0
 40
0.0
 41
1.0
 50
0.0
 71
     0
 42
5.0
  3
TXT
  4
BIGFONT
  0
STYLE
  2
STANDARD1
 70
     0
 40
0.0
 41
1.0
 50
0.0
 71
     0
 42
3.0
  3
txt
  4

  0
ENDTAB
  0
TABLE
  2
VIEW
 70
     1
  0
VIEW
  2
ALL
 70
     0
 40
270.0
 10
220.99159663865549
 20
135.0
 41
0.0
 11
0.0
 21
0.0
 31
1.0
 12
0.0
 22
0.0
 32
0.0
 42
0.0
 43
0.0
 44
0.0
 50
0.0
 71
     0
  0
ENDTAB
  0
TABLE
  2
UCS
 70
     0
  0
ENDTAB
  0
TABLE
  2
APPID
 70
     7
  0
APPID
  2
ACAD
 70
     0
  0
APPID
  2
GENIUS_GENODEF_13
 70
     0
  0
APPID
  2
GENIUS_GENOBJ-N-FIL_13
 70
     0
  0
APPID
  2
GENIUS_GENOREF_13
 70
     0
  0
APPID
  2
ACAD_PSEXT
 70
     0
  0
APPID
  2
ACAD_MLEADERVER
 70
     0
  0
APPID
  2
ACAD_NAV_VCDISPLAY
 70
     0
  0
ENDTAB
  0
TABLE
  2
DIMSTYLE
 70
     1
  0
DIMSTYLE
  2
STANDARD
 70
     0
  3

  4

  5

  6

  7

 40
1.0
 41
0.18
 42
0.0625
 43
0.38
 44
0.18
 45
0.0
 46
0.0
 47
0.0
 48
0.0
140
0.18
141
0.09
142
0.0
143
25.399999999999999
144
1.0
145
0.0
146
1.0
147
0.09
 71
     0
 72
     0
 73
     1
 74
     1
 75
     0
 76
     0
 77
     0
 78
     0
170
     0
171
     2
172
     0
173
     0
174
     0
175
     0
176
     0
177
     0
178
     0
  0
ENDTAB
  0
ENDSEC
  0
SECTION
  2
BLOCKS
  0
BLOCK
  8
0
  2
$MODEL_SPACE
 70
     0
 10
0.0
 20
0.0
 30
0.0
  3
$MODEL_SPACE
  1

  0
ENDBLK
  5
163B
  8
0
  0
BLOCK
 67
     1
  8
0
  2
$PAPER_SPACE
 70
     0
 10
0.0
 20
0.0
 30
0.0
  3
$PAPER_SPACE
  1

  0
ENDBLK
  5
1639
 67
     1
  8
0
  0
ENDSEC
  0
SECTION
  2
ENTITIES
  0
LINE
  5
1BFA
  8
2
 10
155.35692302569129
 20
25.446821359943321
 30
0.0
 11
154.5449230256913
 21
24.634821359943299
 31
0.0
  0
LINE
  5
1BFB
  8
2
 10
164.5449230256913
 20
24.634821359943299
 30
0.0
 11
163.73292302569129
 21
25.446821359943321
 31
0.0
  0
LINE
  5
1BFC
  8
2
 10
155.35692302569129
 20
43.822821359943291
 30
0.0
 11
155.35692302569129
 21
25.446821359943321
 31
0.0
  0
LINE
  5
1BFD
  8
2
 10
163.73292302569129
 20
25.446821359943321
 30
0.0
 11
163.73292302569129
 21
43.822821359943291
 31
0.0
  0
LINE
  5
1BFE
  8
2
 10
154.5449230256913
 20
44.634821359943302
 30
0.0
 11
155.35692302569129
 21
43.822821359943291
 31
0.0
  0
LINE
  5
1BFF
  8
2
 10
163.73292302569129
 20
43.822821359943291
 30
0.0
 11
164.5449230256913
 21
44.634821359943302
 31
0.0
  0
LINE
  5
1C3A
  8
2
 10
155.35692302569129
 20
25.446821359943321
 30
0.0
 11
163.73292302569129
 21
25.446821359943321
 31
0.0
  0
LINE
  5
1C3B
  8
2
 10
155.35692302569129
 20
43.822821359943291
 30
0.0
 11
163.73292302569129
 21
43.822821359943291
 31
0.0
  0
LINE
  5
1C3C
  8
2
 10
154.5449230256913
 20
24.634821359943299
 30
0.0
 11
154.5449230256913
 21
44.634821359943302
 31
0.0
  0
LINE
  5
1C3D
  8
2
 10
164.5449230256913
 20
24.634821359943299
 30
0.0
 11
164.5449230256913
 21
44.634821359943302
 31
0.0
  0
LINE
  5
1CA9
  8
2
 10
28.849927687725089
 20
160.32981669790959
 30
0.0
 11
28.03792768772508
 21
161.1418166979096
 31
0.0
  0
LINE
  5
1CAA
  8
2
 10
28.03792768772508
 20
151.1418166979096
 30
0.0
 11
28.849927687725089
 21
151.95381669790959
 31
0.0
  0
LINE
  5
1CAB
  8
2
 10
47.225927687725061
 20
160.32981669790959
 30
0.0
 11
28.849927687725089
 21
160.32981669790959
 31
0.0
  0
LINE
  5
1CAC
  8
2
 10
28.849927687725089
 20
151.95381669790959
 30
0.0
 11
47.225927687725061
 21
151.95381669790959
 31
0.0
  0
LINE
  5
1CAD
  8
2
 10
48.037927687725073
 20
161.1418166979096
 30
0.0
 11
47.225927687725061
 21
160.32981669790959
 31
0.0
  0
LINE
  5
1CAE
  8
2
 10
47.225927687725061
 20
151.95381669790959
 30
0.0
 11
48.037927687725073
 21
151.1418166979096
 31
0.0
  0
LINE
  5
1CE9
  8
2
 10
28.849927687725089
 20
160.32981669790959
 30
0.0
 11
28.849927687725089
 21
151.95381669790959
 31
0.0
  0
LINE
  5
1CEA
  8
2
 10
47.225927687725061
 20
160.32981669790959
 30
0.0
 11
47.225927687725061
 21
151.95381669790959
 31
0.0
  0
LINE
  5
1CEC
  8
2
 10
28.03792768772508
 20
161.1418166979096
 30
0.0
 11
48.037927687725073
 21
161.1418166979096
 31
0.0
  0
LINE
  5
1CED
  8
2
 10
28.03792768772508
 20
151.1418166979096
 30
0.0
 11
48.037927687725073
 21
151.1418166979096
 31
0.0
  0
LINE
  5
1D9E
  8
0
 10
28.337927687725092
 20
163.8918166979096
 30
0.0
 11
28.03792768772508
 21
163.8918166979096
 31
0.0
  0
LINE
  5
1D9F
  8
0
 10
28.03792768772508
 20
148.3918166979096
 30
0.0
 11
28.337927687725092
 21
148.3918166979096
 31
0.0
  0
LINE
  5
1DA0
  8
0
 10
48.037927687725073
 20
174.6418166979096
 30
0.0
 11
28.337927687725092
 21
174.6418166979096
 31
0.0
  0
LINE
  5
1DA1
  8
0
 10
28.337927687725092
 20
137.6418166979096
 30
0.0
 11
48.037927687725073
 21
137.6418166979096
 31
0.0
  0
ARC
  5
1DA2
  8
0
 10
73.916483180464922
 20
145.88123238672969
 30
0.0
 40
13.000000000000201
 50
305.79085551801182
 51
346.88590709209069
  0
ARC
  5
1DA3
  8
0
 10
73.916483180464922
 20
166.40240100908949
 30
0.0
 40
13.00000000000019
 50
13.11409290790937
 51
61.134577261625537
  0
ARC
  5
1DA4
  8
0
 10
67.157927687725135
 20
154.1418166979096
 30
0.0
 40
27.000000000000028
 50
61.134577261625537
 51
117.4058113705193
  0
LINE
  5
1DA5
  8
0
 10
54.730102241125053
 20
178.1115716960075
 30
0.0
 11
48.037927687725073
 21
174.6418166979096
 31
0.0
  0
LINE
  5
1DA6
  8
0
 10
48.037927687725073
 20
137.6418166979096
 30
0.0
 11
52.484830054056538
 21
135.3361891939478
 31
0.0
  0
LINE
  5
1DAD
  8
0
 10
28.03792768772508
 20
148.3918166979096
 30
0.0
 11
28.03792768772508
 21
163.8918166979096
 31
0.0
  0
LINE
  5
1DAE
  8
0
 10
28.337927687725092
 20
137.6418166979096
 30
0.0
 11
28.337927687725092
 21
174.6418166979096
 31
0.0
  0
LINE
  5
1DAF
  8
0
 10
86.577445636537618
 20
142.9316511137483
 30
0.0
 11
86.577445636537618
 21
169.35198228207091
 31
0.0
  0
LINE
  5
1DB0
  8
0
 10
48.037927687725073
 20
137.6418166979096
 30
0.0
 11
48.037927687725073
 21
174.6418166979096
 31
0.0
  0
POLYLINE
  5
1DB1
  8
0
 66
     1
 10
0.0
 20
0.0
 30
0.0
  0
VERTEX
  5
1F9A
  8
0
 10
80.192284709438013
 20
175.5611681347952
 30
0.0
  0
VERTEX
  5
1F9B
  8
0
 10
80.215455375789247
 20
175.53825484692101
 30
0.0
  0
VERTEX
  5
1F9C
  8
0
 10
80.261270597406394
 20
175.4922538596399
 30
0.0
  0
VERTEX
  5
1F9D
  8
0
 10
80.306379437469275
 20
175.44602688950769
 30
0.0
  0
VERTEX
  5
1F9E
  8
0
 10
80.328667133451987
 20
175.42283112652751
 30
0.0
  0
VERTEX
  5
1F9F
  8
0
 10
80.350776040168185
 20
175.39958182808999
 30
0.0
  0
VERTEX
  5
1FA0
  8
0
 10
80.394454575052805
 20
175.35292657744361
 30
0.0
  0
VERTEX
  5
1FA1
  8
0
 10
80.437409233848015
 20
175.30606904595621
 30
0.0
  0
VERTEX
  5
1FA2
  8
0
 10
80.479634226731093
 20
175.25901714432581
 30
0.0
  0
VERTEX
  5
1FA3
  8
0
 10
80.521123778057415
 20
175.21177878170951
 30
0.0
  0
VERTEX
  5
1FA4
  8
0
 10
80.561872121524516
 20
175.16436186207349
 30
0.0
  0
VERTEX
  5
1FA5
  8
0
 10
80.581966539576555
 20
175.1405889110971
 30
0.0
  0
VERTEX
  5
1FA6
  8
0
 10
80.601873494763254
 20
175.11677428077681
 30
0.0
  0
VERTEX
  5
1FA7
  8
0
 10
80.641122133350223
 20
175.06902392142081
 30
0.0
  0
VERTEX
  5
1FA8
  8
0
 10
80.679612264235288
 20
175.0211186529981
 30
0.0
  0
VERTEX
  5
1FA9
  8
0
 10
80.71733809858182
 20
174.9730663273719
 30
0.0
  0
VERTEX
  5
1FAA
  8
0
 10
80.754293824020195
 20
174.92487477711839
 30
0.0
  0
VERTEX
  5
1FAB
  8
0
 10
80.79047359631619
 20
174.876551813764
 30
0.0
  0
VERTEX
  5
1FAC
  8
0
 10
80.808270662818643
 20
174.85234348718129
 30
0.0
  0
VERTEX
  5
1FAD
  8
0
 10
80.825871530460958
 20
174.82810522644621
 30
0.0
  0
VERTEX
  5
1FAE
  8
0
 10
80.860481691191694
 20
174.77954278102951
 30
0.0
  0
VERTEX
  5
1FAF
  8
0
 10
80.894298082953583
 20
174.73087221970059
 30
0.0
  0
VERTEX
  5
1FB0
  8
0
 10
80.910906722781931
 20
174.70649880854231
 30
0.0
  0
VERTEX
  5
1FB1
  8
0
 10
80.927314639321594
 20
174.68210126107061
 30
0.0
  0
VERTEX
  5
1FB2
  8
0
 10
80.959525211898097
 20
174.63323760080681
 30
0.0
  0
VERTEX
  5
1FB3
  8
0
 10
80.990904723796234
 20
174.58431868646349
 30
0.0
  0
VERTEX
  5
1FB4
  8
0
 10
81.006270924621745
 20
174.55985760978481
 30
0.0
  0
VERTEX
  5
1FB5
  8
0
 10
81.021420764477384
 20
174.53539712392001
 30
0.0
  0
VERTEX
  5
1FB6
  8
0
 10
81.051069649969904
 20
174.48648251360589
 30
0.0
  0
VERTEX
  5
1FB7
  8
0
 10
81.079847959268477
 20
174.4375839905934
 30
0.0
  0
VERTEX
  5
1FB8
  8
0
 10
81.10775226997896
 20
174.38871061871029
 30
0.0
  0
VERTEX
  5
1FB9
  8
0
 10
81.134779152296232
 20
174.33987138700209
 30
0.0
  0
VERTEX
  5
1FBA
  8
0
 10
81.160925162524336
 20
174.29107520652721
 30
0.0
  0
VERTEX
  5
1FBB
  8
0
 10
81.173666758957381
 20
174.26669602317429
 30
0.0
  0
VERTEX
  5
1FBC
  8
0
 10
81.186186836156125
 20
174.24233090750661
 30
0.0
  0
VERTEX
  5
1FBD
  8
0
 10
81.210560680531785
 20
174.19364723684731
 30
0.0
  0
VERTEX
  5
1FBE
  8
0
 10
81.234043167097525
 20
174.14503285605329
 30
0.0
  0
VERTEX
  5
1FBF
  8
0
 10
81.256630723289504
 20
174.0964963395412
 30
0.0
  0
VERTEX
  5
1FC0
  8
0
 10
81.278319724068751
 20
174.04804617336941
 30
0.0
  0
VERTEX
  5
1FC1
  8
0
 10
81.299106483136995
 20
173.99969075439111
 30
0.0
  0
VERTEX
  5
1FC2
  8
0
 10
81.309160351083335
 20
173.97555117461249
 30
0.0
  0
VERTEX
  5
1FC3
  8
0
 10
81.318987243864058
 20
173.95143838983671
 30
0.0
  0
VERTEX
  5
1FC4
  8
0
 10
81.337958169960757
 20
173.90329729732781
 30
0.0
  0
VERTEX
  5
1FC5
  8
0
 10
81.356015335932966
 20
173.85527560532461
 30
0.0
  0
VERTEX
  5
1FC6
  8
0
 10
81.373154717353771
 20
173.80738135400171
 30
0.0
  0
VERTEX
  5
1FC7
  8
0
 10
81.389372180993803
 20
173.7596224965468
 30
0.0
  0
VERTEX
  5
1FC8
  8
0
 10
81.404663415809409
 20
173.71200709018549
 30
0.0
  0
VERTEX
  5
1FC9
  8
0
 10
81.411956576487455
 20
173.6882680460493
 30
0.0
  0
VERTEX
  5
1FCA
  8
0
 10
81.419010992177604
 20
173.66458745842959
 30
0.0
  0
VERTEX
  5
1FCB
  8
0
 10
81.432403532039302
 20
173.61740550085119
 30
0.0
  0
VERTEX
  5
1FCC
  8
0
 10
81.444840889460977
 20
173.5704688306003
 30
0.0
  0
VERTEX
  5
1FCD
  8
0
 10
81.456322864010815
 20
173.5237849271933
 30
0.0
  0
VERTEX
  5
1FCE
  8
0
 10
81.466849197909596
 20
173.47736113561331
 30
0.0
  0
VERTEX
  5
1FCF
  8
0
 10
81.47641957317262
 20
173.4312046655711
 30
0.0
  0
VERTEX
  5
1FD0
  8
0
 10
81.480846159781777
 20
173.40822889202531
 30
0.0
  0
VERTEX
  5
1FD1
  8
0
 10
81.485033608762024
 20
173.38532259091801
 30
0.0
  0
VERTEX
  5
1FD2
  8
0
 10
81.492690857767684
 20
173.3397218492031
 30
0.0
  0
VERTEX
  5
1FD3
  8
0
 10
81.499390804635595
 20
173.2944092413652
 30
0.0
  0
VERTEX
  5
1FD4
  8
0
 10
81.505132862460698
 20
173.24939143154819
 30
0.0
  0
VERTEX
  5
1FD5
  8
0
 10
81.509916370360145
 20
173.2046749470299
 30
0.0
  0
VERTEX
  5
1FD6
  8
0
 10
81.513740590942689
 20
173.1602661782519
 30
0.0
  0
VERTEX
  5
1FD7
  8
0
 10
81.515292716536806
 20
173.1381791468902
 30
0.0
  0
VERTEX
  5
1FD8
  8
0
 10
81.516604707887723
 20
173.1161713789391
 30
0.0
  0
VERTEX
  5
1FD9
  8
0
 10
81.518507823647838
 20
173.07239666629491
 30
0.0
  0
VERTEX
  5
1FDA
  8
0
 10
81.519448957284396
 20
173.02894802126141
 30
0.0
  0
VERTEX
  5
1FDB
  8
0
 10
81.519558450960915
 20
173.00734780595971
 30
0.0
  0
VERTEX
  5
1FDC
  8
0
 10
81.519427042448967
 20
172.9858312888301
 30
0.0
  0
VERTEX
  5
1FDD
  8
0
 10
81.518440925516686
 20
172.94305217839121
 30
0.0
  0
VERTEX
  5
1FDE
  8
0
 10
81.516489363880609
 20
172.90061626410889
 30
0.0
  0
VERTEX
  5
1FDF
  8
0
 10
81.515151128270404
 20
172.87952871057229
 30
0.0
  0
VERTEX
  5
1FE0
  8
0
 10
81.513571024411576
 20
172.85852898530959
 30
0.0
  0
VERTEX
  5
1FE1
  8
0
 10
81.509684482088574
 20
172.81679564687281
 30
0.0
  0
VERTEX
  5
1FE2
  8
0
 10
81.504828220946763
 20
172.7754214361556
 30
0.0
  0
VERTEX
  5
1FE3
  8
0
 10
81.499006502048928
 20
172.7344493628903
 30
0.0
  0
VERTEX
  5
1FE4
  8
0
 10
81.492226496132616
 20
172.6939175147663
 30
0.0
  0
VERTEX
  5
1FE5
  8
0
 10
81.484491479207406
 20
172.65382810544389
 30
0.0
  0
VERTEX
  5
1FE6
  8
0
 10
81.480266830405697
 20
172.63394997603771
 30
0.0
  0
VERTEX
  5
1FE7
  8
0
 10
81.475804600072081
 20
172.6141832351407
 30
0.0
  0
VERTEX
  5
1FE8
  8
0
 10
81.466168886921537
 20
172.57498489218989
 30
0.0
  0
VERTEX
  5
1FE9
  8
0
 10
81.455587254103648
 20
172.53623495426231
 30
0.0
  0
VERTEX
  5
1FEA
  8
0
 10
81.444062508994065
 20
172.4979351892645
 30
0.0
  0
VERTEX
  5
1FEB
  8
0
 10
81.431597358958015
 20
172.4600872559275
 30
0.0
  0
VERTEX
  5
1FEC
  8
0
 10
81.418194418365715
 20
172.42269270410179
 30
0.0
  0
VERTEX
  5
1FED
  8
0
 10
81.411142069905452
 20
172.40416590082179
 30
0.0
  0
VERTEX
  5
1FEE
  8
0
 10
81.403856215630412
 20
172.3857529747757
 30
0.0
  0
VERTEX
  5
1FEF
  8
0
 10
81.388585200235525
 20
172.34926939983629
 30
0.0
  0
VERTEX
  5
1FF0
  8
0
 10
81.37238374971929
 20
172.31324320159339
 30
0.0
  0
VERTEX
  5
1FF1
  8
0
 10
81.355254176584992
 20
172.2776754920867
 30
0.0
  0
VERTEX
  5
1FF2
  8
0
 10
81.337198735105744
 20
172.2425672721983
 30
0.0
  0
VERTEX
  5
1FF3
  8
0
 10
81.318219627993017
 20
172.2079194305941
 30
0.0
  0
VERTEX
  5
1FF4
  8
0
 10
81.308384375676553
 20
172.1907683983782
 30
0.0
  0
VERTEX
  5
1FF5
  8
0
 10
81.298319012898844
 20
172.17373274251671
 30
0.0
  0
VERTEX
  5
1FF6
  8
0
 10
81.277499008723396
 20
172.14000786845321
 30
0.0
  0
VERTEX
  5
1FF7
  8
0
 10
81.255761701700067
 20
172.10674535270289
 30
0.0
  0
VERTEX
  5
1FF8
  8
0
 10
81.233109151231474
 20
172.07394562186781
 30
0.0
  0
VERTEX
  5
1FF9
  8
0
 10
81.209543395451206
 20
172.04160898329059
 30
0.0
  0
VERTEX
  5
1FFA
  8
0
 10
81.185066456488116
 20
172.00973562346331
 30
0.0
  0
VERTEX
  5
1FFB
  8
0
 10
81.172486922075564
 20
171.99397269792129
 30
0.0
  0
VERTEX
  5
1FFC
  8
0
 10
81.159681316124306
 20
171.9783267776865
 30
0.0
  0
VERTEX
  5
1FFD
  8
0
 10
81.133424550980578
 20
171.94742192022221
 30
0.0
  0
VERTEX
  5
1FFE
  8
0
 10
81.106318454794973
 20
171.9170372996945
 30
0.0
  0
VERTEX
  5
1FFF
  8
0
 10
81.078369089968533
 20
171.88716874411639
 30
0.0
  0
VERTEX
  5
2000
  8
0
 10
81.049582385278654
 20
171.85781207532571
 30
0.0
  0
VERTEX
  5
2001
  8
0
 10
81.019964148564284
 20
171.82896310910351
 30
0.0
  0
VERTEX
  5
2002
  8
0
 10
81.00484499062361
 20
171.81472770517371
 30
0.0
  0
VERTEX
  5
2003
  8
0
 10
80.989520079068484
 20
171.800617654912
 30
0.0
  0
VERTEX
  5
2004
  8
0
 10
80.958255779399622
 20
171.7727715152952
 30
0.0
  0
VERTEX
  5
2005
  8
0
 10
80.926176767077934
 20
171.7454204849881
 30
0.0
  0
VERTEX
  5
2006
  8
0
 10
80.909833447372876
 20
171.7319293192692
 30
0.0
  0
VERTEX
  5
2007
  8
0
 10
80.893288485637854
 20
171.71856034977779
 30
0.0
  0
VERTEX
  5
2008
  8
0
 10
80.859596315257704
 20
171.6921868851577
 30
0.0
  0
VERTEX
  5
2009
  8
0
 10
80.825105582895276
 20
171.66629585481641
 30
0.0
  0
VERTEX
  5
200A
  8
0
 10
80.807562408470744
 20
171.65352992502349
 30
0.0
  0
VERTEX
  5
200B
  8
0
 10
80.789821571907737
 20
171.6408830089978
 30
0.0
  0
VERTEX
  5
200C
  8
0
 10
80.75374953114067
 20
171.61594408277199
 30
0.0
  0
VERTEX
  5
200D
  8
0
 10
80.716894683471708
 20
171.591474794249
 30
0.0
  0
VERTEX
  5
200E
  8
0
 10
80.679262233800159
 20
171.56747084276881
 30
0.0
  0
VERTEX
  5
200F
  8
0
 10
80.640857376474514
 20
171.54392790709841
 30
0.0
  0
VERTEX
  5
2010
  8
0
 10
80.601685302154067
 20
171.5208416436619
 30
0.0
  0
VERTEX
  5
2011
  8
0
 10
80.581813181253906
 20
171.50946840013239
 30
0.0
  0
VERTEX
  5
2012
  8
0
 10
80.561751204104155
 20
171.4982076848315
 30
0.0
  0
VERTEX
  5
2013
  8
0
 10
80.521060283924953
 20
171.47602163730019
 30
0.0
  0
VERTEX
  5
2014
  8
0
 10
80.479617756719506
 20
171.45427908055791
 30
0.0
  0
VERTEX
  5
2015
  8
0
 10
80.437428855705321
 20
171.4329755654901
 30
0.0
  0
VERTEX
  5
2016
  8
0
 10
80.394498836279411
 20
171.41210661311291
 30
0.0
  0
VERTEX
  5
2017
  8
0
 10
80.350832979545714
 20
171.39166771346049
 30
0.0
  0
VERTEX
  5
2018
  8
0
 10
80.328725770312175
 20
171.38160811533311
 30
0.0
  0
VERTEX
  5
2019
  8
0
 10
80.306436595317734
 20
171.3716543246359
 30
0.0
  0
VERTEX
  5
201A
  8
0
 10
80.261315024609587
 20
171.35206187203261
 30
0.0
  0
VERTEX
  5
201B
  8
0
 10
80.215473641630254
 20
171.3328857477386
 30
0.0
  0
VERTEX
  5
201C
  8
0
 10
80.192284709438013
 20
171.32345235952269
 30
0.0
  0
SEQEND
  5
201D
  8
0
  0
POLYLINE
  5
1DB2
  8
0
 66
     1
 10
0.0
 20
0.0
 30
0.0
  0
VERTEX
  5
201E
  8
0
 10
80.192284709438013
 20
171.32345235952269
 30
0.0
  0
VERTEX
  5
201F
  8
0
 10
80.051328501779764
 20
171.26926873555371
 30
0.0
  0
VERTEX
  5
2020
  8
0
 10
79.756099097583046
 20
171.1705921859035
 30
0.0
  0
VERTEX
  5
2021
  8
0
 10
79.444780119115819
 20
171.08396514356841
 30
0.0
  0
VERTEX
  5
2022
  8
0
 10
79.283708945484591
 20
171.04485599573269
 30
0.0
  0
VERTEX
  5
2023
  8
0
 10
79.119362285272246
 20
171.0083880193682
 30
0.0
  0
VERTEX
  5
2024
  8
0
 10
78.78184622885874
 20
170.9429054979928
 30
0.0
  0
VERTEX
  5
2025
  8
0
 10
78.433215284620417
 20
170.88644659798359
 30
0.0
  0
VERTEX
  5
2026
  8
0
 10
78.073959362873097
 20
170.8380149128833
 30
0.0
  0
VERTEX
  5
2027
  8
0
 10
77.705327697068299
 20
170.79683200941761
 30
0.0
  0
VERTEX
  5
2028
  8
0
 10
77.328567386231384
 20
170.76216694229959
 30
0.0
  0
VERTEX
  5
2029
  8
0
 10
77.137530223197416
 20
170.74706202893401
 30
0.0
  0
VERTEX
  5
202A
  8
0
 10
76.944931577699947
 20
170.73333178447939
 30
0.0
  0
VERTEX
  5
202B
  8
0
 10
76.554460436612985
 20
170.7096123057033
 30
0.0
  0
VERTEX
  5
202C
  8
0
 10
76.15255812751559
 20
170.69018961162669
 30
0.0
  0
VERTEX
  5
202D
  8
0
 10
75.738879540598532
 20
170.67464086036989
 30
0.0
  0
VERTEX
  5
202E
  8
0
 10
75.31369923910637
 20
170.6625896985781
 30
0.0
  0
VERTEX
  5
202F
  8
0
 10
74.877287470446277
 20
170.6536644918643
 30
0.0
  0
VERTEX
  5
2030
  8
0
 10
74.654953320584127
 20
170.6502594482867
 30
0.0
  0
VERTEX
  5
2031
  8
0
 10
74.429911214150934
 20
170.6474990416128
 30
0.0
  0
VERTEX
  5
2032
  8
0
 10
73.971835020280935
 20
170.6437335129794
 30
0.0
  0
VERTEX
  5
2033
  8
0
 10
73.503321694226599
 20
170.64201556486319
 30
0.0
  0
VERTEX
  5
2034
  8
0
 10
73.265232900191563
 20
170.6418166979096
 30
0.0
  0
SEQEND
  5
2035
  8
0
  0
POLYLINE
  5
1DB3
  8
0
 66
     1
 10
0.0
 20
0.0
 30
0.0
  0
VERTEX
  5
2036
  8
0
 10
73.265232900191563
 20
170.6418166979096
 30
0.0
  0
VERTEX
  5
2037
  8
0
 10
73.106672303312394
 20
170.64189833980879
 30
0.0
  0
VERTEX
  5
2038
  8
0
 10
72.786305134335294
 20
170.6425159096091
 30
0.0
  0
VERTEX
  5
2039
  8
0
 10
72.461672527054304
 20
170.64366136424019
 30
0.0
  0
VERTEX
  5
203A
  8
0
 10
72.297780135119808
 20
170.64440343680801
 30
0.0
  0
VERTEX
  5
203B
  8
0
 10
72.132849531690738
 20
170.6452434743064
 30
0.0
  0
VERTEX
  5
203C
  8
0
 10
71.799911271484859
 20
170.64717370718051
 30
0.0
  0
VERTEX
  5
203D
  8
0
 10
71.462933006204821
 20
170.64936648721209
 30
0.0
  0
VERTEX
  5
203E
  8
0
 10
71.122954339675843
 20
170.6517326221589
 30
0.0
  0
VERTEX
  5
203F
  8
0
 10
70.781718881831807
 20
170.65418097465309
 30
0.0
  0
VERTEX
  5
2040
  8
0
 10
70.439387943497593
 20
170.65663736999511
 30
0.0
  0
VERTEX
  5
2041
  8
0
 10
70.267853681225233
 20
170.65784741158089
 30
0.0
  0
VERTEX
  5
2042
  8
0
 10
70.096095937450514
 20
170.65903494049351
 30
0.0
  0
VERTEX
  5
2043
  8
0
 10
69.751977103300305
 20
170.66131386100869
 30
0.0
  0
VERTEX
  5
2044
  8
0
 10
69.407165607373599
 20
170.66342127651561
 30
0.0
  0
VERTEX
  5
2045
  8
0
 10
69.06179561302099
 20
170.66531123881001
 30
0.0
  0
VERTEX
  5
2046
  8
0
 10
68.716001323714863
 20
170.66694464990701
 30
0.0
  0
VERTEX
  5
2047
  8
0
 10
68.369917000950181
 20
170.668289209942
 30
0.0
  0
VERTEX
  5
2048
  8
0
 10
68.196808048685966
 20
170.66884492375161
 30
0.0
  0
VERTEX
  5
2049
  8
0
 10
68.023676958656608
 20
170.6693193676447
 30
0.0
  0
VERTEX
  5
204A
  8
0
 10
67.677415535580451
 20
170.67001627170711
 30
0.0
  0
VERTEX
  5
204B
  8
0
 10
67.33115533564694
 20
170.6703677785184
 30
0.0
  0
VERTEX
  5
204C
  8
0
 10
67.157927687725135
 20
170.67041189490209
 30
0.0
  0
SEQEND
  5
204D
  8
0
  0
POLYLINE
  5
1DB4
  8
0
 66
     1
 10
0.0
 20
0.0
 30
0.0
  0
VERTEX
  5
204E
  8
0
 10
67.157927687725135
 20
170.67041189490209
 30
0.0
  0
VERTEX
  5
204F
  8
0
 10
66.984173226537493
 20
170.67036750987629
 30
0.0
  0
VERTEX
  5
2050
  8
0
 10
66.636568137721724
 20
170.6700134249474
 30
0.0
  0
VERTEX
  5
2051
  8
0
 10
66.288945117695221
 20
170.66931126579161
 30
0.0
  0
VERTEX
  5
2052
  8
0
 10
66.115168244815607
 20
170.66883335340191
 30
0.0
  0
VERTEX
  5
2053
  8
0
 10
65.941436520639911
 20
170.66827369452221
 30
0.0
  0
VERTEX
  5
2054
  8
0
 10
65.594174676146451
 20
170.6669200881648
 30
0.0
  0
VERTEX
  5
2055
  8
0
 10
65.247291870288905
 20
170.66527657395781
 30
0.0
  0
VERTEX
  5
2056
  8
0
 10
64.90092034429324
 20
170.66337606514981
 30
0.0
  0
VERTEX
  5
2057
  8
0
 10
64.555192312070119
 20
170.66125829860781
 30
0.0
  0
VERTEX
  5
2058
  8
0
 10
64.210239998075167
 20
170.6589698757829
 30
0.0
  0
VERTEX
  5
2059
  8
0
 10
64.0380960726946
 20
170.6577781194631
 30
0.0
  0
VERTEX
  5
205A
  8
0
 10
63.8661956971983
 20
170.6565643088243
 30
0.0
  0
VERTEX
  5
205B
  8
0
 10
63.523191858668099
 20
170.65410207388379
 30
0.0
  0
VERTEX
  5
205C
  8
0
 10
63.181481737351191
 20
170.65165152946409
 30
0.0
  0
VERTEX
  5
205D
  8
0
 10
62.842895819485527
 20
170.6492986311855
 30
0.0
  0
VERTEX
  5
205E
  8
0
 10
62.508084204354191
 20
170.6471250720511
 30
0.0
  0
VERTEX
  5
205F
  8
0
 10
62.177139414026669
 20
170.64521213292309
 30
0.0
  0
VERTEX
  5
2060
  8
0
 10
62.013146026543268
 20
170.64437970696059
 30
0.0
  0
VERTEX
  5
2061
  8
0
 10
61.85015409801678
 20
170.64364439568081
 30
0.0
  0
VERTEX
  5
2062
  8
0
 10
61.527221017781471
 20
170.64250944533649
 30
0.0
  0
VERTEX
  5
2063
  8
0
 10
61.20843302570136
 20
170.6418975811448
 30
0.0
  0
VERTEX
  5
2064
  8
0
 10
61.05062247269916
 20
170.6418166979096
 30
0.0
  0
SEQEND
  5
2065
  8
0
  0
POLYLINE
  5
1DB5
  8
0
 66
     1
 10
0.0
 20
0.0
 30
0.0
  0
VERTEX
  5
2066
  8
0
 10
61.05062247269916
 20
170.6418166979096
 30
0.0
  0
VERTEX
  5
2067
  8
0
 10
60.830078391581203
 20
170.64198675702809
 30
0.0
  0
VERTEX
  5
2068
  8
0
 10
60.395500237580279
 20
170.64344823127971
 30
0.0
  0
VERTEX
  5
2069
  8
0
 10
59.969818767544318
 20
170.646632789969
 30
0.0
  0
VERTEX
  5
206A
  8
0
 10
59.760395490156093
 20
170.64895808422349
 30
0.0
  0
VERTEX
  5
206B
  8
0
 10
59.553293779555922
 20
170.65181899863819
 30
0.0
  0
VERTEX
  5
206C
  8
0
 10
59.146184644185951
 20
170.65928999382149
 30
0.0
  0
VERTEX
  5
206D
  8
0
 10
58.748750098010298
 20
170.66933224439609
 30
0.0
  0
VERTEX
  5
206E
  8
0
 10
58.361248051856187
 20
170.68223440381621
 30
0.0
  0
VERTEX
  5
206F
  8
0
 10
57.983935429787209
 20
170.69828626600469
 30
0.0
  0
VERTEX
  5
2070
  8
0
 10
57.617068160682663
 20
170.71777783453129
 30
0.0
  0
VERTEX
  5
2071
  8
0
 10
57.43774877570911
 20
170.7288963345483
 30
0.0
  0
VERTEX
  5
2072
  8
0
 10
57.261350883019702
 20
170.74096624318861
 30
0.0
  0
VERTEX
  5
2073
  8
0
 10
56.917403832330528
 20
170.76808841348239
 30
0.0
  0
VERTEX
  5
2074
  8
0
 10
56.585395692633369
 20
170.79939668047689
 30
0.0
  0
VERTEX
  5
2075
  8
0
 10
56.265495480842503
 20
170.8351367978116
 30
0.0
  0
VERTEX
  5
2076
  8
0
 10
55.957872690336501
 20
170.875547613241
 30
0.0
  0
VERTEX
  5
2077
  8
0
 10
55.662697540393197
 20
170.9208609177079
 30
0.0
  0
VERTEX
  5
2078
  8
0
 10
55.519831319106352
 20
170.94542651434989
 30
0.0
  0
VERTEX
  5
2079
  8
0
 10
55.380141385693769
 20
170.97130148670809
 30
0.0
  0
VERTEX
  5
207A
  8
0
 10
55.110377352394949
 20
171.0270873311872
 30
0.0
  0
VERTEX
  5
207B
  8
0
 10
54.853581280153598
 20
171.08843017012839
 30
0.0
  0
VERTEX
  5
207C
  8
0
 10
54.730102241125053
 20
171.12125007115631
 30
0.0
  0
SEQEND
  5
207D
  8
0
  0
POLYLINE
  5
1DB6
  8
0
 66
     1
 10
0.0
 20
0.0
 30
0.0
  0
VERTEX
  5
207E
  8
0
 10
54.730102241125053
 20
171.12125007115631
 30
0.0
  0
VERTEX
  5
207F
  8
0
 10
54.529105533647851
 20
171.17938633014799
 30
0.0
  0
VERTEX
  5
2080
  8
0
 10
54.140591581277931
 20
171.30991971223361
 30
0.0
  0
VERTEX
  5
2081
  8
0
 10
53.776080312095473
 20
171.46056551672231
 30
0.0
  0
VERTEX
  5
2082
  8
0
 10
53.605088270926331
 20
171.54382593328521
 30
0.0
  0
VERTEX
  5
2083
  8
0
 10
53.577412416821907
 20
171.55823277947741
 30
0.0
  0
VERTEX
  5
2084
  8
0
 10
53.52280357083896
 20
171.5875070410687
 30
0.0
  0
VERTEX
  5
2085
  8
0
 10
53.469212078870783
 20
171.61740044440981
 30
0.0
  0
VERTEX
  5
2086
  8
0
 10
53.442807448717417
 20
171.6325814951503
 30
0.0
  0
VERTEX
  5
2087
  8
0
 10
53.416669154498827
 20
171.64791968053319
 30
0.0
  0
VERTEX
  5
2088
  8
0
 10
53.365208459964428
 20
171.67907006005419
 30
0.0
  0
VERTEX
  5
2089
  8
0
 10
53.314863740851251
 20
171.71085673417139
 30
0.0
  0
VERTEX
  5
208A
  8
0
 10
53.265668691024018
 20
171.7432847583415
 30
0.0
  0
VERTEX
  5
208B
  8
0
 10
53.217656938654052
 20
171.77635908930651
 30
0.0
  0
VERTEX
  5
208C
  8
0
 10
53.170862031007118
 20
171.8100845824643
 30
0.0
  0
VERTEX
  5
208D
  8
0
 10
53.147931351330669
 20
171.82719300392381
 30
0.0
  0
VERTEX
  5
208E
  8
0
 10
53.125317417999099
 20
171.84446598971499
 30
0.0
  0
VERTEX
  5
208F
  8
0
 10
53.081056434554107
 20
171.8795079579385
 30
0.0
  0
VERTEX
  5
2090
  8
0
 10
53.038112281833833
 20
171.9152150282776
 30
0.0
  0
VERTEX
  5
2091
  8
0
 10
52.996518007447889
 20
171.95159163642009
 30
0.0
  0
VERTEX
  5
2092
  8
0
 10
52.956306484802781
 20
171.98864211409409
 30
0.0
  0
VERTEX
  5
2093
  8
0
 10
52.917510391800192
 20
172.02637069200469
 30
0.0
  0
VERTEX
  5
2094
  8
0
 10
52.898653284467457
 20
172.04549056411909
 30
0.0
  0
VERTEX
  5
2095
  8
0
 10
52.880162189154419
 20
172.06478150445409
 30
0.0
  0
VERTEX
  5
2096
  8
0
 10
52.844294098663568
 20
172.10387859589341
 30
0.0
  0
VERTEX
  5
2097
  8
0
 10
52.809938081835917
 20
172.14366592965791
 30
0.0
  0
VERTEX
  5
2098
  8
0
 10
52.777125819342643
 20
172.184147399127
 30
0.0
  0
VERTEX
  5
2099
  8
0
 10
52.745888687878271
 20
172.22532684693331
 30
0.0
  0
VERTEX
  5
209A
  8
0
 10
52.716257719726059
 20
172.26720811764679
 30
0.0
  0
VERTEX
  5
209B
  8
0
 10
52.702054172705452
 20
172.28841310754251
 30
0.0
  0
VERTEX
  5
209C
  8
0
 10
52.688263691108943
 20
172.3097949309055
 30
0.0
  0
VERTEX
  5
209D
  8
0
 10
52.661937154485081
 20
172.353090784866
 30
0.0
  0
VERTEX
  5
209E
  8
0
 10
52.637308394309571
 20
172.39709895156579
 30
0.0
  0
VERTEX
  5
209F
  8
0
 10
52.614407380676539
 20
172.4418224774094
 30
0.0
  0
VERTEX
  5
20A0
  8
0
 10
52.593263723036443
 20
172.48726418756419
 30
0.0
  0
VERTEX
  5
20A1
  8
0
 10
52.5739066249742
 20
172.53342669472229
 30
0.0
  0
VERTEX
  5
20A2
  8
0
 10
52.564907040264814
 20
172.55677900876771
 30
0.0
  0
VERTEX
  5
20A3
  8
0
 10
52.556364841142802
 20
172.58031241261281
 30
0.0
  0
VERTEX
  5
20A4
  8
0
 10
52.540666637532183
 20
172.62792357456931
 30
0.0
  0
VERTEX
  5
20A5
  8
0
 10
52.526839756302309
 20
172.67626225733619
 30
0.0
  0
VERTEX
  5
20A6
  8
0
 10
52.514911386421431
 20
172.72533041016669
 30
0.0
  0
VERTEX
  5
20A7
  8
0
 10
52.504908141308931
 20
172.77512988910411
 30
0.0
  0
VERTEX
  5
20A8
  8
0
 10
52.49685604459296
 20
172.82566249616951
 30
0.0
  0
VERTEX
  5
20A9
  8
0
 10
52.493569646526282
 20
172.8512042817664
 30
0.0
  0
VERTEX
  5
20AA
  8
0
 10
52.490780524945528
 20
172.87693002299449
 30
0.0
  0
VERTEX
  5
20AB
  8
0
 10
52.486706420755702
 20
172.92893429826111
 30
0.0
  0
VERTEX
  5
20AC
  8
0
 10
52.484657995152808
 20
172.9816772381356
 30
0.0
  0
VERTEX
  5
20AD
  8
0
 10
52.484400842833338
 20
173.00832634291109
 30
0.0
  0
VERTEX
  5
20AE
  8
0
 10
52.484657995152808
 20
173.0351104881386
 30
0.0
  0
VERTEX
  5
20AF
  8
0
 10
52.486706420755702
 20
173.08892916501921
 30
0.0
  0
VERTEX
  5
20B0
  8
0
 10
52.490780524945528
 20
173.1430731318475
 30
0.0
  0
VERTEX
  5
20B1
  8
0
 10
52.493569646526282
 20
173.1702638258437
 30
0.0
  0
VERTEX
  5
20B2
  8
0
 10
52.49685604459296
 20
173.19753188338581
 30
0.0
  0
VERTEX
  5
20B3
  8
0
 10
52.504908141308931
 20
173.25229467549201
 30
0.0
  0
VERTEX
  5
20B4
  8
0
 10
52.514911386421431
 20
173.3073505609652
 30
0.0
  0
VERTEX
  5
20B5
  8
0
 10
52.526839756302309
 20
173.36268842768331
 30
0.0
  0
VERTEX
  5
20B6
  8
0
 10
52.540666637532183
 20
173.4182970379639
 30
0.0
  0
VERTEX
  5
20B7
  8
0
 10
52.556364841142802
 20
173.4741650681257
 30
0.0
  0
VERTEX
  5
20B8
  8
0
 10
52.56490704026475
 20
173.50219281307909
 30
0.0
  0
VERTEX
  5
20B9
  8
0
 10
52.5739066249742
 20
173.53028114731049
 30
0.0
  0
VERTEX
  5
20BA
  8
0
 10
52.593263723036443
 20
173.58663389473139
 30
0.0
  0
VERTEX
  5
20BB
  8
0
 10
52.614407380676539
 20
173.6432119546387
 30
0.0
  0
VERTEX
  5
20BC
  8
0
 10
52.637308394309571
 20
173.7000040284361
 30
0.0
  0
VERTEX
  5
20BD
  8
0
 10
52.661937154485081
 20
173.75699890351669
 30
0.0
  0
VERTEX
  5
20BE
  8
0
 10
52.688263691108943
 20
173.8141854785334
 30
0.0
  0
VERTEX
  5
20BF
  8
0
 10
52.702054172705452
 20
173.8428472201484
 30
0.0
  0
VERTEX
  5
20C0
  8
0
 10
52.716257719726059
 20
173.871552784942
 30
0.0
  0
VERTEX
  5
20C1
  8
0
 10
52.745888687878271
 20
173.92909000478051
 30
0.0
  0
VERTEX
  5
20C2
  8
0
 10
52.7771258193427
 20
173.9867864823357
 30
0.0
  0
VERTEX
  5
20C3
  8
0
 10
52.809938081835917
 20
174.04463160353239
 30
0.0
  0
VERTEX
  5
20C4
  8
0
 10
52.844294098663568
 20
174.10261461526861
 30
0.0
  0
VERTEX
  5
20C5
  8
0
 10
52.880162189154419
 20
174.1607246924016
 30
0.0
  0
VERTEX
  5
20C6
  8
0
 10
52.898653284467457
 20
174.18982398420081
 30
0.0
  0
VERTEX
  5
20C7
  8
0
 10
52.917510391800192
 20
174.2189509622213
 30
0.0
  0
VERTEX
  5
20C8
  8
0
 10
52.956306484802781
 20
174.27728251961199
 30
0.0
  0
VERTEX
  5
20C9
  8
0
 10
52.996518007447889
 20
174.3357084403448
 30
0.0
  0
VERTEX
  5
20CA
  8
0
 10
53.038112281833833
 20
174.394217792511
 30
0.0
  0
VERTEX
  5
20CB
  8
0
 10
53.081056434554107
 20
174.45279964614309
 30
0.0
  0
VERTEX
  5
20CC
  8
0
 10
53.125317417999099
 20
174.51144308110719
 30
0.0
  0
VERTEX
  5
20CD
  8
0
 10
53.147931351330669
 20
174.54078448330989
 30
0.0
  0
VERTEX
  5
20CE
  8
0
 10
53.170862031007118
 20
174.5701371933722
 30
0.0
  0
VERTEX
  5
20CF
  8
0
 10
53.217656938654052
 20
174.62887109978081
 30
0.0
  0
VERTEX
  5
20D0
  8
0
 10
53.265668691024018
 20
174.6876339414564
 30
0.0
  0
VERTEX
  5
20D1
  8
0
 10
53.314863740851251
 20
174.74641488598439
 30
0.0
  0
VERTEX
  5
20D2
  8
0
 10
53.365208459964428
 20
174.8052031285105
 30
0.0
  0
VERTEX
  5
20D3
  8
0
 10
53.416669154498827
 20
174.86398789189039
 30
0.0
  0
VERTEX
  5
20D4
  8
0
 10
53.442807448717417
 20
174.89337560847099
 30
0.0
  0
VERTEX
  5
20D5
  8
0
 10
53.469212078870783
 20
174.92275842602521
 30
0.0
  0
VERTEX
  5
20D6
  8
0
 10
53.52280357083896
 20
174.98150413926899
 30
0.0
  0
VERTEX
  5
20D7
  8
0
 10
53.577412416821907
 20
175.04021709096949
 30
0.0
  0
VERTEX
  5
20D8
  8
0
 10
53.605088270926331
 20
175.06955841541739
 30
0.0
  0
VERTEX
  5
20D9
  8
0
 10
53.776080312095473
 20
175.24531204677999
 30
0.0
  0
VERTEX
  5
20DA
  8
0
 10
54.140591581277931
 20
175.5944069473301
 30
0.0
  0
VERTEX
  5
20DB
  8
0
 10
54.529105533647851
 20
175.93837140518809
 30
0.0
  0
VERTEX
  5
20DC
  8
0
 10
54.730102241125053
 20
176.10770100441411
 30
0.0
  0
SEQEND
  5
20DD
  8
0
  0
POLYLINE
  5
1DB7
  8
0
 66
     1
 10
0.0
 20
0.0
 30
0.0
  0
VERTEX
  5
20DE
  8
0
 10
54.730102241125053
 20
176.10770100441411
 30
0.0
  0
VERTEX
  5
20DF
  8
0
 10
54.771841754098709
 20
176.14216478856019
 30
0.0
  0
VERTEX
  5
20E0
  8
0
 10
54.856129205901198
 20
176.21071329598291
 30
0.0
  0
VERTEX
  5
20E1
  8
0
 10
54.941469033088083
 20
176.2787481770348
 30
0.0
  0
VERTEX
  5
20E2
  8
0
 10
54.984524069960742
 20
176.31256994627421
 30
0.0
  0
VERTEX
  5
20E3
  8
0
 10
55.027830804902692
 20
176.34625964491269
 30
0.0
  0
VERTEX
  5
20E4
  8
0
 10
55.115184279700991
 20
176.41323799082539
 30
0.0
  0
VERTEX
  5
20E5
  8
0
 10
55.203499364724273
 20
176.47967358707771
 30
0.0
  0
VERTEX
  5
20E6
  8
0
 10
55.519742649853811
 20
176.70778712407221
 30
0.0
  0
VERTEX
  5
20E7
  8
0
 10
56.084738127105773
 20
177.0819612018465
 30
0.0
  0
VERTEX
  5
20E8
  8
0
 10
56.376382051396831
 20
177.26056525526349
 30
0.0
  0
VERTEX
  5
20E9
  8
0
 10
56.673038946576177
 20
177.4332284253185
 30
0.0
  0
VERTEX
  5
20EA
  8
0
 10
57.281715816056931
 20
177.76184741635311
 30
0.0
  0
VERTEX
  5
20EB
  8
0
 10
57.909582994347147
 20
178.06857668259369
 30
0.0
  0
VERTEX
  5
20EC
  8
0
 10
58.553281187558582
 20
178.35282638110871
 30
0.0
  0
VERTEX
  5
20ED
  8
0
 10
59.209453038421941
 20
178.61410067493321
 30
0.0
  0
VERTEX
  5
20EE
  8
0
 10
59.876208868663518
 20
178.85254041137671
 30
0.0
  0
VERTEX
  5
20EF
  8
0
 10
60.217046198111859
 20
178.96452946662089
 30
0.0
  0
VERTEX
  5
20F0
  8
0
 10
60.563587401381028
 20
179.0718239728406
 30
0.0
  0
VERTEX
  5
20F1
  8
0
 10
61.273225990029289
 20
179.27167789429251
 30
0.0
  0
VERTEX
  5
20F2
  8
0
 10
62.004017856727728
 20
179.450812666687
 30
0.0
  0
VERTEX
  5
20F3
  8
0
 10
62.75486200145945
 20
179.6079572108849
 30
0.0
  0
VERTEX
  5
20F4
  8
0
 10
63.52466193058865
 20
179.74185348081059
 30
0.0
  0
VERTEX
  5
20F5
  8
0
 10
64.312323938482507
 20
179.8512494778461
 30
0.0
  0
VERTEX
  5
20F6
  8
0
 10
64.712511610068532
 20
179.89636818269619
 30
0.0
  0
VERTEX
  5
20F7
  8
0
 10
65.116754617835454
 20
179.93489058985111
 30
0.0
  0
VERTEX
  5
20F8
  8
0
 10
65.931412289094965
 20
179.9912277093386
 30
0.0
  0
VERTEX
  5
20F9
  8
0
 10
66.748771707963385
 20
180.0194305307501
 30
0.0
  0
VERTEX
  5
20FA
  8
0
 10
67.157927687725135
 20
180.0229578092335
 30
0.0
  0
SEQEND
  5
20FB
  8
0
  0
POLYLINE
  5
1DB8
  8
0
 66
     1
 10
0.0
 20
0.0
 30
0.0
  0
VERTEX
  5
20FC
  8
0
 10
67.157927687725135
 20
180.0229578092335
 30
0.0
  0
VERTEX
  5
20FD
  8
0
 10
67.585548261875473
 20
180.01910493819489
 30
0.0
  0
VERTEX
  5
20FE
  8
0
 10
68.439916267845319
 20
179.9882887461354
 30
0.0
  0
VERTEX
  5
20FF
  8
0
 10
69.291490358007991
 20
179.92670780219211
 30
0.0
  0
VERTEX
  5
2100
  8
0
 10
69.715690808218255
 20
179.88440613725319
 30
0.0
  0
VERTEX
  5
2101
  8
0
 10
70.1392092036657
 20
179.83436291546909
 30
0.0
  0
VERTEX
  5
2102
  8
0
 10
70.983531381326884
 20
179.71092957986221
 30
0.0
  0
VERTEX
  5
2103
  8
0
 10
71.822233458107462
 20
179.5563052518595
 30
0.0
  0
VERTEX
  5
2104
  8
0
 10
72.652920580700197
 20
179.37048958693819
 30
0.0
  0
VERTEX
  5
2105
  8
0
 10
73.473196980390185
 20
179.15354884777281
 30
0.0
  0
VERTEX
  5
2106
  8
0
 10
74.277079146145638
 20
178.90676739040481
 30
0.0
  0
VERTEX
  5
2107
  8
0
 10
74.66712541399113
 20
178.77412802194519
 30
0.0
  0
VERTEX
  5
2108
  8
0
 10
75.048573713041321
 20
178.6358303524085
 30
0.0
  0
VERTEX
  5
2109
  8
0
 10
75.785172949954131
 20
178.343330831028
 30
0.0
  0
VERTEX
  5
210A
  8
0
 10
76.485862325049141
 20
178.03137257450561
 30
0.0
  0
VERTEX
  5
210B
  8
0
 10
77.149602964918756
 20
177.70199862809929
 30
0.0
  0
VERTEX
  5
210C
  8
0
 10
77.775309056440619
 20
177.35718973147129
 30
0.0
  0
VERTEX
  5
210D
  8
0
 10
78.366179466961853
 20
176.9960542136665
 30
0.0
  0
VERTEX
  5
210E
  8
0
 10
78.6525385103796
 20
176.80668618870021
 30
0.0
  0
VERTEX
  5
210F
  8
0
 10
78.699616533761969
 20
176.7745603873478
 30
0.0
  0
VERTEX
  5
2110
  8
0
 10
78.793177318883352
 20
176.70983703337041
 30
0.0
  0
VERTEX
  5
2111
  8
0
 10
78.885915357211786
 20
176.64449387458319
 30
0.0
  0
VERTEX
  5
2112
  8
0
 10
78.931964971978616
 20
176.61159336417319
 30
0.0
  0
VERTEX
  5
2113
  8
0
 10
78.977795863050858
 20
176.57854212108569
 30
0.0
  0
VERTEX
  5
2114
  8
0
 10
79.068784144280244
 20
176.5119931666425
 30
0.0
  0
VERTEX
  5
2115
  8
0
 10
79.158845587057783
 20
176.44485857221261
 30
0.0
  0
VERTEX
  5
2116
  8
0
 10
79.247945637373562
 20
176.37715004987169
 30
0.0
  0
VERTEX
  5
2117
  8
0
 10
79.336049779190205
 20
176.30887944734269
 30
0.0
  0
VERTEX
  5
2118
  8
0
 10
79.423123508885737
 20
176.24005873337609
 30
0.0
  0
VERTEX
  5
2119
  8
0
 10
79.466263183016565
 20
176.2054458545831
 30
0.0
  0
VERTEX
  5
211A
  8
0
 10
79.509132305707624
 20
176.17069998425629
 30
0.0
  0
VERTEX
  5
211B
  8
0
 10
79.594041597939153
 20
176.10081537173869
 30
0.0
  0
VERTEX
  5
211C
  8
0
 10
79.677816724475576
 20
176.03041715276009
 30
0.0
  0
VERTEX
  5
211D
  8
0
 10
79.760422891512974
 20
175.9595176612973
 30
0.0
  0
VERTEX
  5
211E
  8
0
 10
79.841825124061344
 20
175.88812930278431
 30
0.0
  0
VERTEX
  5
211F
  8
0
 10
79.921988212013389
 20
175.8162645515313
 30
0.0
  0
VERTEX
  5
2120
  8
0
 10
79.961593994766133
 20
175.78015744582439
 30
0.0
  0
VERTEX
  5
2121
  8
0
 10
80.000876650528312
 20
175.7439359516238
 30
0.0
  0
VERTEX
  5
2122
  8
0
 10
80.078454574530895
 20
175.6711561218055
 30
0.0
  0
VERTEX
  5
2123
  8
0
 10
80.154685687178812
 20
175.59793776487439
 30
0.0
  0
VERTEX
  5
2124
  8
0
 10
80.192284709438056
 20
175.56116813479531
 30
0.0
  0
SEQEND
  5
2125
  8
0
  0
POLYLINE
  5
1DB9
  8
0
 66
     1
 10
0.0
 20
0.0
 30
0.0
  0
VERTEX
  5
2126
  8
0
 10
80.192284709438013
 20
134.8114179394849
 30
0.0
  0
VERTEX
  5
2127
  8
0
 10
80.260689254014551
 20
134.83584335894381
 30
0.0
  0
VERTEX
  5
2128
  8
0
 10
80.392728849817729
 20
134.88383514847399
 30
0.0
  0
VERTEX
  5
2129
  8
0
 10
80.518289988303195
 20
134.93050880935621
 30
0.0
  0
VERTEX
  5
212A
  8
0
 10
80.578596945555034
 20
134.95328687594559
 30
0.0
  0
VERTEX
  5
212B
  8
0
 10
80.637231446689114
 20
134.97565825459429
 30
0.0
  0
VERTEX
  5
212C
  8
0
 10
80.749413166950774
 20
135.0190791229866
 30
0.0
  0
VERTEX
  5
212D
  8
0
 10
80.854694994907035
 20
135.06056905702789
 30
0.0
  0
VERTEX
  5
212E
  8
0
 10
80.952935028365289
 20
135.09992782468171
 30
0.0
  0
VERTEX
  5
212F
  8
0
 10
81.043987578822566
 20
135.13695728015421
 30
0.0
  0
VERTEX
  5
2130
  8
0
 10
81.12770056045116
 20
135.17146108522559
 30
0.0
  0
VERTEX
  5
2131
  8
0
 10
81.166696711606065
 20
135.1876807119819
 30
0.0
  0
VERTEX
  5
2132
  8
0
 10
81.203702364607565
 20
135.20315616608519
 30
0.0
  0
VERTEX
  5
2133
  8
0
 10
81.271709439940196
 20
135.23179971136739
 30
0.0
  0
VERTEX
  5
2134
  8
0
 10
81.331655297687632
 20
135.2572483266037
 30
0.0
  0
VERTEX
  5
2135
  8
0
 10
81.383470779568597
 20
135.2793687603473
 30
0.0
  0
VERTEX
  5
2136
  8
0
 10
81.427082429319398
 20
135.2980379270337
 30
0.0
  0
VERTEX
  5
2137
  8
0
 10
81.462410727794008
 20
135.3131428512786
 30
0.0
  0
VERTEX
  5
2138
  8
0
 10
81.476941661507453
 20
135.3193261586654
 30
0.0
  0
VERTEX
  5
2139
  8
0
 10
81.489359048052677
 20
135.32457669496529
 30
0.0
  0
VERTEX
  5
213A
  8
0
 10
81.507790766884796
 20
135.33223082266269
 30
0.0
  0
VERTEX
  5
213B
  8
0
 10
81.517692872808027
 20
135.33606565908201
 30
0.0
  0
VERTEX
  5
213C
  8
0
 10
81.519447291249904
 20
135.33654543008279
 30
0.0
  0
SEQEND
  5
213D
  8
0
  0
POLYLINE
  5
1DBA
  8
0
 66
     1
 10
0.0
 20
0.0
 30
0.0
  0
VERTEX
  5
213E
  8
0
 10
81.519447291249904
 20
135.33654543008279
 30
0.0
  0
VERTEX
  5
213F
  8
0
 10
81.519524267975214
 20
135.3365355347712
 30
0.0
  0
VERTEX
  5
2140
  8
0
 10
81.519546402682295
 20
135.3364563709799
 30
0.0
  0
VERTEX
  5
2141
  8
0
 10
81.519392775533049
 20
135.3362980430669
 30
0.0
  0
VERTEX
  5
2142
  8
0
 10
81.519250049333777
 20
135.3361891939478
 30
0.0
  0
SEQEND
  5
2143
  8
0
  0
POLYLINE
  5
1DBB
  8
0
 66
     1
 10
0.0
 20
0.0
 30
0.0
  0
VERTEX
  5
2144
  8
0
 10
81.519250049333777
 20
135.3361891939478
 30
0.0
  0
VERTEX
  5
2145
  8
0
 10
81.517056864981214
 20
135.33489310508699
 30
0.0
  0
VERTEX
  5
2146
  8
0
 10
81.506350053451172
 20
135.32946037222001
 30
0.0
  0
VERTEX
  5
2147
  8
0
 10
81.487207953783283
 20
135.32025559940229
 30
0.0
  0
VERTEX
  5
2148
  8
0
 10
81.474476426583351
 20
135.31425089934271
 30
0.0
  0
VERTEX
  5
2149
  8
0
 10
81.459666485568107
 20
135.30733232894229
 30
0.0
  0
VERTEX
  5
214A
  8
0
 10
81.423859308907595
 20
135.29080335152929
 30
0.0
  0
VERTEX
  5
214B
  8
0
 10
81.379869760371378
 20
135.2707709669973
 30
0.0
  0
VERTEX
  5
214C
  8
0
 10
81.327772456841714
 20
135.2473467565359
 30
0.0
  0
VERTEX
  5
214D
  8
0
 10
81.267636479175508
 20
135.2206523549055
 30
0.0
  0
VERTEX
  5
214E
  8
0
 10
81.199527031322987
 20
135.19081948808301
 30
0.0
  0
VERTEX
  5
214F
  8
0
 10
81.162501950461206
 20
135.17477004517829
 30
0.0
  0
VERTEX
  5
2150
  8
0
 10
81.123517168036472
 20
135.1579943045634
 30
0.0
  0
VERTEX
  5
2151
  8
0
 10
81.039983036373087
 20
135.12246093106921
 30
0.0
  0
VERTEX
  5
2152
  8
0
 10
80.949202413263492
 20
135.08446341243589
 30
0.0
  0
VERTEX
  5
2153
  8
0
 10
80.851322383785146
 20
135.04419427739691
 30
0.0
  0
VERTEX
  5
2154
  8
0
 10
80.746484277575505
 20
135.00184805663429
 30
0.0
  0
VERTEX
  5
2155
  8
0
 10
80.634825961283937
 20
134.95762145143379
 30
0.0
  0
VERTEX
  5
2156
  8
0
 10
80.576481845832404
 20
134.93486507508021
 30
0.0
  0
VERTEX
  5
2157
  8
0
 10
80.516483778694536
 20
134.9117133520258
 30
0.0
  0
VERTEX
  5
2158
  8
0
 10
80.391594118243844
 20
134.86432469944049
 30
0.0
  0
VERTEX
  5
2159
  8
0
 10
80.260294604687473
 20
134.81565819689791
 30
0.0
  0
VERTEX
  5
215A
  8
0
 10
80.192284709438013
 20
134.79090947670181
 30
0.0
  0
SEQEND
  5
215B
  8
0
  0
POLYLINE
  5
1DBC
  8
0
 66
     1
 10
0.0
 20
0.0
 30
0.0
  0
VERTEX
  5
215C
  8
0
 10
80.192284709438013
 20
134.7909094767017
 30
0.0
  0
VERTEX
  5
215D
  8
0
 10
80.15398879410094
 20
134.77708189373081
 30
0.0
  0
VERTEX
  5
215E
  8
0
 10
80.076336988914576
 20
134.74917052001359
 30
0.0
  0
VERTEX
  5
215F
  8
0
 10
79.997307700910369
 20
134.72093760884701
 30
0.0
  0
VERTEX
  5
2160
  8
0
 10
79.957289873114235
 20
134.7067080370467
 30
0.0
  0
VERTEX
  5
2161
  8
0
 10
79.916943695773341
 20
134.69240699842501
 30
0.0
  0
VERTEX
  5
2162
  8
0
 10
79.835287553287287
 20
134.66360225056329
 30
0.0
  0
VERTEX
  5
2163
  8
0
 10
79.752381726270471
 20
134.6345466576791
 30
0.0
  0
VERTEX
  5
2164
  8
0
 10
79.668268592788138
 20
134.6052632471897
 30
0.0
  0
VERTEX
  5
2165
  8
0
 10
79.582990502009807
 20
134.57577478352201
 30
0.0
  0
VERTEX
  5
2166
  8
0
 10
79.496589814102038
 20
134.5461037679338
 30
0.0
  0
VERTEX
  5
2167
  8
0
 10
79.452981745339798
 20
134.5312067623579
 30
0.0
  0
VERTEX
  5
2168
  8
0
 10
79.409108934559185
 20
134.5162724363532
 30
0.0
  0
VERTEX
  5
2169
  8
0
 10
79.320590343374406
 20
134.48630275544201
 30
0.0
  0
VERTEX
  5
216A
  8
0
 10
79.231076619446355
 20
134.45621641708621
 30
0.0
  0
VERTEX
  5
216B
  8
0
 10
79.14061046060317
 20
134.4260348315091
 30
0.0
  0
VERTEX
  5
216C
  8
0
 10
79.049234699606245
 20
134.3957791191967
 30
0.0
  0
VERTEX
  5
216D
  8
0
 10
78.956992316473873
 20
134.3654701018103
 30
0.0
  0
VERTEX
  5
216E
  8
0
 10
78.910553081432056
 20
134.35029989609041
 30
0.0
  0
VERTEX
  5
216F
  8
0
 10
78.863883380529671
 20
134.33511430663501
 30
0.0
  0
VERTEX
  5
2170
  8
0
 10
78.769861148021846
 20
134.3047032543773
 30
0.0
  0
VERTEX
  5
2171
  8
0
 10
78.674952080423566
 20
134.2742524203791
 30
0.0
  0
VERTEX
  5
2172
  8
0
 10
78.627173807555209
 20
134.25901704355371
 30
0.0
  0
VERTEX
  5
2173
  8
0
 10
78.336193273323317
 20
134.16758755938159
 30
0.0
  0
VERTEX
  5
2174
  8
0
 10
77.734459252053213
 20
133.98591088308621
 30
0.0
  0
VERTEX
  5
2175
  8
0
 10
77.111317733533213
 20
133.80827990412601
 30
0.0
  0
VERTEX
  5
2176
  8
0
 10
76.460193411814814
 20
133.63410479554
 30
0.0
  0
VERTEX
  5
2177
  8
0
 10
75.775053553822147
 20
133.4634604795697
 30
0.0
  0
VERTEX
  5
2178
  8
0
 10
75.057102599740915
 20
133.29855985540181
 30
0.0
  0
VERTEX
  5
2179
  8
0
 10
74.686189893184121
 20
133.21895371824971
 30
0.0
  0
VERTEX
  5
217A
  8
0
 10
74.307511930741782
 20
133.14161076702069
 30
0.0
  0
VERTEX
  5
217B
  8
0
 10
73.527433929163635
 20
132.99481030574179
 30
0.0
  0
VERTEX
  5
217C
  8
0
 10
72.718012128328496
 20
132.86033734441531
 30
0.0
  0
VERTEX
  5
217D
  8
0
 10
71.881839747368701
 20
132.74053484741921
 30
0.0
  0
VERTEX
  5
217E
  8
0
 10
71.03345425606949
 20
132.63885802185189
 30
0.0
  0
VERTEX
  5
217F
  8
0
 10
70.178098080520272
 20
132.556632214838
 30
0.0
  0
VERTEX
  5
2180
  8
0
 10
69.748491420420521
 20
132.5230235188323
 30
0.0
  0
VERTEX
  5
2181
  8
0
 10
69.317964583729861
 20
132.49450339424371
 30
0.0
  0
VERTEX
  5
2182
  8
0
 10
68.455248180040485
 20
132.45290639971739
 30
0.0
  0
VERTEX
  5
2183
  8
0
 10
67.5908803760463
 20
132.43204686497791
 30
0.0
  0
VERTEX
  5
2184
  8
0
 10
67.157927687725135
 20
132.4294323694491
 30
0.0
  0
SEQEND
  5
2185
  8
0
  0
POLYLINE
  5
1DBD
  8
0
 66
     1
 10
0.0
 20
0.0
 30
0.0
  0
VERTEX
  5
2186
  8
0
 10
67.157927687725135
 20
132.4294323694491
 30
0.0
  0
VERTEX
  5
2187
  8
0
 10
66.734123563930154
 20
132.43193754088739
 30
0.0
  0
VERTEX
  5
2188
  8
0
 10
65.886921322271462
 20
132.4519638216708
 30
0.0
  0
VERTEX
  5
2189
  8
0
 10
65.041837057962312
 20
132.49188282179179
 30
0.0
  0
VERTEX
  5
218A
  8
0
 10
64.620680281375826
 20
132.5192112954818
 30
0.0
  0
VERTEX
  5
218B
  8
0
 10
64.200762399882464
 20
132.5513814170219
 30
0.0
  0
VERTEX
  5
218C
  8
0
 10
63.369299905785788
 20
132.62957452225899
 30
0.0
  0
VERTEX
  5
218D
  8
0
 10
62.55812606971682
 20
132.7244099158892
 30
0.0
  0
VERTEX
  5
218E
  8
0
 10
61.768979114329731
 20
132.83423610801771
 30
0.0
  0
VERTEX
  5
218F
  8
0
 10
61.003181698427909
 20
132.9573584050855
 30
0.0
  0
VERTEX
  5
2190
  8
0
 10
60.262058663057083
 20
133.0920135184117
 30
0.0
  0
VERTEX
  5
2191
  8
0
 10
59.90116398878564
 20
133.1630985721296
 30
0.0
  0
VERTEX
  5
2192
  8
0
 10
59.546934302887962
 20
133.23637970034551
 30
0.0
  0
VERTEX
  5
2193
  8
0
 10
58.859129089860751
 20
133.388587809851
 30
0.0
  0
VERTEX
  5
2194
  8
0
 10
58.19995619939646
 20
133.54673322666531
 30
0.0
  0
VERTEX
  5
2195
  8
0
 10
57.570753983497639
 20
133.70887892750099
 30
0.0
  0
VERTEX
  5
2196
  8
0
 10
56.9743286293102
 20
133.8726567987398
 30
0.0
  0
VERTEX
  5
2197
  8
0
 10
56.412445903486173
 20
134.03591410190191
 30
0.0
  0
VERTEX
  5
2198
  8
0
 10
56.144721011698657
 20
134.11676046056121
 30
0.0
  0
VERTEX
  5
2199
  8
0
 10
55.885947867462171
 20
134.19677912488589
 30
0.0
  0
VERTEX
  5
219A
  8
0
 10
55.395681873569401
 20
134.3534376949849
 30
0.0
  0
VERTEX
  5
219B
  8
0
 10
54.942506596677269
 20
134.50413905628369
 30
0.0
  0
VERTEX
  5
219C
  8
0
 10
54.730102241125053
 20
134.57672691753831
 30
0.0
  0
SEQEND
  5
219D
  8
0
  0
POLYLINE
  5
1DBE
  8
0
 66
     1
 10
0.0
 20
0.0
 30
0.0
  0
VERTEX
  5
219E
  8
0
 10
54.730102241125053
 20
134.57672691753831
 30
0.0
  0
VERTEX
  5
219F
  8
0
 10
54.630339149866302
 20
134.61107675273271
 30
0.0
  0
VERTEX
  5
21A0
  8
0
 10
54.433656457268171
 20
134.67858146433039
 30
0.0
  0
VERTEX
  5
21A1
  8
0
 10
54.24149107425103
 20
134.74426223228679
 30
0.0
  0
VERTEX
  5
21A2
  8
0
 10
54.147374933292262
 20
134.7763331970896
 30
0.0
  0
VERTEX
  5
21A3
  8
0
 10
54.054715311342989
 20
134.8078461994667
 30
0.0
  0
VERTEX
  5
21A4
  8
0
 10
53.874202243301959
 20
134.86906487635051
 30
0.0
  0
VERTEX
  5
21A5
  8
0
 10
53.700824964774711
 20
134.92765398364099
 30
0.0
  0
VERTEX
  5
21A6
  8
0
 10
53.535455618537348
 20
134.983353302512
 30
0.0
  0
VERTEX
  5
21A7
  8
0
 10
53.378954707225319
 20
135.0359097137322
 30
0.0
  0
VERTEX
  5
21A8
  8
0
 10
53.232179035860327
 20
135.08507388897431
 30
0.0
  0
VERTEX
  5
21A9
  8
0
 10
53.162711958614288
 20
135.108304489489
 30
0.0
  0
VERTEX
  5
21AA
  8
0
 10
53.096004072554699
 20
135.13059215755459
 30
0.0
  0
VERTEX
  5
21AB
  8
0
 10
52.971298490097858
 20
135.17221432235439
 30
0.0
  0
VERTEX
  5
21AC
  8
0
 10
52.858919547621213
 20
135.2096943619095
 30
0.0
  0
VERTEX
  5
21AD
  8
0
 10
52.759708356932379
 20
135.24279109946789
 30
0.0
  0
VERTEX
  5
21AE
  8
0
 10
52.67448507901031
 20
135.27126883990209
 30
0.0
  0
VERTEX
  5
21AF
  8
0
 10
52.604048019229943
 20
135.29489666539581
 30
0.0
  0
VERTEX
  5
21B0
  8
0
 10
52.574617615944703
 20
135.30482081207671
 30
0.0
  0
VERTEX
  5
21B1
  8
0
 10
52.549171991846428
 20
135.3134479248418
 30
0.0
  0
VERTEX
  5
21B2
  8
0
 10
52.510599136189278
 20
135.32670220600761
 30
0.0
  0
VERTEX
  5
21B3
  8
0
 10
52.489030722235043
 20
135.334446993981
 30
0.0
  0
VERTEX
  5
21B4
  8
0
 10
52.484830054056431
 20
135.33618919394789
 30
0.0
  0
SEQEND
  5
21B5
  8
0
  0
POLYLINE
  5
1DBF
  8
0
 66
     1
 10
0.0
 20
0.0
 30
0.0
  0
VERTEX
  5
21B6
  8
0
 10
52.484830054056431
 20
135.33618919394789
 30
0.0
  0
VERTEX
  5
21B7
  8
0
 10
52.48463176047931
 20
135.33629793728491
 30
0.0
  0
VERTEX
  5
21B8
  8
0
 10
52.484418001314111
 20
135.33645629504781
 30
0.0
  0
VERTEX
  5
21B9
  8
0
 10
52.484448731441553
 20
135.33653553660571
 30
0.0
  0
VERTEX
  5
21BA
  8
0
 10
52.484555770642309
 20
135.33654543008279
 30
0.0
  0
SEQEND
  5
21BB
  8
0
  0
POLYLINE
  5
1DC0
  8
0
 66
     1
 10
0.0
 20
0.0
 30
0.0
  0
VERTEX
  5
21BC
  8
0
 10
52.484555770642309
 20
135.33654543008279
 30
0.0
  0
VERTEX
  5
21BD
  8
0
 10
52.484816981839117
 20
135.3365249465609
 30
0.0
  0
VERTEX
  5
21BE
  8
0
 10
52.485717218605487
 20
135.33636142392359
 30
0.0
  0
VERTEX
  5
21BF
  8
0
 10
52.487118793870373
 20
135.33603526393591
 30
0.0
  0
VERTEX
  5
21C0
  8
0
 10
52.488006670518132
 20
135.33581148479479
 30
0.0
  0
VERTEX
  5
21C1
  8
0
 10
52.489018782105568
 20
135.33554739475611
 30
0.0
  0
VERTEX
  5
21C2
  8
0
 10
52.49141422408843
 20
135.33489874953901
 30
0.0
  0
VERTEX
  5
21C3
  8
0
 10
52.494302126090702
 20
135.33409026682679
 30
0.0
  0
VERTEX
  5
21C4
  8
0
 10
52.508243853640629
 20
135.3300155448903
 30
0.0
  0
VERTEX
  5
21C5
  8
0
 10
52.5457049650268
 20
135.3186208783217
 30
0.0
  0
VERTEX
  5
21C6
  8
0
 10
52.570674955044012
 20
135.31089049289679
 30
0.0
  0
VERTEX
  5
21C7
  8
0
 10
52.599681959409963
 20
135.30184125241411
 30
0.0
  0
VERTEX
  5
21C8
  8
0
 10
52.6694246511559
 20
135.27989860010791
 30
0.0
  0
VERTEX
  5
21C9
  8
0
 10
52.754148869262508
 20
135.25302146023401
 30
0.0
  0
VERTEX
  5
21CA
  8
0
 10
52.853046001887151
 20
135.22144293855499
 30
0.0
  0
VERTEX
  5
21CB
  8
0
 10
52.96528526435219
 20
135.18540096065669
 30
0.0
  0
VERTEX
  5
21CC
  8
0
 10
53.090014294771997
 20
135.14513906623429
 30
0.0
  0
VERTEX
  5
21CD
  8
0
 10
53.156791403373063
 20
135.12350314475759
 30
0.0
  0
VERTEX
  5
21CE
  8
0
 10
53.226364016229688
 20
135.1009058029158
 30
0.0
  0
VERTEX
  5
21CF
  8
0
 10
53.373453502597663
 20
135.05295405063441
 30
0.0
  0
VERTEX
  5
21D0
  8
0
 10
53.530394578003211
 20
135.00154035555559
 30
0.0
  0
VERTEX
  5
21D1
  8
0
 10
53.69631699043191
 20
134.9469173887841
 30
0.0
  0
VERTEX
  5
21D2
  8
0
 10
53.870348415540043
 20
134.88934108861889
 30
0.0
  0
VERTEX
  5
21D3
  8
0
 10
54.051604030004512
 20
134.82907474984739
 30
0.0
  0
VERTEX
  5
21D4
  8
0
 10
54.144664099694062
 20
134.7980162251821
 30
0.0
  0
VERTEX
  5
21D5
  8
0
 10
54.239198015117999
 20
134.76638581310081
 30
0.0
  0
VERTEX
  5
21D6
  8
0
 10
54.432244557365259
 20
134.70154601634991
 30
0.0
  0
VERTEX
  5
21D7
  8
0
 10
54.629858614073669
 20
134.6348315541596
 30
0.0
  0
VERTEX
  5
21D8
  8
0
 10
54.730102241125053
 20
134.6008588907068
 30
0.0
  0
SEQEND
  5
21D9
  8
0
  0
POLYLINE
  5
1DC1
  8
0
 66
     1
 10
0.0
 20
0.0
 30
0.0
  0
VERTEX
  5
21DA
  8
0
 10
54.730102241125053
 20
134.6008588907068
 30
0.0
  0
VERTEX
  5
21DB
  8
0
 10
54.770365707250392
 20
134.58721707608419
 30
0.0
  0
VERTEX
  5
21DC
  8
0
 10
54.851635864670243
 20
134.55981007338801
 30
0.0
  0
VERTEX
  5
21DD
  8
0
 10
54.933872167344873
 20
134.53225244831631
 30
0.0
  0
VERTEX
  5
21DE
  8
0
 10
54.975343340223901
 20
134.51842230490439
 30
0.0
  0
VERTEX
  5
21DF
  8
0
 10
55.017044920586443
 20
134.5045606621398
 30
0.0
  0
VERTEX
  5
21E0
  8
0
 10
55.101124506513088
 20
134.476750962756
 30
0.0
  0
VERTEX
  5
21E1
  8
0
 10
55.1860813564777
 20
134.44883938698391
 30
0.0
  0
VERTEX
  5
21E2
  8
0
 10
55.48991222389526
 20
134.35057320009059
 30
0.0
  0
VERTEX
  5
21E3
  8
0
 10
56.031268022187362
 20
134.18153792342341
 30
0.0
  0
VERTEX
  5
21E4
  8
0
 10
56.310543996781171
 20
134.0973841300565
 30
0.0
  0
VERTEX
  5
21E5
  8
0
 10
56.595385269141559
 20
134.01370059046749
 30
0.0
  0
VERTEX
  5
21E6
  8
0
 10
57.179663421403689
 20
133.84885838410219
 30
0.0
  0
VERTEX
  5
21E7
  8
0
 10
57.779896275176156
 20
133.68909502501589
 30
0.0
  0
VERTEX
  5
21E8
  8
0
 10
58.400968751709961
 20
133.53405136999211
 30
0.0
  0
VERTEX
  5
21E9
  8
0
 10
59.04995245439806
 20
133.3832394851762
 30
0.0
  0
VERTEX
  5
21EA
  8
0
 10
59.725636563406681
 20
133.2384260167934
 30
0.0
  0
VERTEX
  5
21EB
  8
0
 10
60.07311007065357
 20
133.1688144655626
 30
0.0
  0
VERTEX
  5
21EC
  8
0
 10
60.426800294216257
 20
133.10135343958979
 30
0.0
  0
VERTEX
  5
21ED
  8
0
 10
61.152216281765099
 20
132.97372891390299
 30
0.0
  0
VERTEX
  5
21EE
  8
0
 10
61.900653807912988
 20
132.8572138270537
 30
0.0
  0
VERTEX
  5
21EF
  8
0
 10
62.670881754063991
 20
132.7534140876603
 30
0.0
  0
VERTEX
  5
21F0
  8
0
 10
63.461671020367483
 20
132.6638712217746
 30
0.0
  0
VERTEX
  5
21F1
  8
0
 10
64.271759235421655
 20
132.59005720901669
 30
0.0
  0
VERTEX
  5
21F2
  8
0
 10
64.681633706207776
 20
132.5596239626305
 30
0.0
  0
VERTEX
  5
21F3
  8
0
 10
65.092686048188057
 20
132.5337720184335
 30
0.0
  0
VERTEX
  5
21F4
  8
0
 10
65.917445624201662
 20
132.4960100291477
 30
0.0
  0
VERTEX
  5
21F5
  8
0
 10
66.744280855104535
 20
132.47706439417351
 30
0.0
  0
VERTEX
  5
21F6
  8
0
 10
67.157927687725135
 20
132.4746940976969
 30
0.0
  0
SEQEND
  5
21F7
  8
0
  0
POLYLINE
  5
1DC2
  8
0
 66
     1
 10
0.0
 20
0.0
 30
0.0
  0
VERTEX
  5
21F8
  8
0
 10
67.157927687725135
 20
132.4746940976969
 30
0.0
  0
VERTEX
  5
21F9
  8
0
 10
67.6002983096094
 20
132.47740500995729
 30
0.0
  0
VERTEX
  5
21FA
  8
0
 10
68.483482591888105
 20
132.49903381854011
 30
0.0
  0
VERTEX
  5
21FB
  8
0
 10
69.364609239130445
 20
132.54213974362401
 30
0.0
  0
VERTEX
  5
21FC
  8
0
 10
69.804368266265556
 20
132.57169314831279
 30
0.0
  0
VERTEX
  5
21FD
  8
0
 10
70.243190626630962
 20
132.60651685177851
 30
0.0
  0
VERTEX
  5
21FE
  8
0
 10
71.116825767277248
 20
132.69169569329509
 30
0.0
  0
VERTEX
  5
21FF
  8
0
 10
71.983117487422973
 20
132.79697018756491
 30
0.0
  0
VERTEX
  5
2200
  8
0
 10
72.839653535602224
 20
132.92139978297271
 30
0.0
  0
VERTEX
  5
2201
  8
0
 10
73.674638438623049
 20
133.0621266383684
 30
0.0
  0
VERTEX
  5
2202
  8
0
 10
74.477988634971723
 20
133.21558097983629
 30
0.0
  0
VERTEX
  5
2203
  8
0
 10
74.867306368162815
 20
133.29630348077441
 30
0.0
  0
VERTEX
  5
2204
  8
0
 10
75.248122109912856
 20
133.3792690184319
 30
0.0
  0
VERTEX
  5
2205
  8
0
 10
75.983457017184264
 20
133.55065512271409
 30
0.0
  0
VERTEX
  5
2206
  8
0
 10
76.682414431174763
 20
133.72717895420979
 30
0.0
  0
VERTEX
  5
2207
  8
0
 10
77.343419399948857
 20
133.90627291791549
 30
0.0
  0
VERTEX
  5
2208
  8
0
 10
77.964539572364231
 20
134.08527263965141
 30
0.0
  0
VERTEX
  5
2209
  8
0
 10
78.541273103016465
 20
134.26071700725811
 30
0.0
  0
VERTEX
  5
220A
  8
0
 10
78.812448629861635
 20
134.34626522367341
 30
0.0
  0
VERTEX
  5
220B
  8
0
 10
79.072029298972325
 20
134.4299762536869
 30
0.0
  0
VERTEX
  5
220C
  8
0
 10
79.360081334007305
 20
134.5249428337568
 30
0.0
  0
VERTEX
  5
220D
  8
0
 10
79.439434037873355
 20
134.5514858179414
 30
0.0
  0
VERTEX
  5
220E
  8
0
 10
79.517469244366282
 20
134.5777482402662
 30
0.0
  0
VERTEX
  5
220F
  8
0
 10
79.555991512594289
 20
134.59077118428681
 30
0.0
  0
VERTEX
  5
2210
  8
0
 10
79.594182870988334
 20
134.60372033195279
 30
0.0
  0
VERTEX
  5
2211
  8
0
 10
79.669570775229602
 20
134.6293924185899
 30
0.0
  0
VERTEX
  5
2212
  8
0
 10
79.743628748649925
 20
134.65475491877521
 30
0.0
  0
VERTEX
  5
2213
  8
0
 10
79.816352510511933
 20
134.67979834256121
 30
0.0
  0
VERTEX
  5
2214
  8
0
 10
79.887737700947639
 20
134.7045132896973
 30
0.0
  0
VERTEX
  5
2215
  8
0
 10
79.957779873643688
 20
134.72889044766151
 30
0.0
  0
VERTEX
  5
2216
  8
0
 10
79.992295913317534
 20
134.740949468997
 30
0.0
  0
VERTEX
  5
2217
  8
0
 10
80.026474488032477
 20
134.75292058947889
 30
0.0
  0
VERTEX
  5
2218
  8
0
 10
80.093816900979789
 20
134.77659457132091
 30
0.0
  0
VERTEX
  5
2219
  8
0
 10
80.159802357963756
 20
134.7999033298868
 30
0.0
  0
VERTEX
  5
221A
  8
0
 10
80.192284709438013
 20
134.8114179394849
 30
0.0
  0
SEQEND
  5
221B
  8
0
  0
POLYLINE
  5
1DC3
  8
0
 66
     1
 10
0.0
 20
0.0
 30
0.0
  0
VERTEX
  5
221C
  8
0
 10
80.192284709438013
 20
153.04967717755
 30
0.0
  0
VERTEX
  5
221D
  8
0
 10
80.21545830890625
 20
153.02593274815749
 30
0.0
  0
VERTEX
  5
221E
  8
0
 10
80.261278586652224
 20
152.9780221687721
 30
0.0
  0
VERTEX
  5
221F
  8
0
 10
80.306391428911638
 20
152.92954923008941
 30
0.0
  0
VERTEX
  5
2220
  8
0
 10
80.32868074073059
 20
152.9051018579824
 30
0.0
  0
VERTEX
  5
2221
  8
0
 10
80.350791011834303
 20
152.88051387753171
 30
0.0
  0
VERTEX
  5
2222
  8
0
 10
80.394471537588856
 20
152.83091608038919
 30
0.0
  0
VERTEX
  5
2223
  8
0
 10
80.437427231265815
 20
152.78075582825551
 30
0.0
  0
VERTEX
  5
2224
  8
0
 10
80.479652337244545
 20
152.73003312739189
 30
0.0
  0
VERTEX
  5
2225
  8
0
 10
80.521141115011403
 20
152.67874799704711
 30
0.0
  0
VERTEX
  5
2226
  8
0
 10
80.561887834417817
 20
152.6269004657681
 30
0.0
  0
VERTEX
  5
2227
  8
0
 10
80.581981133103056
 20
152.60076581033931
 30
0.0
  0
VERTEX
  5
2228
  8
0
 10
80.601886770367756
 20
152.57449056773751
 30
0.0
  0
VERTEX
  5
2229
  8
0
 10
80.641132196928083
 20
152.52151833917449
 30
0.0
  0
VERTEX
  5
222A
  8
0
 10
80.679618380855118
 20
152.46798381484211
 30
0.0
  0
VERTEX
  5
222B
  8
0
 10
80.717339574535785
 20
152.41388702470221
 30
0.0
  0
VERTEX
  5
222C
  8
0
 10
80.754290008341755
 20
152.35922799076491
 30
0.0
  0
VERTEX
  5
222D
  8
0
 10
80.79046388239982
 20
152.30400672417909
 30
0.0
  0
VERTEX
  5
222E
  8
0
 10
80.808257786637114
 20
152.2761852535059
 30
0.0
  0
VERTEX
  5
222F
  8
0
 10
80.825855357783951
 20
152.2482232226136
 30
0.0
  0
VERTEX
  5
2230
  8
0
 10
80.860458547137114
 20
152.1918774679805
 30
0.0
  0
VERTEX
  5
2231
  8
0
 10
80.894267504734827
 20
152.13496942455171
 30
0.0
  0
VERTEX
  5
2232
  8
0
 10
80.910872270058704
 20
152.1063045281872
 30
0.0
  0
VERTEX
  5
2233
  8
0
 10
80.927276216006248
 20
152.07749903752349
 30
0.0
  0
VERTEX
  5
2234
  8
0
 10
80.959478586530565
 20
152.0194662320815
 30
0.0
  0
VERTEX
  5
2235
  8
0
 10
80.990864691677302
 20
151.96087801825189
 30
0.0
  0
VERTEX
  5
2236
  8
0
 10
81.006237034876676
 20
151.93140031737909
 30
0.0
  0
VERTEX
  5
2237
  8
0
 10
81.021391755084437
 20
151.9018069784604
 30
0.0
  0
VERTEX
  5
2238
  8
0
 10
81.051046780773149
 20
151.84227552724269
 30
0.0
  0
VERTEX
  5
2239
  8
0
 10
81.079826681946415
 20
151.78228798303081
 30
0.0
  0
VERTEX
  5
223A
  8
0
 10
81.107728375890304
 20
151.72184872043439
 30
0.0
  0
VERTEX
  5
223B
  8
0
 10
81.134748778705045
 20
151.660962166194
 30
0.0
  0
VERTEX
  5
223C
  8
0
 10
81.160884799589084
 20
151.59963279527651
 30
0.0
  0
VERTEX
  5
223D
  8
0
 10
81.173620197540245
 20
151.56880346425689
 30
0.0
  0
VERTEX
  5
223E
  8
0
 10
81.186133334691874
 20
151.53786512715021
 30
0.0
  0
VERTEX
  5
223F
  8
0
 10
81.210491260552658
 20
151.47566372227871
 30
0.0
  0
VERTEX
  5
2240
  8
0
 10
81.233955427145361
 20
151.4130331788719
 30
0.0
  0
VERTEX
  5
2241
  8
0
 10
81.256522650551275
 20
151.34997812993271
 30
0.0
  0
VERTEX
  5
2242
  8
0
 10
81.278189705284319
 20
151.28650324063739
 30
0.0
  0
VERTEX
  5
2243
  8
0
 10
81.298953316295297
 20
151.2226132060853
 30
0.0
  0
VERTEX
  5
2244
  8
0
 10
81.308995291365648
 20
151.19051398427621
 30
0.0
  0
VERTEX
  5
2245
  8
0
 10
81.318810150684143
 20
151.1583127494558
 30
0.0
  0
VERTEX
  5
2246
  8
0
 10
81.337756809150619
 20
151.09360662060499
 30
0.0
  0
VERTEX
  5
2247
  8
0
 10
81.355789817216206
 20
151.02849959513679
 30
0.0
  0
VERTEX
  5
2248
  8
0
 10
81.372905616252055
 20
150.96299647397811
 30
0.0
  0
VERTEX
  5
2249
  8
0
 10
81.389100554348659
 20
150.89710208348771
 30
0.0
  0
VERTEX
  5
224A
  8
0
 10
81.404370877064821
 20
150.8308212761257
 30
0.0
  0
VERTEX
  5
224B
  8
0
 10
81.411658104060905
 20
150.7975374899446
 30
0.0
  0
VERTEX
  5
224C
  8
0
 10
81.418712718095719
 20
150.76415893170591
 30
0.0
  0
VERTEX
  5
224D
  8
0
 10
81.432122089898769
 20
150.69711995925371
 30
0.0
  0
VERTEX
  5
224E
  8
0
 10
81.444594874320146
 20
150.62970929948631
 30
0.0
  0
VERTEX
  5
224F
  8
0
 10
81.456119962403605
 20
150.56197402217001
 30
0.0
  0
VERTEX
  5
2250
  8
0
 10
81.466683725972359
 20
150.4939939724874
 30
0.0
  0
VERTEX
  5
2251
  8
0
 10
81.476286131822008
 20
150.42577851521321
 30
0.0
  0
VERTEX
  5
2252
  8
0
 10
81.480726869770066
 20
150.391585044111
 30
0.0
  0
VERTEX
  5
2253
  8
0
 10
81.484927313052296
 20
150.3573357703664
 30
0.0
  0
VERTEX
  5
2254
  8
0
 10
81.492607336273238
 20
150.2886739121158
 30
0.0
  0
VERTEX
  5
2255
  8
0
 10
81.499326199667337
 20
150.21980116807211
 30
0.0
  0
VERTEX
  5
2256
  8
0
 10
81.505083831119578
 20
150.1507258187163
 30
0.0
  0
VERTEX
  5
2257
  8
0
 10
81.509880086429817
 20
150.08145619695981
 30
0.0
  0
VERTEX
  5
2258
  8
0
 10
81.513714747619574
 20
150.0120006878293
 30
0.0
  0
VERTEX
  5
2259
  8
0
 10
81.5152713917347
 20
149.97720586001961
 30
0.0
  0
VERTEX
  5
225A
  8
0
 10
81.516587521346196
 20
149.94236772827131
 30
0.0
  0
VERTEX
  5
225B
  8
0
 10
81.518498037432096
 20
149.8725658070644
 30
0.0
  0
VERTEX
  5
225C
  8
0
 10
81.519445847521055
 20
149.8026034648328
 30
0.0
  0
VERTEX
  5
225D
  8
0
 10
81.519558576027521
 20
149.76756481897769
 30
0.0
  0
VERTEX
  5
225E
  8
0
 10
81.519430423866879
 20
149.73248929414839
 30
0.0
  0
VERTEX
  5
225F
  8
0
 10
81.518451158260632
 20
149.6622319397116
 30
0.0
  0
VERTEX
  5
2260
  8
0
 10
81.516507361102256
 20
149.5918400985982
 30
0.0
  0
VERTEX
  5
2261
  8
0
 10
81.515173525240016
 20
149.55659647776841
 30
0.0
  0
VERTEX
  5
2262
  8
0
 10
81.513598260618096
 20
149.52132252055981
 30
0.0
  0
VERTEX
  5
2263
  8
0
 10
81.509723002226792
 20
149.45068800836489
 30
0.0
  0
VERTEX
  5
2264
  8
0
 10
81.504880648052904
 20
149.37994541816829
 30
0.0
  0
VERTEX
  5
2265
  8
0
 10
81.499070176586997
 20
149.3091036598943
 30
0.0
  0
VERTEX
  5
2266
  8
0
 10
81.492292081991025
 20
149.238187324546
 30
0.0
  0
VERTEX
  5
2267
  8
0
 10
81.484556004786896
 20
149.1672933919611
 30
0.0
  0
VERTEX
  5
2268
  8
0
 10
81.480330250648464
 20
149.13186261353741
 30
0.0
  0
VERTEX
  5
2269
  8
0
 10
81.475866572052553
 20
149.0964440128428
 30
0.0
  0
VERTEX
  5
226A
  8
0
 10
81.466227052629606
 20
149.0256475164245
 30
0.0
  0
VERTEX
  5
226B
  8
0
 10
81.455640594752325
 20
148.9549122714817
 30
0.0
  0
VERTEX
  5
226C
  8
0
 10
81.444110233216279
 20
148.88424668870641
 30
0.0
  0
VERTEX
  5
226D
  8
0
 10
81.431638896645495
 20
148.81365922262799
 30
0.0
  0
VERTEX
  5
226E
  8
0
 10
81.418229414821326
 20
148.7431583730741
 30
0.0
  0
VERTEX
  5
226F
  8
0
 10
81.411173728530017
 20
148.70794309832979
 30
0.0
  0
VERTEX
  5
2270
  8
0
 10
81.403884526043157
 20
148.6727526861622
 30
0.0
  0
VERTEX
  5
2271
  8
0
 10
81.388606884483863
 20
148.60245075482291
 30
0.0
  0
VERTEX
  5
2272
  8
0
 10
81.372399067508582
 20
148.532261218852
 30
0.0
  0
VERTEX
  5
2273
  8
0
 10
81.355263582923655
 20
148.46219276449611
 30
0.0
  0
VERTEX
  5
2274
  8
0
 10
81.337202876121964
 20
148.3922541235778
 30
0.0
  0
VERTEX
  5
2275
  8
0
 10
81.318219337094604
 20
148.32245407216891
 30
0.0
  0
VERTEX
  5
2276
  8
0
 10
81.308382238908223
 20
148.28760877172601
 30
0.0
  0
VERTEX
  5
2277
  8
0
 10
81.29831530727688
 20
148.25280142882289
 30
0.0
  0
VERTEX
  5
2278
  8
0
 10
81.277493086199229
 20
148.1833050523833
 30
0.0
  0
VERTEX
  5
2279
  8
0
 10
81.255754937914489
 20
148.11397383938129
 30
0.0
  0
VERTEX
  5
227A
  8
0
 10
81.233103097173682
 20
148.0448167210447
 30
0.0
  0
VERTEX
  5
227B
  8
0
 10
81.209539775325254
 20
147.97584265993899
 30
0.0
  0
VERTEX
  5
227C
  8
0
 10
81.185067165912457
 20
147.90706064626301
 30
0.0
  0
VERTEX
  5
227D
  8
0
 10
81.172490560287827
 20
147.87274447322059
 30
0.0
  0
VERTEX
  5
227E
  8
0
 10
81.159687449946716
 20
147.83847969382671
 30
0.0
  0
VERTEX
  5
227F
  8
0
 10
81.133426917698955
 20
147.77017041143301
 30
0.0
  0
VERTEX
  5
2280
  8
0
 10
81.106317118309448
 20
147.7022075727204
 30
0.0
  0
VERTEX
  5
2281
  8
0
 10
81.078364161236664
 20
147.63459627321811
 30
0.0
  0
VERTEX
  5
2282
  8
0
 10
81.049574003776115
 20
147.56734158661109
 30
0.0
  0
VERTEX
  5
2283
  8
0
 10
81.019952481211647
 20
147.500448614058
 30
0.0
  0
VERTEX
  5
2284
  8
0
 10
81.004831751233198
 20
147.46713937275911
 30
0.0
  0
VERTEX
  5
2285
  8
0
 10
80.989505319194834
 20
147.43392248649491
 30
0.0
  0
VERTEX
  5
2286
  8
0
 10
80.958238145745483
 20
147.36776836616099
 30
0.0
  0
VERTEX
  5
2287
  8
0
 10
80.926156502838467
 20
147.30199144738219
 30
0.0
  0
VERTEX
  5
2288
  8
0
 10
80.909811966429274
 20
147.26924607061031
 30
0.0
  0
VERTEX
  5
2289
  8
0
 10
80.893265857546737
 20
147.23659695665279
 30
0.0
  0
VERTEX
  5
228A
  8
0
 10
80.859571612713694
 20
147.17159015205809
 30
0.0
  0
VERTEX
  5
228B
  8
0
 10
80.825079117130699
 20
147.10697632208181
 30
0.0
  0
VERTEX
  5
228C
  8
0
 10
80.807535184414405
 20
147.07481843311609
 30
0.0
  0
VERTEX
  5
228D
  8
0
 10
80.789793675200485
 20
147.0427607838443
 30
0.0
  0
VERTEX
  5
228E
  8
0
 10
80.753720556069084
 20
146.97894888081871
 30
0.0
  0
VERTEX
  5
228F
  8
0
 10
80.716865002213027
 20
146.91554598007201
 30
0.0
  0
VERTEX
  5
2290
  8
0
 10
80.679232237472377
 20
146.8525574690793
 30
0.0
  0
VERTEX
  5
2291
  8
0
 10
80.640827474521132
 20
146.7899887521603
 30
0.0
  0
VERTEX
  5
2292
  8
0
 10
80.601655921772021
 20
146.727845246583
 30
0.0
  0
VERTEX
  5
2293
  8
0
 10
80.581784227258154
 20
146.69693464346079
 30
0.0
  0
VERTEX
  5
2294
  8
0
 10
80.561722789713485
 20
146.6661323783843
 30
0.0
  0
VERTEX
  5
2295
  8
0
 10
80.521033296680898
 20
146.60485557795189
 30
0.0
  0
VERTEX
  5
2296
  8
0
 10
80.479592674065202
 20
146.54402027541201
 30
0.0
  0
VERTEX
  5
2297
  8
0
 10
80.437406170965119
 20
146.4836318958676
 30
0.0
  0
VERTEX
  5
2298
  8
0
 10
80.394479058291381
 20
146.42369585452769
 30
0.0
  0
VERTEX
  5
2299
  8
0
 10
80.350816632332851
 20
146.36421755176809
 30
0.0
  0
VERTEX
  5
229A
  8
0
 10
80.32871133966006
 20
146.33465173469449
 30
0.0
  0
VERTEX
  5
229B
  8
0
 10
80.306424217796504
 20
146.3052023681619
 30
0.0
  0
VERTEX
  5
229C
  8
0
 10
80.261307170334945
 20
146.2466556595156
 30
0.0
  0
VERTEX
  5
229D
  8
0
 10
80.215470878575843
 20
146.18858275194401
 30
0.0
  0
VERTEX
  5
229E
  8
0
 10
80.192284709438013
 20
146.1597256286573
 30
0.0
  0
SEQEND
  5
229F
  8
0
  0
POLYLINE
  5
1DC4
  8
0
 66
     1
 10
0.0
 20
0.0
 30
0.0
  0
VERTEX
  5
22A0
  8
0
 10
80.192284709438056
 20
146.15972562865721
 30
0.0
  0
VERTEX
  5
22A1
  8
0
 10
80.153914260794508
 20
146.1126120280511
 30
0.0
  0
VERTEX
  5
22A2
  8
0
 10
80.076108178653385
 20
146.01920724462491
 30
0.0
  0
VERTEX
  5
22A3
  8
0
 10
79.996917562321642
 20
145.92690068416329
 30
0.0
  0
VERTEX
  5
22A4
  8
0
 10
79.956816381281385
 20
145.88115989337399
 30
0.0
  0
VERTEX
  5
22A5
  8
0
 10
79.916385031224593
 20
145.83569446066161
 30
0.0
  0
VERTEX
  5
22A6
  8
0
 10
79.834552996760522
 20
145.74559080558021
 30
0.0
  0
VERTEX
  5
22A7
  8
0
 10
79.751463723439599
 20
145.6565920488477
 30
0.0
  0
VERTEX
  5
22A8
  8
0
 10
79.667159383198396
 20
145.56870059672769
 30
0.0
  0
VERTEX
  5
22A9
  8
0
 10
79.581682103249705
 20
145.4819189073267
 30
0.0
  0
VERTEX
  5
22AA
  8
0
 10
79.495074007854953
 20
145.3962494644303
 30
0.0
  0
VERTEX
  5
22AB
  8
0
 10
79.451359076382445
 20
145.3538326119365
 30
0.0
  0
VERTEX
  5
22AC
  8
0
 10
79.407377254418634
 20
145.31169475026579
 30
0.0
  0
VERTEX
  5
22AD
  8
0
 10
79.318634064309151
 20
145.22825721770431
 30
0.0
  0
VERTEX
  5
22AE
  8
0
 10
79.228886748803063
 20
145.14593926234031
 30
0.0
  0
VERTEX
  5
22AF
  8
0
 10
79.138177730538985
 20
145.0647431948147
 30
0.0
  0
VERTEX
  5
22B0
  8
0
 10
79.046549560848675
 20
144.9846712136831
 30
0.0
  0
VERTEX
  5
22B1
  8
0
 10
78.954044933312616
 20
144.90572537907471
 30
0.0
  0
VERTEX
  5
22B2
  8
0
 10
78.907477331044277
 20
144.8666753663928
 30
0.0
  0
VERTEX
  5
22B3
  8
0
 10
78.860706362793053
 20
144.82790731449529
 30
0.0
  0
VERTEX
  5
22B4
  8
0
 10
78.766500324580136
 20
144.75115710656911
 30
0.0
  0
VERTEX
  5
22B5
  8
0
 10
78.671400675244172
 20
144.67542583676359
 30
0.0
  0
VERTEX
  5
22B6
  8
0
 10
78.623524361226146
 20
144.6379412448189
 30
0.0
  0
VERTEX
  5
22B7
  8
0
 10
78.331911499115165
 20
144.41834283409861
 30
0.0
  0
VERTEX
  5
22B8
  8
0
 10
77.728620344084163
 20
144.00619168939181
 30
0.0
  0
VERTEX
  5
22B9
  8
0
 10
77.103487382516903
 20
143.6295790357031
 30
0.0
  0
VERTEX
  5
22BA
  8
0
 10
76.454995824628668
 20
143.2841019192538
 30
0.0
  0
VERTEX
  5
22BB
  8
0
 10
75.773283177537394
 20
142.96322691987919
 30
0.0
  0
VERTEX
  5
22BC
  8
0
 10
75.059362254137852
 20
142.66752240184039
 30
0.0
  0
VERTEX
  5
22BD
  8
0
 10
74.69070284748102
 20
142.52933831144369
 30
0.0
  0
VERTEX
  5
22BE
  8
0
 10
74.314443436882073
 20
142.39772726780151
 30
0.0
  0
VERTEX
  5
22BF
  8
0
 10
73.539716893425805
 20
142.15462561238149
 30
0.0
  0
VERTEX
  5
22C0
  8
0
 10
72.736362011005951
 20
141.93905713201181
 30
0.0
  0
VERTEX
  5
22C1
  8
0
 10
71.905554771663446
 20
141.75193299232541
 30
0.0
  0
VERTEX
  5
22C2
  8
0
 10
71.053824740029356
 20
141.5951352232874
 30
0.0
  0
VERTEX
  5
22C3
  8
0
 10
70.194326745522574
 20
141.4706630062943
 30
0.0
  0
VERTEX
  5
22C4
  8
0
 10
69.762480814125453
 20
141.4203774326711
 30
0.0
  0
VERTEX
  5
22C5
  8
0
 10
69.329596737910094
 20
141.37796700811339
 30
0.0
  0
VERTEX
  5
22C6
  8
0
 10
68.461794027950077
 20
141.31653584171181
 30
0.0
  0
VERTEX
  5
22C7
  8
0
 10
67.592910857534548
 20
141.28595461173279
 30
0.0
  0
VERTEX
  5
22C8
  8
0
 10
67.157927687725135
 20
141.28213373768261
 30
0.0
  0
SEQEND
  5
22C9
  8
0
  0
POLYLINE
  5
1DC5
  8
0
 66
     1
 10
0.0
 20
0.0
 30
0.0
  0
VERTEX
  5
22CA
  8
0
 10
67.157927687725135
 20
141.28213373768261
 30
0.0
  0
VERTEX
  5
22CB
  8
0
 10
66.737198408357756
 20
141.28570824366849
 30
0.0
  0
VERTEX
  5
22CC
  8
0
 10
65.89589547239666
 20
141.31435893589429
 30
0.0
  0
VERTEX
  5
22CD
  8
0
 10
65.056352280202873
 20
141.3718432554686
 30
0.0
  0
VERTEX
  5
22CE
  8
0
 10
64.637822452872626
 20
141.41148004017469
 30
0.0
  0
VERTEX
  5
22CF
  8
0
 10
64.220430772423242
 20
141.458435020282
 30
0.0
  0
VERTEX
  5
22D0
  8
0
 10
63.390317192057459
 20
141.57445023885211
 30
0.0
  0
VERTEX
  5
22D1
  8
0
 10
62.576870069257438
 20
141.71855413772769
 30
0.0
  0
VERTEX
  5
22D2
  8
0
 10
61.78561493453855
 20
141.8893485559139
 30
0.0
  0
VERTEX
  5
22D3
  8
0
 10
61.017857043731681
 20
142.08600855323689
 30
0.0
  0
VERTEX
  5
22D4
  8
0
 10
60.274904242254991
 20
142.30774588110609
 30
0.0
  0
VERTEX
  5
22D5
  8
0
 10
59.913138565273186
 20
142.4277773435511
 30
0.0
  0
VERTEX
  5
22D6
  8
0
 10
59.558064498062947
 20
142.55378938848989
 30
0.0
  0
VERTEX
  5
22D7
  8
0
 10
58.868642897300269
 20
142.82336953441549
 30
0.0
  0
VERTEX
  5
22D8
  8
0
 10
58.207938486760781
 20
143.1157071840945
 30
0.0
  0
VERTEX
  5
22D9
  8
0
 10
57.577252229635519
 20
143.4300013176553
 30
0.0
  0
VERTEX
  5
22DA
  8
0
 10
56.979291659326861
 20
143.76459051907909
 30
0.0
  0
VERTEX
  5
22DB
  8
0
 10
56.416030170108399
 20
144.11787050918591
 30
0.0
  0
VERTEX
  5
22DC
  8
0
 10
56.147674752537171
 20
144.30118289806239
 30
0.0
  0
VERTEX
  5
22DD
  8
0
 10
55.88831042924425
 20
144.4887635780938
 30
0.0
  0
VERTEX
  5
22DE
  8
0
 10
55.396980470142751
 20
144.87619104710899
 30
0.0
  0
VERTEX
  5
22DF
  8
0
 10
54.942899693795312
 20
145.27908343459109
 30
0.0
  0
VERTEX
  5
22E0
  8
0
 10
54.730102241125053
 20
145.4860007929536
 30
0.0
  0
SEQEND
  5
22E1
  8
0
  0
POLYLINE
  5
1DC6
  8
0
 66
     1
 10
0.0
 20
0.0
 30
0.0
  0
VERTEX
  5
22E2
  8
0
 10
54.730102241125053
 20
145.4860007929536
 30
0.0
  0
VERTEX
  5
22E3
  8
0
 10
54.529105533647851
 20
145.69192272209389
 30
0.0
  0
VERTEX
  5
22E4
  8
0
 10
54.140591581277931
 20
146.11798054330961
 30
0.0
  0
VERTEX
  5
22E5
  8
0
 10
53.776080312095473
 20
146.5617285792475
 30
0.0
  0
VERTEX
  5
22E6
  8
0
 10
53.605088270926331
 20
146.78976406078161
 30
0.0
  0
VERTEX
  5
22E7
  8
0
 10
53.577412416821907
 20
146.82814990884469
 30
0.0
  0
VERTEX
  5
22E8
  8
0
 10
53.52280357083896
 20
146.90523936103489
 30
0.0
  0
VERTEX
  5
22E9
  8
0
 10
53.469212078870783
 20
146.98274798245041
 30
0.0
  0
VERTEX
  5
22EA
  8
0
 10
53.442807448717417
 20
147.0216585073035
 30
0.0
  0
VERTEX
  5
22EB
  8
0
 10
53.416669154498827
 20
147.0606719928914
 30
0.0
  0
VERTEX
  5
22EC
  8
0
 10
53.365208459964379
 20
147.1390040948462
 30
0.0
  0
VERTEX
  5
22ED
  8
0
 10
53.314863740851251
 20
147.217736732579
 30
0.0
  0
VERTEX
  5
22EE
  8
0
 10
53.265668691024018
 20
147.2968622635145
 30
0.0
  0
VERTEX
  5
22EF
  8
0
 10
53.217656938654052
 20
147.3763729557175
 30
0.0
  0
VERTEX
  5
22F0
  8
0
 10
53.170862031007118
 20
147.4562609864027
 30
0.0
  0
VERTEX
  5
22F1
  8
0
 10
53.147931351330669
 20
147.49634403412429
 30
0.0
  0
VERTEX
  5
22F2
  8
0
 10
53.125317417999099
 20
147.53651844168991
 30
0.0
  0
VERTEX
  5
22F3
  8
0
 10
53.081056434554107
 20
147.6171373178405
 30
0.0
  0
VERTEX
  5
22F4
  8
0
 10
53.038112281833833
 20
147.69810952422259
 30
0.0
  0
VERTEX
  5
22F5
  8
0
 10
52.996518007447889
 20
147.77942688826741
 30
0.0
  0
VERTEX
  5
22F6
  8
0
 10
52.956306484802781
 20
147.86108116268281
 30
0.0
  0
VERTEX
  5
22F7
  8
0
 10
52.917510391800192
 20
147.94306403519349
 30
0.0
  0
VERTEX
  5
22F8
  8
0
 10
52.898653284467457
 20
147.9841760834
 30
0.0
  0
VERTEX
  5
22F9
  8
0
 10
52.880162189154419
 20
148.02536714106219
 30
0.0
  0
VERTEX
  5
22FA
  8
0
 10
52.844294098663568
 20
148.10798207863289
 30
0.0
  0
VERTEX
  5
22FB
  8
0
 10
52.809938081835917
 20
148.19090042809941
 30
0.0
  0
VERTEX
  5
22FC
  8
0
 10
52.777125819342643
 20
148.27411377365809
 30
0.0
  0
VERTEX
  5
22FD
  8
0
 10
52.745888687878271
 20
148.3576137400145
 30
0.0
  0
VERTEX
  5
22FE
  8
0
 10
52.716257719726059
 20
148.44139209236829
 30
0.0
  0
VERTEX
  5
22FF
  8
0
 10
52.702054172705452
 20
148.48338306430421
 30
0.0
  0
VERTEX
  5
2300
  8
0
 10
52.688263691108943
 20
148.52544047624559
 30
0.0
  0
VERTEX
  5
2301
  8
0
 10
52.661937154485081
 20
148.60975023641649
 30
0.0
  0
VERTEX
  5
2302
  8
0
 10
52.637308394309571
 20
148.6943124256901
 30
0.0
  0
VERTEX
  5
2303
  8
0
 10
52.614407380676539
 20
148.77911782302891
 30
0.0
  0
VERTEX
  5
2304
  8
0
 10
52.593263723036443
 20
148.8641569578765
 30
0.0
  0
VERTEX
  5
2305
  8
0
 10
52.5739066249742
 20
148.94942014094121
 30
0.0
  0
VERTEX
  5
2306
  8
0
 10
52.56490704026475
 20
148.99213267189251
 30
0.0
  0
VERTEX
  5
2307
  8
0
 10
52.556364841142802
 20
149.03489750151829
 30
0.0
  0
VERTEX
  5
2308
  8
0
 10
52.540666637532183
 20
149.12057903125151
 30
0.0
  0
VERTEX
  5
2309
  8
0
 10
52.526839756302309
 20
149.20645463401959
 30
0.0
  0
VERTEX
  5
230A
  8
0
 10
52.514911386421431
 20
149.29251418141141
 30
0.0
  0
VERTEX
  5
230B
  8
0
 10
52.504908141308931
 20
149.37874757301071
 30
0.0
  0
VERTEX
  5
230C
  8
0
 10
52.49685604459296
 20
149.4651448004858
 30
0.0
  0
VERTEX
  5
230D
  8
0
 10
52.493569646526282
 20
149.5084017666266
 30
0.0
  0
VERTEX
  5
230E
  8
0
 10
52.490780524945528
 20
149.55169601424959
 30
0.0
  0
VERTEX
  5
230F
  8
0
 10
52.486706420755702
 20
149.6383915912713
 30
0.0
  0
VERTEX
  5
2310
  8
0
 10
52.484657995152808
 20
149.72522220245989
 30
0.0
  0
VERTEX
  5
2311
  8
0
 10
52.484400842833281
 20
149.7686853270352
 30
0.0
  0
VERTEX
  5
2312
  8
0
 10
52.484657995152808
 20
149.81209742560921
 30
0.0
  0
VERTEX
  5
2313
  8
0
 10
52.486706420755702
 20
149.89852156187189
 30
0.0
  0
VERTEX
  5
2314
  8
0
 10
52.490780524945528
 20
149.98440864112479
 30
0.0
  0
VERTEX
  5
2315
  8
0
 10
52.493569646526282
 20
150.02714934586069
 30
0.0
  0
VERTEX
  5
2316
  8
0
 10
52.49685604459296
 20
150.06975402779341
 30
0.0
  0
VERTEX
  5
2317
  8
0
 10
52.504908141308931
 20
150.15455284957829
 30
0.0
  0
VERTEX
  5
2318
  8
0
 10
52.514911386421431
 20
150.2388000703518
 30
0.0
  0
VERTEX
  5
2319
  8
0
 10
52.526839756302309
 20
150.32249056148319
 30
0.0
  0
VERTEX
  5
231A
  8
0
 10
52.540666637532183
 20
150.4056191701147
 30
0.0
  0
VERTEX
  5
231B
  8
0
 10
52.556364841142802
 20
150.48818078310799
 30
0.0
  0
VERTEX
  5
231C
  8
0
 10
52.56490704026475
 20
150.52924739378321
 30
0.0
  0
VERTEX
  5
231D
  8
0
 10
52.5739066249742
 20
150.570170385615
 30
0.0
  0
VERTEX
  5
231E
  8
0
 10
52.593263723036443
 20
150.6515831134721
 30
0.0
  0
VERTEX
  5
231F
  8
0
 10
52.614407380676539
 20
150.73241429887091
 30
0.0
  0
VERTEX
  5
2320
  8
0
 10
52.637308394309571
 20
150.81265950899939
 30
0.0
  0
VERTEX
  5
2321
  8
0
 10
52.661937154485081
 20
150.89231457757481
 30
0.0
  0
VERTEX
  5
2322
  8
0
 10
52.688263691108943
 20
150.97137562938869
 30
0.0
  0
VERTEX
  5
2323
  8
0
 10
52.702054172705452
 20
151.01068227212139
 30
0.0
  0
VERTEX
  5
2324
  8
0
 10
52.716257719726059
 20
151.0498390981559
 30
0.0
  0
VERTEX
  5
2325
  8
0
 10
52.745888687878271
 20
151.1277017380944
 30
0.0
  0
VERTEX
  5
2326
  8
0
 10
52.777125819342643
 20
151.20496062655971
 30
0.0
  0
VERTEX
  5
2327
  8
0
 10
52.809938081835917
 20
151.28161299205399
 30
0.0
  0
VERTEX
  5
2328
  8
0
 10
52.844294098663568
 20
151.35765597438541
 30
0.0
  0
VERTEX
  5
2329
  8
0
 10
52.880162189154419
 20
151.4330867192495
 30
0.0
  0
VERTEX
  5
232A
  8
0
 10
52.898653284467457
 20
151.47057162111949
 30
0.0
  0
VERTEX
  5
232B
  8
0
 10
52.917510391800192
 20
151.50790241274581
 30
0.0
  0
VERTEX
  5
232C
  8
0
 10
52.956306484802781
 20
151.58210030201909
 30
0.0
  0
VERTEX
  5
232D
  8
0
 10
52.996518007447889
 20
151.6556777123061
 30
0.0
  0
VERTEX
  5
232E
  8
0
 10
53.038112281833833
 20
151.72863206063329
 30
0.0
  0
VERTEX
  5
232F
  8
0
 10
53.081056434554107
 20
151.80096086644971
 30
0.0
  0
VERTEX
  5
2330
  8
0
 10
53.125317417999099
 20
151.87266175949361
 30
0.0
  0
VERTEX
  5
2331
  8
0
 10
53.147931351330669
 20
151.90827602955309
 30
0.0
  0
VERTEX
  5
2332
  8
0
 10
53.170862031007118
 20
151.94373248520259
 30
0.0
  0
VERTEX
  5
2333
  8
0
 10
53.217656938654052
 20
152.01417090797369
 30
0.0
  0
VERTEX
  5
2334
  8
0
 10
53.265668691024018
 20
152.08397501257051
 30
0.0
  0
VERTEX
  5
2335
  8
0
 10
53.314863740851251
 20
152.1531429039598
 30
0.0
  0
VERTEX
  5
2336
  8
0
 10
53.365208459964428
 20
152.22167280583841
 30
0.0
  0
VERTEX
  5
2337
  8
0
 10
53.416669154498827
 20
152.2895630580926
 30
0.0
  0
VERTEX
  5
2338
  8
0
 10
53.442807448717417
 20
152.32326782777511
 30
0.0
  0
VERTEX
  5
2339
  8
0
 10
53.469212078870783
 20
152.35681211340579
 30
0.0
  0
VERTEX
  5
233A
  8
0
 10
53.52280357083896
 20
152.42341868304919
 30
0.0
  0
VERTEX
  5
233B
  8
0
 10
53.577412416821907
 20
152.48938451551021
 30
0.0
  0
VERTEX
  5
233C
  8
0
 10
53.605088270926331
 20
152.52212726408899
 30
0.0
  0
VERTEX
  5
233D
  8
0
 10
53.776080312095473
 20
152.7152135225034
 30
0.0
  0
VERTEX
  5
233E
  8
0
 10
54.140591581277931
 20
153.08397614733661
 30
0.0
  0
VERTEX
  5
233F
  8
0
 10
54.529105533647851
 20
153.4293875091987
 30
0.0
  0
VERTEX
  5
2340
  8
0
 10
54.730102241125053
 20
153.5932942390005
 30
0.0
  0
SEQEND
  5
2341
  8
0
  0
POLYLINE
  5
1DC7
  8
0
 66
     1
 10
0.0
 20
0.0
 30
0.0
  0
VERTEX
  5
2342
  8
0
 10
54.730102241125053
 20
153.5932942390005
 30
0.0
  0
VERTEX
  5
2343
  8
0
 10
54.771641769774071
 20
153.6260206242481
 30
0.0
  0
VERTEX
  5
2344
  8
0
 10
54.85552008721487
 20
153.69064715907359
 30
0.0
  0
VERTEX
  5
2345
  8
0
 10
54.94043858905377
 20
153.7541824485358
 30
0.0
  0
VERTEX
  5
2346
  8
0
 10
54.983278397421657
 20
153.78554471040451
 30
0.0
  0
VERTEX
  5
2347
  8
0
 10
55.026366860353107
 20
153.81663872768519
 30
0.0
  0
VERTEX
  5
2348
  8
0
 10
55.113274654291963
 20
153.87802796254931
 30
0.0
  0
VERTEX
  5
2349
  8
0
 10
55.201131854064947
 20
153.938361866343
 30
0.0
  0
VERTEX
  5
234A
  8
0
 10
55.515675709802451
 20
154.14138356682261
 30
0.0
  0
VERTEX
  5
234B
  8
0
 10
56.07739908054134
 20
154.46101469960971
 30
0.0
  0
VERTEX
  5
234C
  8
0
 10
56.367230800944412
 20
154.60795605214369
 30
0.0
  0
VERTEX
  5
234D
  8
0
 10
56.662062028594391
 20
154.74672378742841
 30
0.0
  0
VERTEX
  5
234E
  8
0
 10
57.26756600130755
 20
155.00238606645189
 30
0.0
  0
VERTEX
  5
234F
  8
0
 10
57.891882493868252
 20
155.23098636560599
 30
0.0
  0
VERTEX
  5
2350
  8
0
 10
58.531511497635847
 20
155.43447880668239
 30
0.0
  0
VERTEX
  5
2351
  8
0
 10
59.182941365665222
 20
155.61464305694739
 30
0.0
  0
VERTEX
  5
2352
  8
0
 10
59.849096194766162
 20
155.77457384746111
 30
0.0
  0
VERTEX
  5
2353
  8
0
 10
60.191013666269207
 20
155.8481699920155
 30
0.0
  0
VERTEX
  5
2354
  8
0
 10
60.538694519462119
 20
155.91759800549281
 30
0.0
  0
VERTEX
  5
2355
  8
0
 10
61.250794915013437
 20
156.04412971465581
 30
0.0
  0
VERTEX
  5
2356
  8
0
 10
61.984298824176904
 20
156.15450190493769
 30
0.0
  0
VERTEX
  5
2357
  8
0
 10
62.738113622721691
 20
156.24899172757691
 30
0.0
  0
VERTEX
  5
2358
  8
0
 10
63.51115103577763
 20
156.32780142516
 30
0.0
  0
VERTEX
  5
2359
  8
0
 10
64.302325144825943
 20
156.3910368531923
 30
0.0
  0
VERTEX
  5
235A
  8
0
 10
64.704374099537347
 20
156.41681507276411
 30
0.0
  0
VERTEX
  5
235B
  8
0
 10
65.110497564097159
 20
156.43868085716761
 30
0.0
  0
VERTEX
  5
235C
  8
0
 10
65.927693505161471
 20
156.47037579407419
 30
0.0
  0
VERTEX
  5
235D
  8
0
 10
66.747546379424975
 20
156.48613933253051
 30
0.0
  0
VERTEX
  5
235E
  8
0
 10
67.157927687725135
 20
156.48810592310909
 30
0.0
  0
SEQEND
  5
235F
  8
0
  0
POLYLINE
  5
1DC8
  8
0
 66
     1
 10
0.0
 20
0.0
 30
0.0
  0
VERTEX
  5
2360
  8
0
 10
67.157927687725135
 20
156.48810592310909
 30
0.0
  0
VERTEX
  5
2361
  8
0
 10
67.586233036611873
 20
156.48596371623839
 30
0.0
  0
VERTEX
  5
2362
  8
0
 10
68.441906259713448
 20
156.46878657613391
 30
0.0
  0
VERTEX
  5
2363
  8
0
 10
69.294688141937172
 20
156.4342254334355
 30
0.0
  0
VERTEX
  5
2364
  8
0
 10
69.719569789688649
 20
156.4102936122826
 30
0.0
  0
VERTEX
  5
2365
  8
0
 10
70.14384391170131
 20
156.3817791801815
 30
0.0
  0
VERTEX
  5
2366
  8
0
 10
70.98956445494133
 20
156.31053672188759
 30
0.0
  0
VERTEX
  5
2367
  8
0
 10
71.829527231683358
 20
156.21944882249221
 30
0.0
  0
VERTEX
  5
2368
  8
0
 10
72.661352656660995
 20
156.1072412457205
 30
0.0
  0
VERTEX
  5
2369
  8
0
 10
73.482658456372747
 20
155.97238744716711
 30
0.0
  0
VERTEX
  5
236A
  8
0
 10
74.285985706360748
 20
155.81416268572829
 30
0.0
  0
VERTEX
  5
236B
  8
0
 10
74.675418360099741
 20
155.726917698069
 30
0.0
  0
VERTEX
  5
236C
  8
0
 10
75.056286087912099
 20
155.63422503066641
 30
0.0
  0
VERTEX
  5
236D
  8
0
 10
75.791818322128051
 20
155.43226118453501
 30
0.0
  0
VERTEX
  5
236E
  8
0
 10
76.49155777805413
 20
155.20776201962479
 30
0.0
  0
VERTEX
  5
236F
  8
0
 10
77.154455440143749
 20
154.96016230087091
 30
0.0
  0
VERTEX
  5
2370
  8
0
 10
77.779415498405513
 20
154.6888418388412
 30
0.0
  0
VERTEX
  5
2371
  8
0
 10
78.369305060361512
 20
154.3909170868877
 30
0.0
  0
VERTEX
  5
2372
  8
0
 10
78.655127681357499
 20
154.2288008165965
 30
0.0
  0
VERTEX
  5
2373
  8
0
 10
78.702118944822587
 20
154.20088057310221
 30
0.0
  0
VERTEX
  5
2374
  8
0
 10
78.795508531548421
 20
154.14425642361229
 30
0.0
  0
VERTEX
  5
2375
  8
0
 10
78.888078507782097
 20
154.0865787987934
 30
0.0
  0
VERTEX
  5
2376
  8
0
 10
78.934045283077182
 20
154.05734169037049
 30
0.0
  0
VERTEX
  5
2377
  8
0
 10
78.979794137364479
 20
154.027837309186
 30
0.0
  0
VERTEX
  5
2378
  8
0
 10
79.070620778234783
 20
153.9680214589294
 30
0.0
  0
VERTEX
  5
2379
  8
0
 10
79.160523867384768
 20
153.9071206269665
 30
0.0
  0
VERTEX
  5
237A
  8
0
 10
79.249468902697743
 20
153.84512404727181
 30
0.0
  0
VERTEX
  5
237B
  8
0
 10
79.337421421407782
 20
153.7820207882217
 30
0.0
  0
VERTEX
  5
237C
  8
0
 10
79.424346974899152
 20
153.71779973126661
 30
0.0
  0
VERTEX
  5
237D
  8
0
 10
79.467413871276847
 20
153.6852664975502
 30
0.0
  0
VERTEX
  5
237E
  8
0
 10
79.510211099556784
 20
153.65244954910361
 30
0.0
  0
VERTEX
  5
237F
  8
0
 10
79.594979283371003
 20
153.58595868359731
 30
0.0
  0
VERTEX
  5
2380
  8
0
 10
79.678616927996984
 20
153.51831532374689
 30
0.0
  0
VERTEX
  5
2381
  8
0
 10
79.761089305973201
 20
153.44950738405771
 30
0.0
  0
VERTEX
  5
2382
  8
0
 10
79.842361512811976
 20
153.37952248373529
 30
0.0
  0
VERTEX
  5
2383
  8
0
 10
79.922398413694964
 20
153.3083479271923
 30
0.0
  0
VERTEX
  5
2384
  8
0
 10
79.961942567405174
 20
153.27231047000561
 30
0.0
  0
VERTEX
  5
2385
  8
0
 10
80.001164584532319
 20
153.2359706864257
 30
0.0
  0
VERTEX
  5
2386
  8
0
 10
80.078624247186795
 20
153.1623773859024
 30
0.0
  0
VERTEX
  5
2387
  8
0
 10
80.154741198711335
 20
153.08755429066881
 30
0.0
  0
VERTEX
  5
2388
  8
0
 10
80.192284709438013
 20
153.04967717755011
 30
0.0
  0
SEQEND
  5
2389
  8
0
  0
LINE
  5
1DCD
  8
1
 10
23.03792768772502
 20
156.1418166979096
 30
0.0
 11
93.037927687725073
 21
156.1418166979096
 31
0.0
  0
ARC
  5
1DCE
  8
0
 10
159.54492302569119
 20
156.14181669790949
 30
0.0
 40
25.00000000000005
 50
288.46896773317542
 51
323.20633817538192
  0
ARC
  5
1DCF
  8
0
 10
159.5449230256913
 20
156.14181669790949
 30
0.0
 40
25.000000000000121
 50
216.46896773317621
 51
251.20633817538049
  0
ARC
  5
1DD0
  8
0
 10
159.54492302569119
 20
156.14181669790949
 30
0.0
 40
24.999999999999979
 50
0.4689677331761512
 51
35.206338175379962
  0
ARC
  5
1DD1
  8
0
 10
159.54492302569119
 20
156.14181669790949
 30
0.0
 40
25.000000000000011
 50
144.46896773317761
 51
179.20633817538001
  0
ARC
  5
1DD2
  8
0
 10
159.54492302569119
 20
156.14181669790949
 30
0.0
 40
25.0
 50
72.468967733177337
 51
107.2063381753823
  0
CIRCLE
  5
1DD3
  8
0
 10
159.54492302569119
 20
156.14181669790949
 30
0.0
 40
13.210165584161309
  0
POLYLINE
  5
1DD4
  8
0
 66
     1
 10
0.0
 20
0.0
 30
0.0
  0
VERTEX
  5
238A
  8
0
 10
149.98392535804589
 20
175.561168134795
 30
0.0
  0
VERTEX
  5
238B
  8
0
 10
149.9664071474439
 20
175.53825484692089
 30
0.0
  0
VERTEX
  5
238C
  8
0
 10
149.93098333217139
 20
175.49225385963979
 30
0.0
  0
VERTEX
  5
238D
  8
0
 10
149.89504075213981
 20
175.44602688950749
 30
0.0
  0
VERTEX
  5
238E
  8
0
 10
149.87687409090691
 20
175.4228311265274
 30
0.0
  0
VERTEX
  5
238F
  8
0
 10
149.85857673980561
 20
175.39958182808991
 30
0.0
  0
VERTEX
  5
2390
  8
0
 10
149.82158864804461
 20
175.35292657744341
 30
0.0
  0
VERTEX
  5
2391
  8
0
 10
149.784073847755
 20
175.30606904595601
 30
0.0
  0
VERTEX
  5
2392
  8
0
 10
149.74602972534251
 20
175.25901714432561
 30
0.0
  0
VERTEX
  5
2393
  8
0
 10
149.70745368011239
 20
175.2117787817094
 30
0.0
  0
VERTEX
  5
2394
  8
0
 10
149.66834312159239
 20
175.16436186207341
 30
0.0
  0
VERTEX
  5
2395
  8
0
 10
149.6485865924526
 20
175.14058891109701
 30
0.0
  0
VERTEX
  5
2396
  8
0
 10
149.6286954668137
 20
175.11677428077661
 30
0.0
  0
VERTEX
  5
2397
  8
0
 10
149.58850813758019
 20
175.06902392142069
 30
0.0
  0
VERTEX
  5
2398
  8
0
 10
149.54777855776001
 20
175.02111865299801
 30
0.0
  0
VERTEX
  5
2399
  8
0
 10
149.50650415063231
 20
174.97306632737181
 30
0.0
  0
VERTEX
  5
239A
  8
0
 10
149.46468233632891
 20
174.9248747771183
 30
0.0
  0
VERTEX
  5
239B
  8
0
 10
149.4223105294104
 20
174.8765518137638
 30
0.0
  0
VERTEX
  5
239C
  8
0
 10
149.40091756868981
 20
174.8523434871812
 30
0.0
  0
VERTEX
  5
239D
  8
0
 10
149.37938613661831
 20
174.8281052264461
 30
0.0
  0
VERTEX
  5
239E
  8
0
 10
149.33590655484829
 20
174.77954278102939
 30
0.0
  0
VERTEX
  5
239F
  8
0
 10
149.29186916939099
 20
174.73087221970039
 30
0.0
  0
VERTEX
  5
23A0
  8
0
 10
149.26964047964719
 20
174.70649880854219
 30
0.0
  0
VERTEX
  5
23A1
  8
0
 10
149.2472713524885
 20
174.68210126107039
 30
0.0
  0
VERTEX
  5
23A2
  8
0
 10
149.2021104622541
 20
174.63323760080669
 30
0.0
  0
VERTEX
  5
23A3
  8
0
 10
149.15641180547331
 20
174.58431868646329
 30
0.0
  0
VERTEX
  5
23A4
  8
0
 10
149.1333760409052
 20
174.55985760978459
 30
0.0
  0
VERTEX
  5
23A5
  8
0
 10
149.110216298192
 20
174.53539712391981
 30
0.0
  0
VERTEX
  5
23A6
  8
0
 10
149.0635254760725
 20
174.48648251360581
 30
0.0
  0
VERTEX
  5
23A7
  8
0
 10
149.01634058240359
 20
174.4375839905932
 30
0.0
  0
VERTEX
  5
23A8
  8
0
 10
148.9686629348484
 20
174.38871061871021
 30
0.0
  0
VERTEX
  5
23A9
  8
0
 10
148.9204939224727
 20
174.33987138700201
 30
0.0
  0
VERTEX
  5
23AA
  8
0
 10
148.87183500286201
 20
174.29107520652701
 30
0.0
  0
VERTEX
  5
23AB
  8
0
 10
148.8473223013936
 20
174.26669602317421
 30
0.0
  0
VERTEX
  5
23AC
  8
0
 10
148.8226876993661
 20
174.2423309075065
 30
0.0
  0
VERTEX
  5
23AD
  8
0
 10
148.77305359850649
 20
174.1936472368472
 30
0.0
  0
VERTEX
  5
23AE
  8
0
 10
148.7229343475849
 20
174.14503285605321
 30
0.0
  0
VERTEX
  5
23AF
  8
0
 10
148.67233165253199
 20
174.09649633954109
 30
0.0
  0
VERTEX
  5
23B0
  8
0
 10
148.6212472760331
 20
174.0480461733693
 30
0.0
  0
VERTEX
  5
23B1
  8
0
 10
148.56968303596989
 20
173.999690754391
 30
0.0
  0
VERTEX
  5
23B2
  8
0
 10
148.54372154997779
 20
173.97555117461241
 30
0.0
  0
VERTEX
  5
23B3
  8
0
 10
148.51764080421449
 20
173.9514383898366
 30
0.0
  0
VERTEX
  5
23B4
  8
0
 10
148.4651225058148
 20
173.90329729732761
 30
0.0
  0
VERTEX
  5
23B5
  8
0
 10
148.4121301186064
 20
173.85527560532449
 30
0.0
  0
VERTEX
  5
23B6
  8
0
 10
148.35866567328401
 20
173.80738135400151
 30
0.0
  0
VERTEX
  5
23B7
  8
0
 10
148.30473125396841
 20
173.75962249654671
 30
0.0
  0
VERTEX
  5
23B8
  8
0
 10
148.25032921686019
 20
173.7120070901853
 30
0.0
  0
VERTEX
  5
23B9
  8
0
 10
148.22296789515181
 20
173.68826804604919
 30
0.0
  0
VERTEX
  5
23BA
  8
0
 10
148.19551355290741
 20
173.66458745842939
 30
0.0
  0
VERTEX
  5
23BB
  8
0
 10
148.1403285960964
 20
173.61740550085099
 30
0.0
  0
VERTEX
  5
23BC
  8
0
 10
148.08477998977671
 20
173.57046883060011
 30
0.0
  0
VERTEX
  5
23BD
  8
0
 10
148.02887348003981
 20
173.52378492719311
 30
0.0
  0
VERTEX
  5
23BE
  8
0
 10
147.97261491453261
 20
173.47736113561319
 30
0.0
  0
VERTEX
  5
23BF
  8
0
 10
147.91601024140701
 20
173.43120466557099
 30
0.0
  0
VERTEX
  5
23C0
  8
0
 10
147.88758000053971
 20
173.40822889202511
 30
0.0
  0
VERTEX
  5
23C1
  8
0
 10
147.8590655084104
 20
173.38532259091789
 30
0.0
  0
VERTEX
  5
23C2
  8
0
 10
147.8017868621242
 20
173.33972184920299
 30
0.0
  0
VERTEX
  5
23C3
  8
0
 10
147.74418054734841
 20
173.29440924136509
 30
0.0
  0
VERTEX
  5
23C4
  8
0
 10
147.6862529066384
 20
173.2493914315481
 30
0.0
  0
VERTEX
  5
23C5
  8
0
 10
147.6280103799898
 20
173.2046749470297
 30
0.0
  0
VERTEX
  5
23C6
  8
0
 10
147.56945950467261
 20
173.16026617825179
 30
0.0
  0
VERTEX
  5
23C7
  8
0
 10
147.54007050575021
 20
173.13817914689
 30
0.0
  0
VERTEX
  5
23C8
  8
0
 10
147.510606915209
 20
173.1161713789389
 30
0.0
  0
VERTEX
  5
23C9
  8
0
 10
147.4514593434929
 20
173.07239666629471
 30
0.0
  0
VERTEX
  5
23CA
  8
0
 10
147.39202361904549
 20
173.02894802126119
 30
0.0
  0
VERTEX
  5
23CB
  8
0
 10
147.3621998605596
 20
173.0073478059596
 30
0.0
  0
VERTEX
  5
23CC
  8
0
 10
147.33230666939801
 20
172.98583128883001
 30
0.0
  0
VERTEX
  5
23CD
  8
0
 10
147.27231552059649
 20
172.9430521783911
 30
0.0
  0
VERTEX
  5
23CE
  8
0
 10
147.2120572978198
 20
172.90061626410869
 30
0.0
  0
VERTEX
  5
23CF
  8
0
 10
147.1818302875906
 20
172.8795287105722
 30
0.0
  0
VERTEX
  5
23D0
  8
0
 10
147.15153922609841
 20
172.8585289853095
 30
0.0
  0
VERTEX
  5
23D1
  8
0
 10
147.0907686311277
 20
172.81679564687269
 30
0.0
  0
VERTEX
  5
23D2
  8
0
 10
147.02975296471499
 20
172.7754214361554
 30
0.0
  0
VERTEX
  5
23D3
  8
0
 10
146.96855683706309
 20
172.7344493628901
 30
0.0
  0
VERTEX
  5
23D4
  8
0
 10
146.9072406122558
 20
172.6939175147661
 30
0.0
  0
VERTEX
  5
23D5
  8
0
 10
146.8458123266804
 20
172.65382810544369
 30
0.0
  0
VERTEX
  5
23D6
  8
0
 10
146.815058693119
 20
172.6339499760376
 30
0.0
  0
VERTEX
  5
23D7
  8
0
 10
146.78428009247349
 20
172.61418323514059
 30
0.0
  0
VERTEX
  5
23D8
  8
0
 10
146.72265209998221
 20
172.5749848921898
 30
0.0
  0
VERTEX
  5
23D9
  8
0
 10
146.6609366199045
 20
172.5362349542622
 30
0.0
  0
VERTEX
  5
23DA
  8
0
 10
146.5991420050909
 20
172.49793518926441
 30
0.0
  0
VERTEX
  5
23DB
  8
0
 10
146.53727669198929
 20
172.46008725592739
 30
0.0
  0
VERTEX
  5
23DC
  8
0
 10
146.4753492017214
 20
172.42269270410171
 30
0.0
  0
VERTEX
  5
23DD
  8
0
 10
146.4443648263329
 20
172.40416590082171
 30
0.0
  0
VERTEX
  5
23DE
  8
0
 10
146.41336814077869
 20
172.3857529747755
 30
0.0
  0
VERTEX
  5
23DF
  8
0
 10
146.35134220132881
 20
172.34926939983609
 30
0.0
  0
VERTEX
  5
23E0
  8
0
 10
146.28928016112781
 20
172.31324320159331
 30
0.0
  0
VERTEX
  5
23E1
  8
0
 10
146.22719088303461
 20
172.27767549208659
 30
0.0
  0
VERTEX
  5
23E2
  8
0
 10
146.16508331412581
 20
172.2425672721981
 30
0.0
  0
VERTEX
  5
23E3
  8
0
 10
146.10296648441539
 20
172.20791943059399
 30
0.0
  0
VERTEX
  5
23E4
  8
0
 10
146.07190744091341
 20
172.190768398378
 30
0.0
  0
VERTEX
  5
23E5
  8
0
 10
146.04084950518151
 20
172.17373274251651
 30
0.0
  0
VERTEX
  5
23E6
  8
0
 10
145.97874156690861
 20
172.1400078684531
 30
0.0
  0
VERTEX
  5
23E7
  8
0
 10
145.91665193685509
 20
172.1067453527028
 30
0.0
  0
VERTEX
  5
23E8
  8
0
 10
145.8545899562578
 20
172.07394562186769
 30
0.0
  0
VERTEX
  5
23E9
  8
0
 10
145.7925650371871
 20
172.0416089832905
 30
0.0
  0
VERTEX
  5
23EA
  8
0
 10
145.73058665907249
 20
172.0097356234632
 30
0.0
  0
VERTEX
  5
23EB
  8
0
 10
145.69961790268721
 20
171.99397269792121
 30
0.0
  0
VERTEX
  5
23EC
  8
0
 10
145.66866668993109
 20
171.97832677768639
 30
0.0
  0
VERTEX
  5
23ED
  8
0
 10
145.60689439933981
 20
171.9474219202221
 30
0.0
  0
VERTEX
  5
23EE
  8
0
 10
145.54531641720479
 20
171.91703729969441
 30
0.0
  0
VERTEX
  5
23EF
  8
0
 10
145.483939429066
 20
171.88716874411631
 30
0.0
  0
VERTEX
  5
23F0
  8
0
 10
145.42277014861179
 20
171.85781207532551
 30
0.0
  0
VERTEX
  5
23F1
  8
0
 10
145.36181532084231
 20
171.8289631091034
 30
0.0
  0
VERTEX
  5
23F2
  8
0
 10
145.3314204437026
 20
171.81472770517351
 30
0.0
  0
VERTEX
  5
23F3
  8
0
 10
145.30108172450451
 20
171.80061765491189
 30
0.0
  0
VERTEX
  5
23F4
  8
0
 10
145.2405761738211
 20
171.77277151529509
 30
0.0
  0
VERTEX
  5
23F5
  8
0
 10
145.180305519538
 20
171.7454204849879
 30
0.0
  0
VERTEX
  5
23F6
  8
0
 10
145.15026042950129
 20
171.73192931926911
 30
0.0
  0
VERTEX
  5
23F7
  8
0
 10
145.1202766493185
 20
171.71856034977759
 30
0.0
  0
VERTEX
  5
23F8
  8
0
 10
145.06049648751431
 20
171.69218688515761
 30
0.0
  0
VERTEX
  5
23F9
  8
0
 10
145.00097199434899
 20
171.66629585481621
 30
0.0
  0
VERTEX
  5
23FA
  8
0
 10
144.9713078080575
 20
171.65352992502341
 30
0.0
  0
VERTEX
  5
23FB
  8
0
 10
144.94171016454601
 20
171.64088300899769
 30
0.0
  0
VERTEX
  5
23FC
  8
0
 10
144.88271802544281
 20
171.6159440827719
 30
0.0
  0
VERTEX
  5
23FD
  8
0
 10
144.82400263462671
 20
171.5914747942488
 30
0.0
  0
VERTEX
  5
23FE
  8
0
 10
144.76557107713359
 20
171.5674708427687
 30
0.0
  0
VERTEX
  5
23FF
  8
0
 10
144.70743046225101
 20
171.54392790709821
 30
0.0
  0
VERTEX
  5
2400
  8
0
 10
144.6495879199646
 20
171.52084164366181
 30
0.0
  0
VERTEX
  5
2401
  8
0
 10
144.62078065887869
 20
171.50946840013219
 30
0.0
  0
VERTEX
  5
2402
  8
0
 10
144.59205059708921
 20
171.49820768483141
 30
0.0
  0
VERTEX
  5
2403
  8
0
 10
144.53482565312771
 20
171.47602163729999
 30
0.0
  0
VERTEX
  5
2404
  8
0
 10
144.47792025589439
 20
171.4542790805578
 30
0.0
  0
VERTEX
  5
2405
  8
0
 10
144.42134157694531
 20
171.4329755654899
 30
0.0
  0
VERTEX
  5
2406
  8
0
 10
144.3650967868515
 20
171.41210661311271
 30
0.0
  0
VERTEX
  5
2407
  8
0
 10
144.3091930503557
 20
171.39166771346041
 30
0.0
  0
VERTEX
  5
2408
  8
0
 10
144.281371313384
 20
171.38160811533299
 30
0.0
  0
VERTEX
  5
2409
  8
0
 10
144.25363752144551
 20
171.3716543246357
 30
0.0
  0
VERTEX
  5
240A
  8
0
 10
144.19843733837999
 20
171.35206187203249
 30
0.0
  0
VERTEX
  5
240B
  8
0
 10
144.14359961870181
 20
171.3328857477384
 30
0.0
  0
VERTEX
  5
240C
  8
0
 10
144.11631889997631
 20
171.32345235952261
 30
0.0
  0
SEQEND
  5
240D
  8
0
  0
POLYLINE
  5
1DD5
  8
0
 66
     1
 10
0.0
 20
0.0
 30
0.0
  0
VERTEX
  5
240E
  8
0
 10
144.11631889997619
 20
171.32345235952249
 30
0.0
  0
VERTEX
  5
240F
  8
0
 10
144.07155015090331
 20
171.30812437494851
 30
0.0
  0
VERTEX
  5
2410
  8
0
 10
143.98263241971731
 20
171.27824030930731
 30
0.0
  0
VERTEX
  5
2411
  8
0
 10
143.89454882852081
 20
171.24936610191421
 30
0.0
  0
VERTEX
  5
2412
  8
0
 10
143.850822759918
 20
171.23530053183421
 30
0.0
  0
VERTEX
  5
2413
  8
0
 10
143.8073087380379
 20
171.22147887754841
 30
0.0
  0
VERTEX
  5
2414
  8
0
 10
143.72092152444901
 20
171.19455613169049
 30
0.0
  0
VERTEX
  5
2415
  8
0
 10
143.6353965671282
 20
171.16857571026361
 30
0.0
  0
VERTEX
  5
2416
  8
0
 10
143.5507432325623
 20
171.14351578998529
 30
0.0
  0
VERTEX
  5
2417
  8
0
 10
143.46697085520921
 20
171.11935485964639
 30
0.0
  0
VERTEX
  5
2418
  8
0
 10
143.38408871597011
 20
171.0960717025651
 30
0.0
  0
VERTEX
  5
2419
  8
0
 10
143.3429843655733
 20
171.08475273530331
 30
0.0
  0
VERTEX
  5
241A
  8
0
 10
143.30210601888481
 20
171.0736453803961
 30
0.0
  0
VERTEX
  5
241B
  8
0
 10
143.22103186657509
 20
171.05205521842359
 30
0.0
  0
VERTEX
  5
241C
  8
0
 10
143.14087523490639
 20
171.0312807924156
 30
0.0
  0
VERTEX
  5
241D
  8
0
 10
143.06164494725999
 20
171.01130191707981
 30
0.0
  0
VERTEX
  5
241E
  8
0
 10
142.98334964876031
 20
170.99209863612549
 30
0.0
  0
VERTEX
  5
241F
  8
0
 10
142.90599778073911
 20
170.97365121390871
 30
0.0
  0
VERTEX
  5
2420
  8
0
 10
142.8676782091695
 20
170.9647048410632
 30
0.0
  0
VERTEX
  5
2421
  8
0
 10
142.82959755567569
 20
170.95594012861599
 30
0.0
  0
VERTEX
  5
2422
  8
0
 10
142.75415352106131
 20
170.93894530946329
 30
0.0
  0
VERTEX
  5
2423
  8
0
 10
142.6795962068183
 20
170.92263107739251
 30
0.0
  0
VERTEX
  5
2424
  8
0
 10
142.64263918242881
 20
170.9147209360768
 30
0.0
  0
VERTEX
  5
2425
  8
0
 10
142.42541420327211
 20
170.8705795250136
 30
0.0
  0
VERTEX
  5
2426
  8
0
 10
142.0143520584771
 20
170.7979376769201
 30
0.0
  0
VERTEX
  5
2427
  8
0
 10
141.63478022688221
 20
170.7433347714871
 30
0.0
  0
VERTEX
  5
2428
  8
0
 10
141.2855414365649
 20
170.70353442266739
 30
0.0
  0
VERTEX
  5
2429
  8
0
 10
140.95940864229621
 20
170.675312935546
 30
0.0
  0
VERTEX
  5
242A
  8
0
 10
140.65643587645189
 20
170.65678357687389
 30
0.0
  0
VERTEX
  5
242B
  8
0
 10
140.5140418147476
 20
170.6506226972642
 30
0.0
  0
VERTEX
  5
242C
  8
0
 10
140.3779297196578
 20
170.64625322354891
 30
0.0
  0
VERTEX
  5
242D
  8
0
 10
140.12522373003239
 20
170.6420746286953
 30
0.0
  0
VERTEX
  5
242E
  8
0
 10
139.89968497042571
 20
170.64266049009669
 30
0.0
  0
VERTEX
  5
242F
  8
0
 10
139.7027245891156
 20
170.64650156662901
 30
0.0
  0
VERTEX
  5
2430
  8
0
 10
139.53606232665501
 20
170.6521785610787
 30
0.0
  0
VERTEX
  5
2431
  8
0
 10
139.40277335236431
 20
170.6583218428199
 30
0.0
  0
VERTEX
  5
2432
  8
0
 10
139.34877890757639
 20
170.66121641720119
 30
0.0
  0
VERTEX
  5
2433
  8
0
 10
139.30317286097511
 20
170.6638438379797
 30
0.0
  0
VERTEX
  5
2434
  8
0
 10
139.23700094268699
 20
170.66795354699289
 30
0.0
  0
VERTEX
  5
2435
  8
0
 10
139.20401818473329
 20
170.67013360987141
 30
0.0
  0
VERTEX
  5
2436
  8
0
 10
139.19990099075781
 20
170.670411894902
 30
0.0
  0
SEQEND
  5
2437
  8
0
  0
POLYLINE
  5
1DD6
  8
0
 66
     1
 10
0.0
 20
0.0
 30
0.0
  0
VERTEX
  5
2438
  8
0
 10
152.14957994906271
 20
180.0229578092333
 30
0.0
  0
VERTEX
  5
2439
  8
0
 10
152.1485865729706
 20
180.0191049381948
 30
0.0
  0
VERTEX
  5
243A
  8
0
 10
152.1405942124166
 20
179.98828874613531
 30
0.0
  0
VERTEX
  5
243B
  8
0
 10
152.12437147289589
 20
179.92670780219191
 30
0.0
  0
VERTEX
  5
243C
  8
0
 10
152.11303292075451
 20
179.88440613725311
 30
0.0
  0
VERTEX
  5
243D
  8
0
 10
152.09941386840291
 20
179.834362915469
 30
0.0
  0
VERTEX
  5
243E
  8
0
 10
152.0648653543056
 20
179.71092957986201
 30
0.0
  0
VERTEX
  5
243F
  8
0
 10
152.01965090027119
 20
179.5563052518593
 30
0.0
  0
VERTEX
  5
2440
  8
0
 10
151.9624350068915
 20
179.37048958693811
 30
0.0
  0
VERTEX
  5
2441
  8
0
 10
151.89159848995391
 20
179.1535488477727
 30
0.0
  0
VERTEX
  5
2442
  8
0
 10
151.8056354770269
 20
178.90676739040461
 30
0.0
  0
VERTEX
  5
2443
  8
0
 10
151.75702341929491
 20
178.77412802194499
 30
0.0
  0
VERTEX
  5
2444
  8
0
 10
151.70451508777279
 20
178.63583035240839
 30
0.0
  0
VERTEX
  5
2445
  8
0
 10
151.58721627206731
 20
178.3433308310278
 30
0.0
  0
VERTEX
  5
2446
  8
0
 10
151.4525240382427
 20
178.0313725745055
 30
0.0
  0
VERTEX
  5
2447
  8
0
 10
151.29918352415871
 20
177.7019986280992
 30
0.0
  0
VERTEX
  5
2448
  8
0
 10
151.12590181184339
 20
177.35718973147121
 30
0.0
  0
VERTEX
  5
2449
  8
0
 10
150.9297566710562
 20
176.99605421366641
 30
0.0
  0
VERTEX
  5
244A
  8
0
 10
150.82064209363671
 20
176.80668618870001
 30
0.0
  0
VERTEX
  5
244B
  8
0
 10
150.80169052692551
 20
176.77456038734761
 30
0.0
  0
VERTEX
  5
244C
  8
0
 10
150.76311492521211
 20
176.70983703337029
 30
0.0
  0
VERTEX
  5
244D
  8
0
 10
150.72363063145889
 20
176.64449387458311
 30
0.0
  0
VERTEX
  5
244E
  8
0
 10
150.7035431620655
 20
176.61159336417299
 30
0.0
  0
VERTEX
  5
244F
  8
0
 10
150.6832230228344
 20
176.57854212108549
 30
0.0
  0
VERTEX
  5
2450
  8
0
 10
150.64187730247551
 20
176.51199316664241
 30
0.0
  0
VERTEX
  5
2451
  8
0
 10
150.59957848490259
 20
176.4448585722125
 30
0.0
  0
VERTEX
  5
2452
  8
0
 10
150.55631138027709
 20
176.3771500498716
 30
0.0
  0
VERTEX
  5
2453
  8
0
 10
150.51206057756349
 20
176.30887944734249
 30
0.0
  0
VERTEX
  5
2454
  8
0
 10
150.46681042668521
 20
176.24005873337589
 30
0.0
  0
VERTEX
  5
2455
  8
0
 10
150.44380563508011
 20
176.20544585458299
 30
0.0
  0
VERTEX
  5
2456
  8
0
 10
150.4205450197995
 20
176.1706999842562
 30
0.0
  0
VERTEX
  5
2457
  8
0
 10
150.37324817185399
 20
176.10081537173849
 30
0.0
  0
VERTEX
  5
2458
  8
0
 10
150.32490340063589
 20
176.0304171527599
 30
0.0
  0
VERTEX
  5
2459
  8
0
 10
150.27549390656969
 20
175.95951766129721
 30
0.0
  0
VERTEX
  5
245A
  8
0
 10
150.225002552581
 20
175.88812930278411
 30
0.0
  0
VERTEX
  5
245B
  8
0
 10
150.1734118443992
 20
175.81626455153111
 30
0.0
  0
VERTEX
  5
245C
  8
0
 10
150.1471986631993
 20
175.7801574458243
 30
0.0
  0
VERTEX
  5
245D
  8
0
 10
150.1207039117435
 20
175.74393595162371
 30
0.0
  0
VERTEX
  5
245E
  8
0
 10
150.06686049090439
 20
175.67115612180541
 30
0.0
  0
VERTEX
  5
245F
  8
0
 10
150.0118629093119
 20
175.5979377648743
 30
0.0
  0
VERTEX
  5
2460
  8
0
 10
149.98392535804601
 20
175.56116813479511
 30
0.0
  0
SEQEND
  5
2461
  8
0
  0
POLYLINE
  5
1DD7
  8
0
 66
     1
 10
0.0
 20
0.0
 30
0.0
  0
VERTEX
  5
2462
  8
0
 10
179.97195120626861
 20
170.55488436964049
 30
0.0
  0
VERTEX
  5
2463
  8
0
 10
179.9679800096672
 20
170.55463852823911
 30
0.0
  0
VERTEX
  5
2464
  8
0
 10
179.93620284843959
 20
170.55271702040079
 30
0.0
  0
VERTEX
  5
2465
  8
0
 10
179.87262384724531
 20
170.54911625839881
 30
0.0
  0
VERTEX
  5
2466
  8
0
 10
179.82888952692011
 20
170.54682796140571
 30
0.0
  0
VERTEX
  5
2467
  8
0
 10
179.77708805987231
 20
170.54431627939519
 30
0.0
  0
VERTEX
  5
2468
  8
0
 10
179.64902228741059
 20
170.53903092140831
 30
0.0
  0
VERTEX
  5
2469
  8
0
 10
179.48799668251269
 20
170.53425086997791
 30
0.0
  0
VERTEX
  5
246A
  8
0
 10
179.2935982024355
 20
170.53124611045109
 30
0.0
  0
VERTEX
  5
246B
  8
0
 10
179.0653895078884
 20
170.53157700382729
 30
0.0
  0
VERTEX
  5
246C
  8
0
 10
178.80412410460531
 20
170.53707263337989
 30
0.0
  0
VERTEX
  5
246D
  8
0
 10
178.6629545973762
 20
170.54231742856359
 30
0.0
  0
VERTEX
  5
246E
  8
0
 10
178.51519964273569
 20
170.54951928365281
 30
0.0
  0
VERTEX
  5
246F
  8
0
 10
178.20076838927761
 20
170.57068934473619
 30
0.0
  0
VERTEX
  5
2470
  8
0
 10
177.86245573102991
 20
170.60238845180771
 30
0.0
  0
VERTEX
  5
2471
  8
0
 10
177.50181699268509
 20
170.64644139796351
 30
0.0
  0
VERTEX
  5
2472
  8
0
 10
177.12033647438301
 20
170.70468991330421
 30
0.0
  0
VERTEX
  5
2473
  8
0
 10
176.71626176464619
 20
170.77963794832229
 30
0.0
  0
VERTEX
  5
2474
  8
0
 10
176.502442234331
 20
170.82489424983251
 30
0.0
  0
VERTEX
  5
2475
  8
0
 10
176.46603215333789
 20
170.83299086721399
 30
0.0
  0
VERTEX
  5
2476
  8
0
 10
176.39255551721851
 20
170.8496778842858
 30
0.0
  0
VERTEX
  5
2477
  8
0
 10
176.31820859989151
 20
170.86703759708089
 30
0.0
  0
VERTEX
  5
2478
  8
0
 10
176.28071070041469
 20
170.87597513441989
 30
0.0
  0
VERTEX
  5
2479
  8
0
 10
176.24299754406971
 20
170.8850873772183
 30
0.0
  0
VERTEX
  5
247A
  8
0
 10
176.16692861335531
 20
170.90384481859689
 30
0.0
  0
VERTEX
  5
247B
  8
0
 10
176.09000817206751
 20
170.9233277461795
 30
0.0
  0
VERTEX
  5
247C
  8
0
 10
176.0122426650866
 20
170.94355422599611
 30
0.0
  0
VERTEX
  5
247D
  8
0
 10
175.93363859793789
 20
170.96454257637879
 30
0.0
  0
VERTEX
  5
247E
  8
0
 10
175.85420251737349
 20
170.98631138041571
 30
0.0
  0
VERTEX
  5
247F
  8
0
 10
175.8141745245893
 20
170.9974943354969
 30
0.0
  0
VERTEX
  5
2480
  8
0
 10
175.77394099275199
 20
171.00887949959059
 30
0.0
  0
VERTEX
  5
2481
  8
0
 10
175.69286059855779
 20
171.032266088548
 30
0.0
  0
VERTEX
  5
2482
  8
0
 10
175.61096789845001
 20
171.05649061088931
 30
0.0
  0
VERTEX
  5
2483
  8
0
 10
175.52826943127729
 20
171.0815728558706
 30
0.0
  0
VERTEX
  5
2484
  8
0
 10
175.4447716995461
 20
171.1075329558299
 30
0.0
  0
VERTEX
  5
2485
  8
0
 10
175.3604811608804
 20
171.13439140412299
 30
0.0
  0
VERTEX
  5
2486
  8
0
 10
175.3180405933785
 20
171.14816401625669
 30
0.0
  0
VERTEX
  5
2487
  8
0
 10
175.2754042230641
 20
171.16216907329601
 30
0.0
  0
VERTEX
  5
2488
  8
0
 10
175.18954724330351
 20
171.19088723315991
 30
0.0
  0
VERTEX
  5
2489
  8
0
 10
175.10291653239759
 20
171.2205675683725
 30
0.0
  0
VERTEX
  5
248A
  8
0
 10
175.05931298948539
 20
171.2357754457434
 30
0.0
  0
SEQEND
  5
248B
  8
0
  0
POLYLINE
  5
1DD8
  8
0
 66
     1
 10
0.0
 20
0.0
 30
0.0
  0
VERTEX
  5
248C
  8
0
 10
175.05931298948531
 20
171.23577544574351
 30
0.0
  0
VERTEX
  5
248D
  8
0
 10
175.03210773576521
 20
171.24535565774721
 30
0.0
  0
VERTEX
  5
248E
  8
0
 10
174.9774116383347
 20
171.264830620461
 30
0.0
  0
VERTEX
  5
248F
  8
0
 10
174.92234030664349
 20
171.28472912691461
 30
0.0
  0
VERTEX
  5
2490
  8
0
 10
174.8946660150292
 20
171.29483876460509
 30
0.0
  0
VERTEX
  5
2491
  8
0
 10
174.8669004215578
 20
171.3050561528477
 30
0.0
  0
VERTEX
  5
2492
  8
0
 10
174.8110986802298
 20
171.32581665782749
 30
0.0
  0
VERTEX
  5
2493
  8
0
 10
174.75494179140111
 20
171.3470155862428
 30
0.0
  0
VERTEX
  5
2494
  8
0
 10
174.69843647080151
 20
171.3686578684534
 30
0.0
  0
VERTEX
  5
2495
  8
0
 10
174.6415894366805
 20
171.39074842208009
 30
0.0
  0
VERTEX
  5
2496
  8
0
 10
174.58440740550901
 20
171.41329215342341
 30
0.0
  0
VERTEX
  5
2497
  8
0
 10
174.5556928634289
 20
171.4247354912369
 30
0.0
  0
VERTEX
  5
2498
  8
0
 10
174.52689708789029
 20
171.4362939589937
 30
0.0
  0
VERTEX
  5
2499
  8
0
 10
174.46906518472031
 20
171.4597587271345
 30
0.0
  0
VERTEX
  5
249A
  8
0
 10
174.410918383639
 20
171.48369133971789
 30
0.0
  0
VERTEX
  5
249B
  8
0
 10
174.35246335581371
 20
171.50809667388859
 30
0.0
  0
VERTEX
  5
249C
  8
0
 10
174.2937067530971
 20
171.5329796038302
 30
0.0
  0
VERTEX
  5
249D
  8
0
 10
174.23465520560171
 20
171.55834500252629
 30
0.0
  0
VERTEX
  5
249E
  8
0
 10
174.20502089303329
 20
171.571210150562
 30
0.0
  0
VERTEX
  5
249F
  8
0
 10
174.17531531973239
 20
171.5841977434842
 30
0.0
  0
VERTEX
  5
24A0
  8
0
 10
174.1156936767197
 20
171.6105427023885
 30
0.0
  0
VERTEX
  5
24A1
  8
0
 10
174.055796831691
 20
171.63738475865009
 30
0.0
  0
VERTEX
  5
24A2
  8
0
 10
174.02574724966269
 20
171.65099372447369
 30
0.0
  0
VERTEX
  5
24A3
  8
0
 10
173.9956313133236
 20
171.66472879681001
 30
0.0
  0
VERTEX
  5
24A4
  8
0
 10
173.93520362411101
 20
171.69257970776141
 30
0.0
  0
VERTEX
  5
24A5
  8
0
 10
173.87455737627289
 20
171.7209249119858
 30
0.0
  0
VERTEX
  5
24A6
  8
0
 10
173.84417510537631
 20
171.73527432221121
 30
0.0
  0
VERTEX
  5
24A7
  8
0
 10
173.81375508155571
 20
171.74974182664681
 30
0.0
  0
VERTEX
  5
24A8
  8
0
 10
173.75280632406009
 20
171.77903196794719
 30
0.0
  0
VERTEX
  5
24A9
  8
0
 10
173.69172017561209
 20
171.8087969767777
 30
0.0
  0
VERTEX
  5
24AA
  8
0
 10
173.6305056632618
 20
171.8390384012954
 30
0.0
  0
VERTEX
  5
24AB
  8
0
 10
173.56917176499911
 20
171.86975769865651
 30
0.0
  0
VERTEX
  5
24AC
  8
0
 10
173.50772740581709
 20
171.9009562367676
 30
0.0
  0
VERTEX
  5
24AD
  8
0
 10
173.47696657706561
 20
171.91673562460011
 30
0.0
  0
VERTEX
  5
24AE
  8
0
 10
173.44618145414981
 20
171.9326352960264
 30
0.0
  0
VERTEX
  5
24AF
  8
0
 10
173.38454271871609
 20
171.9647960710208
 30
0.0
  0
VERTEX
  5
24B0
  8
0
 10
173.32281994579611
 20
171.99743967215841
 30
0.0
  0
VERTEX
  5
24B1
  8
0
 10
173.26102181696481
 20
172.03056712719149
 30
0.0
  0
VERTEX
  5
24B2
  8
0
 10
173.19915694730491
 20
172.06417938260671
 30
0.0
  0
VERTEX
  5
24B3
  8
0
 10
173.13723388412171
 20
172.0982773048452
 30
0.0
  0
VERTEX
  5
24B4
  8
0
 10
173.1062531822588
 20
172.11550864015351
 30
0.0
  0
VERTEX
  5
24B5
  8
0
 10
173.07526110617411
 20
172.13286168131921
 30
0.0
  0
VERTEX
  5
24B6
  8
0
 10
173.01324702343811
 20
172.1679332211913
 30
0.0
  0
VERTEX
  5
24B7
  8
0
 10
172.9511999774123
 20
172.2034925558815
 30
0.0
  0
VERTEX
  5
24B8
  8
0
 10
172.88912824197621
 20
172.239540239268
 30
0.0
  0
VERTEX
  5
24B9
  8
0
 10
172.82704002480111
 20
172.27607674754941
 30
0.0
  0
VERTEX
  5
24BA
  8
0
 10
172.76494374720741
 20
172.313102311948
 30
0.0
  0
VERTEX
  5
24BB
  8
0
 10
172.73391156320491
 20
172.33178865310711
 30
0.0
  0
VERTEX
  5
24BC
  8
0
 10
172.70290622604199
 20
172.35058152757509
 30
0.0
  0
VERTEX
  5
24BD
  8
0
 10
172.6409806139435
 20
172.38848541295641
 30
0.0
  0
VERTEX
  5
24BE
  8
0
 10
172.57917589533801
 20
172.42681095385581
 30
0.0
  0
VERTEX
  5
24BF
  8
0
 10
172.51750095930919
 20
172.46555499703371
 30
0.0
  0
VERTEX
  5
24C0
  8
0
 10
172.45596459837469
 20
172.50471425109771
 30
0.0
  0
VERTEX
  5
24C1
  8
0
 10
172.39457550745911
 20
172.5442852872736
 30
0.0
  0
VERTEX
  5
24C2
  8
0
 10
172.3639388785262
 20
172.56422411476629
 30
0.0
  0
VERTEX
  5
24C3
  8
0
 10
172.33334228305449
 20
172.58426454008861
 30
0.0
  0
VERTEX
  5
24C4
  8
0
 10
172.27227342256489
 20
172.62464830795921
 30
0.0
  0
VERTEX
  5
24C5
  8
0
 10
172.21137732382189
 20
172.66543275368031
 30
0.0
  0
VERTEX
  5
24C6
  8
0
 10
172.15066228476729
 20
172.7066139048093
 30
0.0
  0
VERTEX
  5
24C7
  8
0
 10
172.09013650328819
 20
172.7481876539434
 30
0.0
  0
VERTEX
  5
24C8
  8
0
 10
172.02980807719399
 20
172.79014975888671
 30
0.0
  0
VERTEX
  5
24C9
  8
0
 10
171.99972037564061
 20
172.8112750822595
 30
0.0
  0
VERTEX
  5
24CA
  8
0
 10
171.96968500432371
 20
172.8324958427076
 30
0.0
  0
VERTEX
  5
24CB
  8
0
 10
171.90977518276969
 20
172.875221393685
 30
0.0
  0
VERTEX
  5
24CC
  8
0
 10
171.85008641120319
 20
172.9183217651462
 30
0.0
  0
VERTEX
  5
24CD
  8
0
 10
171.82032732916551
 20
172.94001101950801
 30
0.0
  0
VERTEX
  5
24CE
  8
0
 10
171.79062638929011
 20
172.96179217519739
 30
0.0
  0
VERTEX
  5
24CF
  8
0
 10
171.73140271817809
 20
173.00562770635159
 30
0.0
  0
VERTEX
  5
24D0
  8
0
 10
171.67242290104679
 20
173.04982330505661
 30
0.0
  0
VERTEX
  5
24D1
  8
0
 10
171.64302675582391
 20
173.0720545131631
 30
0.0
  0
VERTEX
  5
24D2
  8
0
 10
171.6136943436984
 20
173.0943737811302
 30
0.0
  0
VERTEX
  5
24D3
  8
0
 10
171.55522435518191
 20
173.13927380710749
 30
0.0
  0
VERTEX
  5
24D4
  8
0
 10
171.4970201763993
 20
173.1845178956342
 30
0.0
  0
VERTEX
  5
24D5
  8
0
 10
171.43914288101541
 20
173.23005772883059
 30
0.0
  0
VERTEX
  5
24D6
  8
0
 10
171.38164714447839
 20
173.27584782276489
 30
0.0
  0
VERTEX
  5
24D7
  8
0
 10
171.32453755569929
 20
173.3218812184758
 30
0.0
  0
VERTEX
  5
24D8
  8
0
 10
171.29612897758869
 20
173.34498695058841
 30
0.0
  0
VERTEX
  5
24D9
  8
0
 10
171.26781861910661
 20
173.36815084989939
 30
0.0
  0
VERTEX
  5
24DA
  8
0
 10
171.21149475688841
 20
173.4146495420097
 30
0.0
  0
VERTEX
  5
24DB
  8
0
 10
171.15557031081599
 20
173.46137000916119
 30
0.0
  0
VERTEX
  5
24DC
  8
0
 10
171.10004954365391
 20
173.50830485365319
 30
0.0
  0
VERTEX
  5
24DD
  8
0
 10
171.0449366401659
 20
173.55544656453779
 30
0.0
  0
VERTEX
  5
24DE
  8
0
 10
170.990235707728
 20
173.60278751668781
 30
0.0
  0
VERTEX
  5
24DF
  8
0
 10
170.9630409931118
 20
173.62653029399689
 30
0.0
  0
VERTEX
  5
24E0
  8
0
 10
170.93595077656039
 20
173.65031997014091
 30
0.0
  0
VERTEX
  5
24E1
  8
0
 10
170.88208579959479
 20
173.6980360697342
 30
0.0
  0
VERTEX
  5
24E2
  8
0
 10
170.82864465199441
 20
173.74592784504131
 30
0.0
  0
VERTEX
  5
24E3
  8
0
 10
170.77563113034361
 20
173.79398721061989
 30
0.0
  0
VERTEX
  5
24E4
  8
0
 10
170.72304895153181
 20
173.84220596657991
 30
0.0
  0
VERTEX
  5
24E5
  8
0
 10
170.6709017513499
 20
173.89057579947379
 30
0.0
  0
VERTEX
  5
24E6
  8
0
 10
170.64499238184939
 20
173.91481474106109
 30
0.0
  0
VERTEX
  5
24E7
  8
0
 10
170.61919308282469
 20
173.93908828351579
 30
0.0
  0
VERTEX
  5
24E8
  8
0
 10
170.56792641431679
 20
173.98773488212689
 30
0.0
  0
VERTEX
  5
24E9
  8
0
 10
170.51710512740621
 20
174.0365069498059
 30
0.0
  0
VERTEX
  5
24EA
  8
0
 10
170.46673251459251
 20
174.08539573432211
 30
0.0
  0
VERTEX
  5
24EB
  8
0
 10
170.41681177683799
 20
174.13439237922319
 30
0.0
  0
VERTEX
  5
24EC
  8
0
 10
170.36734602098011
 20
174.18348792664881
 30
0.0
  0
VERTEX
  5
24ED
  8
0
 10
170.34278470575151
 20
174.20806996250769
 30
0.0
  0
VERTEX
  5
24EE
  8
0
 10
170.31834009632689
 20
174.2326714642071
 30
0.0
  0
VERTEX
  5
24EF
  8
0
 10
170.2698591542389
 20
174.28187026584899
 30
0.0
  0
VERTEX
  5
24F0
  8
0
 10
170.22193303028061
 20
174.33104503221409
 30
0.0
  0
VERTEX
  5
24F1
  8
0
 10
170.17455982264701
 20
174.38018811575381
 30
0.0
  0
VERTEX
  5
24F2
  8
0
 10
170.12773763235791
 20
174.42929184023899
 30
0.0
  0
VERTEX
  5
24F3
  8
0
 10
170.08146456434861
 20
174.4783484977884
 30
0.0
  0
VERTEX
  5
24F4
  8
0
 10
170.05853336019661
 20
174.50285675849301
 30
0.0
  0
VERTEX
  5
24F5
  8
0
 10
170.03573872797219
 20
174.5273503464723
 30
0.0
  0
VERTEX
  5
24F6
  8
0
 10
169.9905582369644
 20
174.57628960848231
 30
0.0
  0
VERTEX
  5
24F7
  8
0
 10
169.94592120892
 20
174.6251584688606
 30
0.0
  0
VERTEX
  5
24F8
  8
0
 10
169.92380590608411
 20
174.6495640459157
 30
0.0
  0
VERTEX
  5
24F9
  8
0
 10
169.90182576433111
 20
174.67394907477291
 30
0.0
  0
VERTEX
  5
24FA
  8
0
 10
169.85827002523649
 20
174.72265353531
 30
0.0
  0
VERTEX
  5
24FB
  8
0
 10
169.81525211353201
 20
174.77126392179869
 30
0.0
  0
VERTEX
  5
24FC
  8
0
 10
169.7939442555215
 20
174.79553134942489
 30
0.0
  0
VERTEX
  5
24FD
  8
0
 10
169.77277014898729
 20
174.8197722685986
 30
0.0
  0
VERTEX
  5
24FE
  8
0
 10
169.7308222470183
 20
174.8681705743623
 30
0.0
  0
VERTEX
  5
24FF
  8
0
 10
169.68940651625729
 20
174.91645080373161
 30
0.0
  0
VERTEX
  5
2500
  8
0
 10
169.64852105596731
 20
174.96460488944211
 30
0.0
  0
VERTEX
  5
2501
  8
0
 10
169.6081639533374
 20
175.01262473480719
 30
0.0
  0
VERTEX
  5
2502
  8
0
 10
169.56833328070331
 20
175.06050221655079
 30
0.0
  0
VERTEX
  5
2503
  8
0
 10
169.5486147484838
 20
175.08438502603951
 30
0.0
  0
VERTEX
  5
2504
  8
0
 10
169.5290270927251
 20
175.1082291879579
 30
0.0
  0
VERTEX
  5
2505
  8
0
 10
169.49024342356029
 20
175.1557974823113
 30
0.0
  0
VERTEX
  5
2506
  8
0
 10
169.45198028406261
 20
175.20319891658269
 30
0.0
  0
VERTEX
  5
2507
  8
0
 10
169.41423565903591
 20
175.25042529534579
 30
0.0
  0
VERTEX
  5
2508
  8
0
 10
169.37700750457191
 20
175.29746841488051
 30
0.0
  0
VERTEX
  5
2509
  8
0
 10
169.34029374549459
 20
175.34432006743609
 30
0.0
  0
VERTEX
  5
250A
  8
0
 10
169.32212910658379
 20
175.3676715286511
 30
0.0
  0
VERTEX
  5
250B
  8
0
 10
169.3040922729347
 20
175.39097204562279
 30
0.0
  0
VERTEX
  5
250C
  8
0
 10
169.26840094205349
 20
175.437416146902
 30
0.0
  0
VERTEX
  5
250D
  8
0
 10
169.233217569934
 20
175.48364417814551
 30
0.0
  0
VERTEX
  5
250E
  8
0
 10
169.2158156753579
 20
175.50667461085609
 30
0.0
  0
SEQEND
  5
250F
  8
0
  0
POLYLINE
  5
1DD9
  8
0
 66
     1
 10
0.0
 20
0.0
 30
0.0
  0
VERTEX
  5
2510
  8
0
 10
169.2158156753579
 20
175.50667461085621
 30
0.0
  0
VERTEX
  5
2511
  8
0
 10
169.1874028555896
 20
175.5445165976262
 30
0.0
  0
VERTEX
  5
2512
  8
0
 10
169.1315029011042
 20
175.61984965776551
 30
0.0
  0
VERTEX
  5
2513
  8
0
 10
169.0768211972098
 20
175.69470145230991
 30
0.0
  0
VERTEX
  5
2514
  8
0
 10
169.04993127959671
 20
175.73194188020349
 30
0.0
  0
VERTEX
  5
2515
  8
0
 10
169.02333887859709
 20
175.76905601030481
 30
0.0
  0
VERTEX
  5
2516
  8
0
 10
168.97103743739791
 20
175.84289746063931
 30
0.0
  0
VERTEX
  5
2517
  8
0
 10
168.91989870012941
 20
175.9162100374391
 30
0.0
  0
VERTEX
  5
2518
  8
0
 10
168.86990480403571
 20
175.9889780892812
 30
0.0
  0
VERTEX
  5
2519
  8
0
 10
168.82103817336591
 20
176.0611860916089
 30
0.0
  0
VERTEX
  5
251A
  8
0
 10
168.77328149603039
 20
176.13281866177741
 30
0.0
  0
VERTEX
  5
251B
  8
0
 10
168.74981404634761
 20
176.1684143957167
 30
0.0
  0
VERTEX
  5
251C
  8
0
 10
168.72661770099791
 20
176.20386057621329
 30
0.0
  0
VERTEX
  5
251D
  8
0
 10
168.68102993671479
 20
176.2742967892199
 30
0.0
  0
VERTEX
  5
251E
  8
0
 10
168.6365015507688
 20
176.3441124530132
 30
0.0
  0
VERTEX
  5
251F
  8
0
 10
168.5930160709548
 20
176.41329293862171
 30
0.0
  0
VERTEX
  5
2520
  8
0
 10
168.55055718785371
 20
176.4818238573263
 30
0.0
  0
VERTEX
  5
2521
  8
0
 10
168.5091087389911
 20
176.5496910823654
 30
0.0
  0
VERTEX
  5
2522
  8
0
 10
168.48875841327069
 20
176.583371472126
 30
0.0
  0
VERTEX
  5
2523
  8
0
 10
168.46865469460579
 20
176.61688077066199
 30
0.0
  0
VERTEX
  5
2524
  8
0
 10
168.4291774404935
 20
176.68338227609539
 30
0.0
  0
VERTEX
  5
2525
  8
0
 10
168.3906217152738
 20
176.74925039782599
 30
0.0
  0
VERTEX
  5
2526
  8
0
 10
168.3716781377334
 20
176.78195488318269
 30
0.0
  0
VERTEX
  5
2527
  8
0
 10
168.26256962531249
 20
176.97491143733041
 30
0.0
  0
VERTEX
  5
2528
  8
0
 10
168.0664556571553
 20
177.3434147039352
 30
0.0
  0
VERTEX
  5
2529
  8
0
 10
167.89722907369361
 20
177.68754347566301
 30
0.0
  0
VERTEX
  5
252A
  8
0
 10
167.7514585277948
 20
178.00738848191051
 30
0.0
  0
VERTEX
  5
252B
  8
0
 10
167.62384358798121
 20
178.3088276681261
 30
0.0
  0
VERTEX
  5
252C
  8
0
 10
167.51260234062289
 20
178.59123585299051
 30
0.0
  0
VERTEX
  5
252D
  8
0
 10
167.46274296681949
 20
178.72475198602379
 30
0.0
  0
VERTEX
  5
252E
  8
0
 10
167.4165283520592
 20
178.85284737061309
 30
0.0
  0
VERTEX
  5
252F
  8
0
 10
167.33446714871101
 20
179.09188510872309
 30
0.0
  0
VERTEX
  5
2530
  8
0
 10
167.2653316150824
 20
179.30655864753049
 30
0.0
  0
VERTEX
  5
2531
  8
0
 10
167.20812249197061
 20
179.4950597952849
 30
0.0
  0
VERTEX
  5
2532
  8
0
 10
167.16202070958261
 20
179.65531720331481
 30
0.0
  0
VERTEX
  5
2533
  8
0
 10
167.126674200314
 20
179.78398278384671
 30
0.0
  0
VERTEX
  5
2534
  8
0
 10
167.11274166770681
 20
179.8362298559143
 30
0.0
  0
VERTEX
  5
2535
  8
0
 10
167.10114724555169
 20
179.88041644749279
 30
0.0
  0
VERTEX
  5
2536
  8
0
 10
167.0846072554651
 20
179.94462082110459
 30
0.0
  0
VERTEX
  5
2537
  8
0
 10
167.07648822972769
 20
179.97666357631161
 30
0.0
  0
VERTEX
  5
2538
  8
0
 10
167.07548060067819
 20
179.98066529866631
 30
0.0
  0
SEQEND
  5
2539
  8
0
  0
POLYLINE
  5
1DDA
  8
0
 66
     1
 10
0.0
 20
0.0
 30
0.0
  0
VERTEX
  5
253A
  8
0
 10
179.56486380706841
 20
141.1684412898677
 30
0.0
  0
VERTEX
  5
253B
  8
0
 10
179.56339853577859
 20
141.1721530380041
 30
0.0
  0
VERTEX
  5
253C
  8
0
 10
179.55171839695751
 20
141.2018654623518
 30
0.0
  0
VERTEX
  5
253D
  8
0
 10
179.52858514574879
 20
141.2613814611301
 30
0.0
  0
VERTEX
  5
253E
  8
0
 10
179.51285002313421
 20
141.30238657462201
 30
0.0
  0
VERTEX
  5
253F
  8
0
 10
179.49439865528711
 20
141.3510273878662
 30
0.0
  0
VERTEX
  5
2540
  8
0
 10
179.4496694650378
 20
141.4715591712139
 30
0.0
  0
VERTEX
  5
2541
  8
0
 10
179.39521847788109
 20
141.6236776812213
 30
0.0
  0
VERTEX
  5
2542
  8
0
 10
179.3321337756264
 20
141.80816697426459
 30
0.0
  0
VERTEX
  5
2543
  8
0
 10
179.26177228427539
 20
142.02592731553139
 30
0.0
  0
VERTEX
  5
2544
  8
0
 10
179.18624721376651
 20
142.27635605429401
 30
0.0
  0
VERTEX
  5
2545
  8
0
 10
179.14764390987659
 20
142.41224129614471
 30
0.0
  0
VERTEX
  5
2546
  8
0
 10
179.10887107166701
 20
142.5549841161511
 30
0.0
  0
VERTEX
  5
2547
  8
0
 10
179.03192324581639
 20
142.8605294399006
 30
0.0
  0
VERTEX
  5
2548
  8
0
 10
178.9576180082739
 20
143.1920121738398
 30
0.0
  0
VERTEX
  5
2549
  8
0
 10
178.888167136813
 20
143.54852369278501
 30
0.0
  0
VERTEX
  5
254A
  8
0
 10
178.82577743314971
 20
143.92922696783521
 30
0.0
  0
VERTEX
  5
254B
  8
0
 10
178.77231147893951
 20
144.3363505480603
 30
0.0
  0
VERTEX
  5
254C
  8
0
 10
178.74933993146379
 20
144.55344580538431
 30
0.0
  0
VERTEX
  5
254D
  8
0
 10
178.74579855036251
 20
144.5905334107828
 30
0.0
  0
VERTEX
  5
254E
  8
0
 10
178.7389820042219
 20
144.66548404372759
 30
0.0
  0
VERTEX
  5
254F
  8
0
 10
178.73253553694479
 20
144.74146820941741
 30
0.0
  0
VERTEX
  5
2550
  8
0
 10
178.7294568121707
 20
144.77984771451409
 30
0.0
  0
VERTEX
  5
2551
  8
0
 10
178.72647751312849
 20
144.81848541295619
 30
0.0
  0
VERTEX
  5
2552
  8
0
 10
178.72082654478001
 20
144.8965351114602
 30
0.0
  0
VERTEX
  5
2553
  8
0
 10
178.7156014933511
 20
144.975616735828
 30
0.0
  0
VERTEX
  5
2554
  8
0
 10
178.71082147292969
 20
145.05572971287981
 30
0.0
  0
VERTEX
  5
2555
  8
0
 10
178.70650585466461
 20
145.13687348765981
 30
0.0
  0
VERTEX
  5
2556
  8
0
 10
178.7026742724922
 20
145.21904754565529
 30
0.0
  0
VERTEX
  5
2557
  8
0
 10
178.7009462041176
 20
145.2605207865212
 30
0.0
  0
VERTEX
  5
2558
  8
0
 10
178.69934663022579
 20
145.3022514346417
 30
0.0
  0
VERTEX
  5
2559
  8
0
 10
178.696543110058
 20
145.3864847858124
 30
0.0
  0
VERTEX
  5
255A
  8
0
 10
178.69428418250399
 20
145.47174733380109
 30
0.0
  0
VERTEX
  5
255B
  8
0
 10
178.69259061780161
 20
145.55803893514459
 30
0.0
  0
VERTEX
  5
255C
  8
0
 10
178.69148349875391
 20
145.64535958467741
 30
0.0
  0
VERTEX
  5
255D
  8
0
 10
178.6909842349734
 20
145.73370942928159
 30
0.0
  0
VERTEX
  5
255E
  8
0
 10
178.69096933248059
 20
145.77827038986669
 30
0.0
  0
VERTEX
  5
255F
  8
0
 10
178.69111457845281
 20
145.82308877835709
 30
0.0
  0
VERTEX
  5
2560
  8
0
 10
178.69189664034519
 20
145.91349811030619
 30
0.0
  0
VERTEX
  5
2561
  8
0
 10
178.6933529087928
 20
146.0049380742667
 30
0.0
  0
VERTEX
  5
2562
  8
0
 10
178.69434100568151
 20
146.05104479197391
 30
0.0
  0
SEQEND
  5
2563
  8
0
  0
POLYLINE
  5
1DDB
  8
0
 66
     1
 10
0.0
 20
0.0
 30
0.0
  0
VERTEX
  5
2564
  8
0
 10
178.69434100568151
 20
146.05104479197411
 30
0.0
  0
VERTEX
  5
2565
  8
0
 10
178.69504553321451
 20
146.07988250018781
 30
0.0
  0
VERTEX
  5
2566
  8
0
 10
178.69666551530199
 20
146.13792626097199
 30
0.0
  0
VERTEX
  5
2567
  8
0
 10
178.69857239709879
 20
146.1964571291947
 30
0.0
  0
VERTEX
  5
2568
  8
0
 10
178.69963554683849
 20
146.22590371567719
 30
0.0
  0
VERTEX
  5
2569
  8
0
 10
178.70077296588579
 20
146.25547026072121
 30
0.0
  0
VERTEX
  5
256A
  8
0
 10
178.7032739978853
 20
146.3149607904862
 30
0.0
  0
VERTEX
  5
256B
  8
0
 10
178.70608225773509
 20
146.37492383728249
 30
0.0
  0
VERTEX
  5
256C
  8
0
 10
178.709204498139
 20
146.4353545085101
 30
0.0
  0
VERTEX
  5
256D
  8
0
 10
178.71264745969199
 20
146.49624790484819
 30
0.0
  0
VERTEX
  5
256E
  8
0
 10
178.7164178708818
 20
146.5575991248086
 30
0.0
  0
VERTEX
  5
256F
  8
0
 10
178.71842796947149
 20
146.5884448874248
 30
0.0
  0
VERTEX
  5
2570
  8
0
 10
178.72052244826179
 20
146.61940326912969
 30
0.0
  0
VERTEX
  5
2571
  8
0
 10
178.72496789678931
 20
146.68165544496651
 30
0.0
  0
VERTEX
  5
2572
  8
0
 10
178.72976091032459
 20
146.7443507698311
 30
0.0
  0
VERTEX
  5
2573
  8
0
 10
178.73490817228
 20
146.80748437523749
 30
0.0
  0
VERTEX
  5
2574
  8
0
 10
178.7404163564058
 20
146.8710514100022
 30
0.0
  0
VERTEX
  5
2575
  8
0
 10
178.74629212770341
 20
146.93504704315251
 30
0.0
  0
VERTEX
  5
2576
  8
0
 10
178.7493699392115
 20
146.9672040805861
 30
0.0
  0
VERTEX
  5
2577
  8
0
 10
178.7525421434454
 20
146.99946646639151
 30
0.0
  0
VERTEX
  5
2578
  8
0
 10
178.75917305428581
 20
147.06430489607331
 30
0.0
  0
VERTEX
  5
2579
  8
0
 10
178.76619150543871
 20
147.12955757463541
 30
0.0
  0
VERTEX
  5
257A
  8
0
 10
178.7698481340752
 20
147.16233777786121
 30
0.0
  0
VERTEX
  5
257B
  8
0
 10
178.77360413790291
 20
147.19521977144299
 30
0.0
  0
VERTEX
  5
257C
  8
0
 10
178.78141758970341
 20
147.26128678299469
 30
0.0
  0
VERTEX
  5
257D
  8
0
 10
178.7896362515896
 20
147.3277361676825
 30
0.0
  0
VERTEX
  5
257E
  8
0
 10
178.79389569084049
 20
147.36107315239411
 30
0.0
  0
VERTEX
  5
257F
  8
0
 10
178.79825552124049
 20
147.3944802753247
 30
0.0
  0
VERTEX
  5
2580
  8
0
 10
178.80727848020291
 20
147.46150076095921
 30
0.0
  0
VERTEX
  5
2581
  8
0
 10
178.81670930949991
 20
147.52878927947441
 30
0.0
  0
VERTEX
  5
2582
  8
0
 10
178.82655208076781
 20
147.5963374967296
 30
0.0
  0
VERTEX
  5
2583
  8
0
 10
178.83681075645379
 20
147.664137094399
 30
0.0
  0
VERTEX
  5
2584
  8
0
 10
178.8474891901507
 20
147.73217977453939
 30
0.0
  0
VERTEX
  5
2585
  8
0
 10
178.8529869908451
 20
147.76628968405569
 30
0.0
  0
VERTEX
  5
2586
  8
0
 10
178.8585911270489
 20
147.80045726384179
 30
0.0
  0
VERTEX
  5
2587
  8
0
 10
178.87012020449239
 20
147.86896131753409
 30
0.0
  0
VERTEX
  5
2588
  8
0
 10
178.88207995261689
 20
147.9376837229
 30
0.0
  0
VERTEX
  5
2589
  8
0
 10
178.8944737950527
 20
148.00661630237971
 30
0.0
  0
VERTEX
  5
258A
  8
0
 10
178.907305049668
 20
148.07575091622411
 30
0.0
  0
VERTEX
  5
258B
  8
0
 10
178.92057692933111
 20
148.1450794646714
 30
0.0
  0
VERTEX
  5
258C
  8
0
 10
178.9273790790522
 20
148.17981394455219
 30
0.0
  0
VERTEX
  5
258D
  8
0
 10
178.93429254266519
 20
148.21459388962049
 30
0.0
  0
VERTEX
  5
258E
  8
0
 10
178.94845489477211
 20
148.2842861757768
 30
0.0
  0
VERTEX
  5
258F
  8
0
 10
178.96306688789679
 20
148.35414835124911
 30
0.0
  0
VERTEX
  5
2590
  8
0
 10
178.97813132200599
 20
148.42417248757889
 30
0.0
  0
VERTEX
  5
2591
  8
0
 10
178.99365089525099
 20
148.49435069918749
 30
0.0
  0
VERTEX
  5
2592
  8
0
 10
179.00962820428961
 20
148.56467514222791
 30
0.0
  0
VERTEX
  5
2593
  8
0
 10
179.017789293475
 20
148.5998897603254
 30
0.0
  0
VERTEX
  5
2594
  8
0
 10
179.0260657444332
 20
148.63513801283401
 30
0.0
  0
VERTEX
  5
2595
  8
0
 10
179.04296590959541
 20
148.70573154476239
 30
0.0
  0
VERTEX
  5
2596
  8
0
 10
179.06033099200729
 20
148.7764480064256
 30
0.0
  0
VERTEX
  5
2597
  8
0
 10
179.07814869292591
 20
148.8472228477078
 30
0.0
  0
VERTEX
  5
2598
  8
0
 10
179.0964027456445
 20
148.91798218042931
 30
0.0
  0
VERTEX
  5
2599
  8
0
 10
179.1150923293371
 20
148.98871655278711
 30
0.0
  0
VERTEX
  5
259A
  8
0
 10
179.12460014968121
 20
149.02407146187281
 30
0.0
  0
VERTEX
  5
259B
  8
0
 10
179.13421647759219
 20
149.05941663697359
 30
0.0
  0
VERTEX
  5
259C
  8
0
 10
179.15377406060861
 20
149.1300731570297
 30
0.0
  0
VERTEX
  5
259D
  8
0
 10
179.1737637855004
 20
149.20067688950121
 30
0.0
  0
VERTEX
  5
259E
  8
0
 10
179.19418419656731
 20
149.2712186639499
 30
0.0
  0
VERTEX
  5
259F
  8
0
 10
179.2150336755254
 20
149.34168936332901
 30
0.0
  0
VERTEX
  5
25A0
  8
0
 10
179.23631044169599
 20
149.41207992423239
 30
0.0
  0
VERTEX
  5
25A1
  8
0
 10
179.2471084566547
 20
149.44724233514381
 30
0.0
  0
VERTEX
  5
25A2
  8
0
 10
179.25801255214679
 20
149.4823813370289
 30
0.0
  0
VERTEX
  5
25A3
  8
0
 10
179.28013790178801
 20
149.55258464589471
 30
0.0
  0
VERTEX
  5
25A4
  8
0
 10
179.302684223417
 20
149.62268094875461
 30
0.0
  0
VERTEX
  5
25A5
  8
0
 10
179.31411449589891
 20
149.65768620569889
 30
0.0
  0
VERTEX
  5
25A6
  8
0
 10
179.3256490877159
 20
149.69266139714699
 30
0.0
  0
VERTEX
  5
25A7
  8
0
 10
179.34902990319861
 20
149.7625171960255
 30
0.0
  0
VERTEX
  5
25A8
  8
0
 10
179.3728239161118
 20
149.83223960351069
 30
0.0
  0
VERTEX
  5
25A9
  8
0
 10
179.38487496665221
 20
149.86704806811241
 30
0.0
  0
VERTEX
  5
25AA
  8
0
 10
179.3970282102899
 20
149.9018199306077
 30
0.0
  0
VERTEX
  5
25AB
  8
0
 10
179.42163970696711
 20
149.97124954090009
 30
0.0
  0
VERTEX
  5
25AC
  8
0
 10
179.44665516455049
 20
150.0405198502383
 30
0.0
  0
VERTEX
  5
25AD
  8
0
 10
179.47207117835831
 20
150.10962232643149
 30
0.0
  0
VERTEX
  5
25AE
  8
0
 10
179.49787721860309
 20
150.17853006497339
 30
0.0
  0
VERTEX
  5
25AF
  8
0
 10
179.52403668519111
 20
150.2471501428528
 30
0.0
  0
VERTEX
  5
25B0
  8
0
 10
179.53724577103199
 20
150.28134628768379
 30
0.0
  0
VERTEX
  5
25B1
  8
0
 10
179.55054017898391
 20
150.3154654529159
 30
0.0
  0
VERTEX
  5
25B2
  8
0
 10
179.57738217518281
 20
150.383469710588
 30
0.0
  0
VERTEX
  5
25B3
  8
0
 10
179.60455702236831
 20
150.4511566742944
 30
0.0
  0
VERTEX
  5
25B4
  8
0
 10
179.6320589414612
 20
150.51852014329731
 30
0.0
  0
VERTEX
  5
25B5
  8
0
 10
179.6598820247832
 20
150.5855539560186
 30
0.0
  0
VERTEX
  5
25B6
  8
0
 10
179.68802023524191
 20
150.65225198884161
 30
0.0
  0
VERTEX
  5
25B7
  8
0
 10
179.70220559100119
 20
150.68547318435321
 30
0.0
  0
VERTEX
  5
25B8
  8
0
 10
179.7164674056599
 20
150.71860815538631
 30
0.0
  0
VERTEX
  5
25B9
  8
0
 10
179.74521723826541
 20
150.78461640624619
 30
0.0
  0
VERTEX
  5
25BA
  8
0
 10
179.7742633043637
 20
150.85027072917441
 30
0.0
  0
VERTEX
  5
25BB
  8
0
 10
179.80359904420411
 20
150.91556514970361
 30
0.0
  0
VERTEX
  5
25BC
  8
0
 10
179.83321776705839
 20
150.980493732181
 30
0.0
  0
VERTEX
  5
25BD
  8
0
 10
179.86311265152131
 20
151.0450505811998
 30
0.0
  0
VERTEX
  5
25BE
  8
0
 10
179.87816148706139
 20
151.07718777478911
 30
0.0
  0
VERTEX
  5
25BF
  8
0
 10
179.89327674604479
 20
151.1092298434032
 30
0.0
  0
VERTEX
  5
25C0
  8
0
 10
179.92370296971569
 20
151.17302570963781
 30
0.0
  0
VERTEX
  5
25C1
  8
0
 10
179.95438411328081
 20
151.23643241743031
 30
0.0
  0
VERTEX
  5
25C2
  8
0
 10
179.98531284042861
 20
151.2994442537609
 30
0.0
  0
VERTEX
  5
25C3
  8
0
 10
180.0164816893263
 20
151.36205555810241
 30
0.0
  0
VERTEX
  5
25C4
  8
0
 10
180.0478830744166
 20
151.42426072569901
 30
0.0
  0
VERTEX
  5
25C5
  8
0
 10
180.06366856421579
 20
151.45520927283519
 30
0.0
  0
VERTEX
  5
25C6
  8
0
 10
180.0795092884689
 20
151.48605421104941
 30
0.0
  0
VERTEX
  5
25C7
  8
0
 10
180.11132331767379
 20
151.54737465283719
 30
0.0
  0
VERTEX
  5
25C8
  8
0
 10
180.14328561260911
 20
151.6081591525197
 30
0.0
  0
VERTEX
  5
25C9
  8
0
 10
180.17538829498511
 20
151.66840715669579
 30
0.0
  0
VERTEX
  5
25CA
  8
0
 10
180.20762347414379
 20
151.72811812618801
 30
0.0
  0
VERTEX
  5
25CB
  8
0
 10
180.23998323127839
 20
151.78729150829591
 30
0.0
  0
VERTEX
  5
25CC
  8
0
 10
180.2562073437243
 20
151.81667642733549
 30
0.0
  0
VERTEX
  5
25CD
  8
0
 10
180.27245961727689
 20
151.84592673551879
 30
0.0
  0
VERTEX
  5
25CE
  8
0
 10
180.30504465093699
 20
151.9040232249686
 30
0.0
  0
VERTEX
  5
25CF
  8
0
 10
180.33773031756229
 20
151.96158037842289
 30
0.0
  0
VERTEX
  5
25D0
  8
0
 10
180.3541083742266
 20
151.99015651316131
 30
0.0
  0
VERTEX
  5
25D1
  8
0
 10
180.3705085679411
 20
152.0185975829682
 30
0.0
  0
VERTEX
  5
25D2
  8
0
 10
180.40337131770761
 20
152.07507421217909
 30
0.0
  0
VERTEX
  5
25D3
  8
0
 10
180.43631044708351
 20
152.1310096277823
 30
0.0
  0
VERTEX
  5
25D4
  8
0
 10
180.45280610703159
 20
152.15877417828861
 30
0.0
  0
VERTEX
  5
25D5
  8
0
 10
180.46931780099169
 20
152.1864031817523
 30
0.0
  0
VERTEX
  5
25D6
  8
0
 10
180.50238518953631
 20
152.2412542187883
 30
0.0
  0
VERTEX
  5
25D7
  8
0
 10
180.53550438883551
 20
152.2955620791198
 30
0.0
  0
VERTEX
  5
25D8
  8
0
 10
180.56866714219569
 20
152.34932610159231
 30
0.0
  0
VERTEX
  5
25D9
  8
0
 10
180.6018651616117
 20
152.40254562698479
 30
0.0
  0
VERTEX
  5
25DA
  8
0
 10
180.63509012957499
 20
152.45522000151081
 30
0.0
  0
VERTEX
  5
25DB
  8
0
 10
180.6517101124843
 20
152.4813525552708
 30
0.0
  0
VERTEX
  5
25DC
  8
0
 10
180.66833370117379
 20
152.50734858046081
 30
0.0
  0
VERTEX
  5
25DD
  8
0
 10
180.7015875064653
 20
152.5589307319411
 30
0.0
  0
VERTEX
  5
25DE
  8
0
 10
180.7348431530975
 20
152.6099658406691
 30
0.0
  0
VERTEX
  5
25DF
  8
0
 10
180.76809222916279
 20
152.6604533117881
 30
0.0
  0
VERTEX
  5
25E0
  8
0
 10
180.80132630625849
 20
152.7103925746635
 30
0.0
  0
VERTEX
  5
25E1
  8
0
 10
180.83453694273501
 20
152.75978308662931
 30
0.0
  0
VERTEX
  5
25E2
  8
0
 10
180.85113082993959
 20
152.7842723999897
 30
0.0
  0
VERTEX
  5
25E3
  8
0
 10
180.8677156871062
 20
152.80862433665311
 30
0.0
  0
VERTEX
  5
25E4
  8
0
 10
180.90085408160181
 20
152.85691584889079
 30
0.0
  0
VERTEX
  5
25E5
  8
0
 10
180.9339436658388
 20
152.9046571861073
 30
0.0
  0
VERTEX
  5
25E6
  8
0
 10
180.95046751045169
 20
152.9283214138097
 30
0.0
  0
SEQEND
  5
25E7
  8
0
  0
POLYLINE
  5
1DDC
  8
0
 66
     1
 10
0.0
 20
0.0
 30
0.0
  0
VERTEX
  5
25E8
  8
0
 10
180.95046751045169
 20
152.92832141380981
 30
0.0
  0
VERTEX
  5
25E9
  8
0
 10
180.97756684306651
 20
152.9668808418501
 30
0.0
  0
VERTEX
  5
25EA
  8
0
 10
181.0317174367319
 20
153.04301773349911
 30
0.0
  0
VERTEX
  5
25EB
  8
0
 10
181.085786307088
 20
153.1178561061858
 30
0.0
  0
VERTEX
  5
25EC
  8
0
 10
181.11278353384299
 20
153.1547923118097
 30
0.0
  0
VERTEX
  5
25ED
  8
0
 10
181.1397524804614
 20
153.19140860690561
 30
0.0
  0
VERTEX
  5
25EE
  8
0
 10
181.19359518501159
 20
153.26368758992939
 30
0.0
  0
VERTEX
  5
25EF
  8
0
 10
181.24729385004221
 20
153.3347051406997
 30
0.0
  0
VERTEX
  5
25F0
  8
0
 10
181.30082810858821
 20
153.40447310124611
 30
0.0
  0
VERTEX
  5
25F1
  8
0
 10
181.35417780286369
 20
153.47300309645681
 30
0.0
  0
VERTEX
  5
25F2
  8
0
 10
181.40732299217819
 20
153.54030656064049
 30
0.0
  0
VERTEX
  5
25F3
  8
0
 10
181.43381272779851
 20
153.5735018712092
 30
0.0
  0
VERTEX
  5
25F4
  8
0
 10
181.46024396295141
 20
153.606394763906
 30
0.0
  0
VERTEX
  5
25F5
  8
0
 10
181.512921240482
 20
153.67127883797201
 30
0.0
  0
VERTEX
  5
25F6
  8
0
 10
181.56533560215709
 20
153.7349698010938
 30
0.0
  0
VERTEX
  5
25F7
  8
0
 10
181.6174680918096
 20
153.79747858186249
 30
0.0
  0
VERTEX
  5
25F8
  8
0
 10
181.66930003496731
 20
153.8588160416906
 30
0.0
  0
VERTEX
  5
25F9
  8
0
 10
181.7208130547574
 20
153.91899299585049
 30
0.0
  0
VERTEX
  5
25FA
  8
0
 10
181.7464443110099
 20
153.9486496552926
 30
0.0
  0
VERTEX
  5
25FB
  8
0
 10
181.77198910135311
 20
153.97802024798341
 30
0.0
  0
VERTEX
  5
25FC
  8
0
 10
181.82284805914639
 20
154.0359511594439
 30
0.0
  0
VERTEX
  5
25FD
  8
0
 10
181.8734107624814
 20
154.0928376995422
 30
0.0
  0
VERTEX
  5
25FE
  8
0
 10
181.89857718957069
 20
154.12089343247129
 30
0.0
  0
VERTEX
  5
25FF
  8
0
 10
182.0478722506769
 20
154.28390274918701
 30
0.0
  0
VERTEX
  5
2600
  8
0
 10
182.3367163544998
 20
154.58357302943941
 30
0.0
  0
VERTEX
  5
2601
  8
0
 10
182.6106320925787
 20
154.85016684445159
 30
0.0
  0
VERTEX
  5
2602
  8
0
 10
182.87028240036099
 20
155.088427719609
 30
0.0
  0
VERTEX
  5
2603
  8
0
 10
183.1188261970218
 20
155.3043159496745
 30
0.0
  0
VERTEX
  5
2604
  8
0
 10
183.3543068232816
 20
155.49859550712901
 30
0.0
  0
VERTEX
  5
2605
  8
0
 10
183.46649769174039
 20
155.5878220909141
 30
0.0
  0
VERTEX
  5
2606
  8
0
 10
183.5746417673609
 20
155.67186810781081
 30
0.0
  0
VERTEX
  5
2607
  8
0
 10
183.77774876646899
 20
155.82467995122681
 30
0.0
  0
VERTEX
  5
2608
  8
0
 10
183.96154885367559
 20
155.9575066382433
 30
0.0
  0
VERTEX
  5
2609
  8
0
 10
184.12396847987691
 20
156.0707320470693
 30
0.0
  0
VERTEX
  5
260A
  8
0
 10
184.26222724543541
 20
156.16414617716791
 30
0.0
  0
VERTEX
  5
260B
  8
0
 10
184.3733773672557
 20
156.2373177094606
 30
0.0
  0
VERTEX
  5
260C
  8
0
 10
184.41863047001931
 20
156.26662561033319
 30
0.0
  0
VERTEX
  5
260D
  8
0
 10
184.4569541274235
 20
156.2912298415732
 30
0.0
  0
VERTEX
  5
260E
  8
0
 10
184.5127227196302
 20
156.3266832803659
 30
0.0
  0
VERTEX
  5
260F
  8
0
 10
184.5405978523286
 20
156.34424951505761
 30
0.0
  0
VERTEX
  5
2610
  8
0
 10
184.54408559620461
 20
156.34644018884751
 30
0.0
  0
SEQEND
  5
2611
  8
0
  0
POLYLINE
  5
1DDD
  8
0
 66
     1
 10
0.0
 20
0.0
 30
0.0
  0
VERTEX
  5
2612
  8
0
 10
155.86552423830949
 20
134.81141793948481
 30
0.0
  0
VERTEX
  5
2613
  8
0
 10
155.89317950189081
 20
134.81966257929039
 30
0.0
  0
VERTEX
  5
2614
  8
0
 10
155.94889720757669
 20
134.83606248219601
 30
0.0
  0
VERTEX
  5
2615
  8
0
 10
156.0051553755695
 20
134.85233662074481
 30
0.0
  0
VERTEX
  5
2616
  8
0
 10
156.0334862082029
 20
134.86042405746369
 30
0.0
  0
VERTEX
  5
2617
  8
0
 10
156.06195104240419
 20
134.86847708946439
 30
0.0
  0
VERTEX
  5
2618
  8
0
 10
156.1192812112464
 20
134.88447599541689
 30
0.0
  0
VERTEX
  5
2619
  8
0
 10
156.1771428563062
 20
134.90032546052959
 30
0.0
  0
VERTEX
  5
261A
  8
0
 10
156.23553292732601
 20
134.91601762376391
 30
0.0
  0
VERTEX
  5
261B
  8
0
 10
156.2944483541163
 20
134.93154464311269
 30
0.0
  0
VERTEX
  5
261C
  8
0
 10
156.3538860510983
 20
134.94689869741069
 30
0.0
  0
VERTEX
  5
261D
  8
0
 10
156.38379978357301
 20
134.95450842465209
 30
0.0
  0
VERTEX
  5
261E
  8
0
 10
156.41384292182209
 20
134.96207198794909
 30
0.0
  0
VERTEX
  5
261F
  8
0
 10
156.4743158634156
 20
134.97705673988199
 30
0.0
  0
VERTEX
  5
2620
  8
0
 10
156.53530177092659
 20
134.99184520341799
 30
0.0
  0
VERTEX
  5
2621
  8
0
 10
156.59679754151131
 20
135.0064296547873
 30
0.0
  0
VERTEX
  5
2622
  8
0
 10
156.65880007842529
 20
135.0208023969787
 30
0.0
  0
VERTEX
  5
2623
  8
0
 10
156.7213062947684
 20
135.03495576024321
 30
0.0
  0
VERTEX
  5
2624
  8
0
 10
156.75274732161699
 20
135.04194778550601
 30
0.0
  0
VERTEX
  5
2625
  8
0
 10
156.7843131169343
 20
135.0488821023599
 30
0.0
  0
VERTEX
  5
2626
  8
0
 10
156.8478174877167
 20
135.06257380866549
 30
0.0
  0
VERTEX
  5
2627
  8
0
 10
156.9118163690168
 20
135.076023291848
 30
0.0
  0
VERTEX
  5
2628
  8
0
 10
156.9440003074962
 20
135.0826548361087
 30
0.0
  0
VERTEX
  5
2629
  8
0
 10
156.97630674410431
 20
135.08922299150839
 30
0.0
  0
VERTEX
  5
262A
  8
0
 10
157.0412856193775
 20
135.10216537349751
 30
0.0
  0
VERTEX
  5
262B
  8
0
 10
157.10675002556931
 20
135.11484292903771
 30
0.0
  0
VERTEX
  5
262C
  8
0
 10
157.1396633816797
 20
135.12108005707091
 30
0.0
  0
VERTEX
  5
262D
  8
0
 10
157.1726970183511
 20
135.12724817363829
 30
0.0
  0
VERTEX
  5
262E
  8
0
 10
157.23912367827859
 20
135.1393736458229
 30
0.0
  0
VERTEX
  5
262F
  8
0
 10
157.30602711003439
 20
135.15121190568311
 30
0.0
  0
VERTEX
  5
2630
  8
0
 10
157.37340444091771
 20
135.16275553328001
 30
0.0
  0
VERTEX
  5
2631
  8
0
 10
157.4412464571563
 20
135.17399609088901
 30
0.0
  0
VERTEX
  5
2632
  8
0
 10
157.5094600403022
 20
135.18491210988071
 30
0.0
  0
VERTEX
  5
2633
  8
0
 10
157.54369325439239
 20
135.19024477159209
 30
0.0
  0
VERTEX
  5
2634
  8
0
 10
157.5780095133868
 20
135.19549289228181
 30
0.0
  0
VERTEX
  5
2635
  8
0
 10
157.64688744852319
 20
135.2057326308059
 30
0.0
  0
VERTEX
  5
2636
  8
0
 10
157.7160864006064
 20
135.2156256458708
 30
0.0
  0
VERTEX
  5
2637
  8
0
 10
157.7855989113452
 20
135.2251663864669
 30
0.0
  0
VERTEX
  5
2638
  8
0
 10
157.85541751300471
 20
135.2343494308376
 30
0.0
  0
VERTEX
  5
2639
  8
0
 10
157.92553473182599
 20
135.24316948698171
 30
0.0
  0
VERTEX
  5
263A
  8
0
 10
157.9607029862384
 20
135.24744177628341
 30
0.0
  0
VERTEX
  5
263B
  8
0
 10
157.99594309109449
 20
135.25162139298581
 30
0.0
  0
VERTEX
  5
263C
  8
0
 10
158.0666351138245
 20
135.2597001172019
 30
0.0
  0
VERTEX
  5
263D
  8
0
 10
158.1376033250352
 20
135.26740075828059
 30
0.0
  0
VERTEX
  5
263E
  8
0
 10
158.2088402535918
 20
135.27471854507749
 30
0.0
  0
VERTEX
  5
263F
  8
0
 10
158.28033843358861
 20
135.28164883644769
 30
0.0
  0
VERTEX
  5
2640
  8
0
 10
158.35209040525319
 20
135.28818712094781
 30
0.0
  0
VERTEX
  5
2641
  8
0
 10
158.38805923356981
 20
135.2913078861701
 30
0.0
  0
VERTEX
  5
2642
  8
0
 10
158.42408871535389
 20
135.294329016463
 30
0.0
  0
VERTEX
  5
2643
  8
0
 10
158.49632591709491
 20
135.30007026978171
 30
0.0
  0
VERTEX
  5
2644
  8
0
 10
158.56879456948741
 20
135.30540675613739
 30
0.0
  0
VERTEX
  5
2645
  8
0
 10
158.64148723618561
 20
135.31033447874111
 30
0.0
  0
VERTEX
  5
2646
  8
0
 10
158.71439648378441
 20
135.31484956832651
 30
0.0
  0
VERTEX
  5
2647
  8
0
 10
158.7875148795716
 20
135.31894828273261
 30
0.0
  0
VERTEX
  5
2648
  8
0
 10
158.82414879302661
 20
135.32084029465011
 30
0.0
  0
VERTEX
  5
2649
  8
0
 10
158.86081029790449
 20
135.3226258403746
 30
0.0
  0
VERTEX
  5
264A
  8
0
 10
158.93419118675729
 20
135.3258757118341
 30
0.0
  0
VERTEX
  5
264B
  8
0
 10
159.00764154394989
 20
135.328696157351
 30
0.0
  0
VERTEX
  5
264C
  8
0
 10
159.08115212463261
 20
135.3310859692848
 30
0.0
  0
VERTEX
  5
264D
  8
0
 10
159.15471368389669
 20
135.33304411304539
 30
0.0
  0
VERTEX
  5
264E
  8
0
 10
159.22831697701741
 20
135.3345697269886
 30
0.0
  0
VERTEX
  5
264F
  8
0
 10
159.26513138489071
 20
135.33517011328141
 30
0.0
  0
VERTEX
  5
2650
  8
0
 10
159.30195275962271
 20
135.33566212232211
 30
0.0
  0
VERTEX
  5
2651
  8
0
 10
159.37561178780021
 20
135.33632078302611
 30
0.0
  0
VERTEX
  5
2652
  8
0
 10
159.44928481815441
 20
135.33654536579141
 30
0.0
  0
VERTEX
  5
2653
  8
0
 10
159.48612369573311
 20
135.33649481787779
 30
0.0
  0
VERTEX
  5
2654
  8
0
 10
159.52296260782541
 20
135.33633569997761
 30
0.0
  0
VERTEX
  5
2655
  8
0
 10
159.59663591448421
 20
135.3356917875916
 30
0.0
  0
VERTEX
  5
2656
  8
0
 10
159.6702954963155
 20
135.33461380328831
 30
0.0
  0
VERTEX
  5
2657
  8
0
 10
159.70711725249029
 20
135.3339121359611
 30
0.0
  0
VERTEX
  5
2658
  8
0
 10
159.74393211200331
 20
135.33310209439401
 30
0.0
  0
VERTEX
  5
2659
  8
0
 10
159.8175365207309
 20
135.3311571809511
 30
0.0
  0
VERTEX
  5
265A
  8
0
 10
159.89109948220911
 20
135.32877975578251
 30
0.0
  0
VERTEX
  5
265B
  8
0
 10
159.9646117567458
 20
135.32597068457639
 30
0.0
  0
VERTEX
  5
265C
  8
0
 10
160.03806410536831
 20
135.3227310059855
 30
0.0
  0
VERTEX
  5
265D
  8
0
 10
160.1114472900091
 20
135.3190619317399
 30
0.0
  0
VERTEX
  5
265E
  8
0
 10
160.14810394362991
 20
135.317067139079
 30
0.0
  0
VERTEX
  5
265F
  8
0
 10
160.1847131599279
 20
135.3149671363031
 30
0.0
  0
VERTEX
  5
2660
  8
0
 10
160.2577804449125
 20
135.31045352710771
 30
0.0
  0
VERTEX
  5
2661
  8
0
 10
160.33063994793039
 20
135.3055247895667
 30
0.0
  0
VERTEX
  5
2662
  8
0
 10
160.4032841680384
 20
135.3001846485086
 30
0.0
  0
VERTEX
  5
2663
  8
0
 10
160.475705603504
 20
135.29443695825969
 30
0.0
  0
VERTEX
  5
2664
  8
0
 10
160.5478967498388
 20
135.28828570306561
 30
0.0
  0
VERTEX
  5
2665
  8
0
 10
160.58390361831141
 20
135.28506001932581
 30
0.0
  0
VERTEX
  5
2666
  8
0
 10
160.6198500983611
 20
135.28173499753919
 30
0.0
  0
VERTEX
  5
2667
  8
0
 10
160.69155813528391
 20
135.27478908711021
 30
0.0
  0
VERTEX
  5
2668
  8
0
 10
160.7630133413208
 20
135.26745234845629
 30
0.0
  0
VERTEX
  5
2669
  8
0
 10
160.83420819180171
 20
135.25972928989239
 30
0.0
  0
VERTEX
  5
266A
  8
0
 10
160.9051351572833
 20
135.25162455169891
 30
0.0
  0
VERTEX
  5
266B
  8
0
 10
160.97578670464191
 20
135.24314290636769
 30
0.0
  0
VERTEX
  5
266C
  8
0
 10
161.0110068417909
 20
135.23876227111921
 30
0.0
  0
VERTEX
  5
266D
  8
0
 10
161.04615529862781
 20
135.23428925874899
 30
0.0
  0
VERTEX
  5
266E
  8
0
 10
161.11623340386149
 20
135.22506864608081
 30
0.0
  0
VERTEX
  5
266F
  8
0
 10
161.18601348724911
 20
135.21548623788519
 30
0.0
  0
VERTEX
  5
2670
  8
0
 10
161.25548802079101
 20
135.2055473357174
 30
0.0
  0
VERTEX
  5
2671
  8
0
 10
161.32464948475661
 20
135.1952573727543
 30
0.0
  0
VERTEX
  5
2672
  8
0
 10
161.3934903711968
 20
135.184621913212
 30
0.0
  0
VERTEX
  5
2673
  8
0
 10
161.42778825576619
 20
135.17917639668789
 30
0.0
  0
VERTEX
  5
2674
  8
0
 10
161.4620031877628
 20
135.17364665158141
 30
0.0
  0
VERTEX
  5
2675
  8
0
 10
161.53017608475551
 20
135.16233815017699
 30
0.0
  0
VERTEX
  5
2676
  8
0
 10
161.5979159727296
 20
135.1507173698881
 30
0.0
  0
VERTEX
  5
2677
  8
0
 10
161.66518576224129
 20
135.13879725545539
 30
0.0
  0
VERTEX
  5
2678
  8
0
 10
161.73198257965109
 20
135.1265851886304
 30
0.0
  0
VERTEX
  5
2679
  8
0
 10
161.798303530483
 20
135.11408857143201
 30
0.0
  0
VERTEX
  5
267A
  8
0
 10
161.83128464517549
 20
135.1077358755376
 30
0.0
  0
VERTEX
  5
267B
  8
0
 10
161.86414569731471
 20
135.10131482785019
 30
0.0
  0
VERTEX
  5
267C
  8
0
 10
161.92950613845301
 20
135.08827140541149
 30
0.0
  0
VERTEX
  5
267D
  8
0
 10
161.9943818873511
 20
135.07496577658591
 30
0.0
  0
VERTEX
  5
267E
  8
0
 10
162.0266370683816
 20
135.06821697705109
 30
0.0
  0
VERTEX
  5
267F
  8
0
 10
162.05876995271731
 20
135.06140544001329
 30
0.0
  0
VERTEX
  5
2680
  8
0
 10
162.12266731926729
 20
135.0475979215355
 30
0.0
  0
VERTEX
  5
2681
  8
0
 10
162.18607094906861
 20
135.0335507750176
 30
0.0
  0
VERTEX
  5
2682
  8
0
 10
162.21758665759509
 20
135.02643970964189
 30
0.0
  0
VERTEX
  5
2683
  8
0
 10
162.24897778342461
 20
135.0192715829499
 30
0.0
  0
VERTEX
  5
2684
  8
0
 10
162.3113847452467
 20
135.0047679568207
 30
0.0
  0
VERTEX
  5
2685
  8
0
 10
162.37328874186369
 20
134.99004753725509
 30
0.0
  0
VERTEX
  5
2686
  8
0
 10
162.43468666821391
 20
134.97511799391529
 30
0.0
  0
VERTEX
  5
2687
  8
0
 10
162.4955754103716
 20
134.95998702516289
 30
0.0
  0
VERTEX
  5
2688
  8
0
 10
162.555951849357
 20
134.9446623574828
 30
0.0
  0
VERTEX
  5
2689
  8
0
 10
162.58594698008801
 20
134.9369298085667
 30
0.0
  0
VERTEX
  5
268A
  8
0
 10
162.61581286518
 20
134.92915174467279
 30
0.0
  0
VERTEX
  5
268B
  8
0
 10
162.67515534107289
 20
134.91346296680311
 30
0.0
  0
VERTEX
  5
268C
  8
0
 10
162.7339761678644
 20
134.89760382895281
 30
0.0
  0
VERTEX
  5
268D
  8
0
 10
162.7922722484528
 20
134.88158215973129
 30
0.0
  0
VERTEX
  5
268E
  8
0
 10
162.85004050233729
 20
134.86540580959399
 30
0.0
  0
VERTEX
  5
268F
  8
0
 10
162.90727787016701
 20
134.84908264896251
 30
0.0
  0
VERTEX
  5
2690
  8
0
 10
162.93569652266339
 20
134.84086847917379
 30
0.0
  0
VERTEX
  5
2691
  8
0
 10
162.9639813182722
 20
134.8326205661624
 30
0.0
  0
VERTEX
  5
2692
  8
0
 10
163.02014784314369
 20
134.81602746518911
 30
0.0
  0
VERTEX
  5
2693
  8
0
 10
163.07577447582699
 20
134.79931126331689
 30
0.0
  0
VERTEX
  5
2694
  8
0
 10
163.10338441530439
 20
134.79090947670159
 30
0.0
  0
SEQEND
  5
2695
  8
0
  0
POLYLINE
  5
1DDE
  8
0
 66
     1
 10
0.0
 20
0.0
 30
0.0
  0
VERTEX
  5
2696
  8
0
 10
163.10338441530439
 20
134.79090947670159
 30
0.0
  0
VERTEX
  5
2697
  8
0
 10
163.148334231013
 20
134.7770818937307
 30
0.0
  0
VERTEX
  5
2698
  8
0
 10
163.23728780302741
 20
134.74917052001339
 30
0.0
  0
VERTEX
  5
2699
  8
0
 10
163.3249845032787
 20
134.7209376088469
 30
0.0
  0
VERTEX
  5
269A
  8
0
 10
163.36836317689219
 20
134.7067080370465
 30
0.0
  0
VERTEX
  5
269B
  8
0
 10
163.411429586834
 20
134.6924069984249
 30
0.0
  0
VERTEX
  5
269C
  8
0
 10
163.49662810576481
 20
134.6636022505632
 30
0.0
  0
VERTEX
  5
269D
  8
0
 10
163.58058493250661
 20
134.63454665767901
 30
0.0
  0
VERTEX
  5
269E
  8
0
 10
163.66330478543699
 20
134.6052632471895
 30
0.0
  0
VERTEX
  5
269F
  8
0
 10
163.74479225593629
 20
134.57577478352181
 30
0.0
  0
VERTEX
  5
26A0
  8
0
 10
163.82505183629971
 20
134.5461037679336
 30
0.0
  0
VERTEX
  5
26A1
  8
0
 10
163.8647225513769
 20
134.5312067623577
 30
0.0
  0
VERTEX
  5
26A2
  8
0
 10
163.9040879479644
 20
134.51627243635309
 30
0.0
  0
VERTEX
  5
26A3
  8
0
 10
163.9819049695966
 20
134.4863027554419
 30
0.0
  0
VERTEX
  5
26A4
  8
0
 10
164.05850726466761
 20
134.45621641708601
 30
0.0
  0
VERTEX
  5
26A5
  8
0
 10
164.13389920821581
 20
134.42603483150901
 30
0.0
  0
VERTEX
  5
26A6
  8
0
 10
164.20808521255469
 20
134.39577911919659
 30
0.0
  0
VERTEX
  5
26A7
  8
0
 10
164.28106975174481
 20
134.3654701018101
 30
0.0
  0
VERTEX
  5
26A8
  8
0
 10
164.3171179325989
 20
134.35029989609021
 30
0.0
  0
VERTEX
  5
26A9
  8
0
 10
164.35289018848181
 20
134.33511430663481
 30
0.0
  0
VERTEX
  5
26AA
  8
0
 10
164.4236156558953
 20
134.3047032543771
 30
0.0
  0
VERTEX
  5
26AB
  8
0
 10
164.49325612544521
 20
134.2742524203789
 30
0.0
  0
VERTEX
  5
26AC
  8
0
 10
164.5276720865931
 20
134.25901704355351
 30
0.0
  0
VERTEX
  5
26AD
  8
0
 10
164.7285715756573
 20
134.16758755938139
 30
0.0
  0
VERTEX
  5
26AE
  8
0
 10
165.10224703988109
 20
133.98591088308609
 30
0.0
  0
VERTEX
  5
26AF
  8
0
 10
165.43979651557669
 20
133.8082799041259
 30
0.0
  0
VERTEX
  5
26B0
  8
0
 10
165.74838649755111
 20
133.63410479553991
 30
0.0
  0
VERTEX
  5
26B1
  8
0
 10
166.03224513194311
 20
133.46346047956959
 30
0.0
  0
VERTEX
  5
26B2
  8
0
 10
166.29133137296091
 20
133.29855985540161
 30
0.0
  0
VERTEX
  5
26B3
  8
0
 10
166.41155814481641
 20
133.21895371824951
 30
0.0
  0
VERTEX
  5
26B4
  8
0
 10
166.52555284449039
 20
133.1416107670205
 30
0.0
  0
VERTEX
  5
26B5
  8
0
 10
166.734758443863
 20
132.99481030574171
 30
0.0
  0
VERTEX
  5
26B6
  8
0
 10
166.91872478062689
 20
132.8603373444152
 30
0.0
  0
VERTEX
  5
26B7
  8
0
 10
167.07688813444349
 20
132.74053484741901
 30
0.0
  0
VERTEX
  5
26B8
  8
0
 10
167.2071412778235
 20
132.6388580218518
 30
0.0
  0
VERTEX
  5
26B9
  8
0
 10
167.30993635201051
 20
132.55663221483789
 30
0.0
  0
VERTEX
  5
26BA
  8
0
 10
167.3513210626912
 20
132.5230235188321
 30
0.0
  0
VERTEX
  5
26BB
  8
0
 10
167.38615894278601
 20
132.49450339424359
 30
0.0
  0
VERTEX
  5
26BC
  8
0
 10
167.43651539525939
 20
132.45290639971719
 30
0.0
  0
VERTEX
  5
26BD
  8
0
 10
167.4615670350581
 20
132.43204686497779
 30
0.0
  0
VERTEX
  5
26BE
  8
0
 10
167.4646976095656
 20
132.42943236944899
 30
0.0
  0
SEQEND
  5
26BF
  8
0
  0
POLYLINE
  5
1DDF
  8
0
 66
     1
 10
0.0
 20
0.0
 30
0.0
  0
VERTEX
  5
26C0
  8
0
 10
151.49089870076509
 20
132.4746940976967
 30
0.0
  0
VERTEX
  5
26C1
  8
0
 10
151.49418241656801
 20
132.47740500995721
 30
0.0
  0
VERTEX
  5
26C2
  8
0
 10
151.52046318828411
 20
132.49903381853991
 30
0.0
  0
VERTEX
  5
26C3
  8
0
 10
151.57327902621381
 20
132.54213974362389
 30
0.0
  0
VERTEX
  5
26C4
  8
0
 10
151.60983204383589
 20
132.57169314831259
 30
0.0
  0
VERTEX
  5
26C5
  8
0
 10
151.65326728040199
 20
132.60651685177839
 30
0.0
  0
VERTEX
  5
26C6
  8
0
 10
151.76120846500629
 20
132.691695693295
 30
0.0
  0
VERTEX
  5
26C7
  8
0
 10
151.89807363024991
 20
132.7969701875648
 30
0.0
  0
VERTEX
  5
26C8
  8
0
 10
152.06504566950781
 20
132.9213997829726
 30
0.0
  0
VERTEX
  5
26C9
  8
0
 10
152.26115145013239
 20
133.06212663836831
 30
0.0
  0
VERTEX
  5
26CA
  8
0
 10
152.48451922369819
 20
133.21558097983609
 30
0.0
  0
VERTEX
  5
26CB
  8
0
 10
152.60632426769041
 20
133.2963034807743
 30
0.0
  0
VERTEX
  5
26CC
  8
0
 10
152.7348263336518
 20
133.37926901843181
 30
0.0
  0
VERTEX
  5
26CD
  8
0
 10
153.01177527496449
 20
133.55065512271389
 30
0.0
  0
VERTEX
  5
26CE
  8
0
 10
153.31507369507511
 20
133.72717895420971
 30
0.0
  0
VERTEX
  5
26CF
  8
0
 10
153.6444236574564
 20
133.90627291791529
 30
0.0
  0
VERTEX
  5
26D0
  8
0
 10
153.99930172337119
 20
134.08527263965121
 30
0.0
  0
VERTEX
  5
26D1
  8
0
 10
154.3772594157262
 20
134.26071700725799
 30
0.0
  0
VERTEX
  5
26D2
  8
0
 10
154.57445270018391
 20
134.3462652236733
 30
0.0
  0
VERTEX
  5
26D3
  8
0
 10
154.77697135004539
 20
134.42997625368679
 30
0.0
  0
VERTEX
  5
26D4
  8
0
 10
155.019822852272
 20
134.52494283375671
 30
0.0
  0
VERTEX
  5
26D5
  8
0
 10
155.09048704164931
 20
134.5514858179412
 30
0.0
  0
VERTEX
  5
26D6
  8
0
 10
155.16171166859189
 20
134.57774824026609
 30
0.0
  0
VERTEX
  5
26D7
  8
0
 10
155.19753286288579
 20
134.59077118428661
 30
0.0
  0
VERTEX
  5
26D8
  8
0
 10
155.2334926295739
 20
134.6037203319527
 30
0.0
  0
VERTEX
  5
26D9
  8
0
 10
155.30582584523989
 20
134.6293924185897
 30
0.0
  0
VERTEX
  5
26DA
  8
0
 10
155.37870726306181
 20
134.65475491877501
 30
0.0
  0
VERTEX
  5
26DB
  8
0
 10
155.45213285987299
 20
134.6797983425611
 30
0.0
  0
VERTEX
  5
26DC
  8
0
 10
155.52609864423371
 20
134.70451328969719
 30
0.0
  0
VERTEX
  5
26DD
  8
0
 10
155.6006006585786
 20
134.7288904476614
 30
0.0
  0
VERTEX
  5
26DE
  8
0
 10
155.63805152498699
 20
134.74094946899689
 30
0.0
  0
VERTEX
  5
26DF
  8
0
 10
155.67563498109379
 20
134.7529205894788
 30
0.0
  0
VERTEX
  5
26E0
  8
0
 10
155.75119772726339
 20
134.7765945713208
 30
0.0
  0
VERTEX
  5
26E1
  8
0
 10
155.82728505102639
 20
134.7999033298866
 30
0.0
  0
VERTEX
  5
26E2
  8
0
 10
155.86552423830929
 20
134.8114179394847
 30
0.0
  0
SEQEND
  5
26E3
  8
0
  0
POLYLINE
  5
1DE0
  8
0
 66
     1
 10
0.0
 20
0.0
 30
0.0
  0
VERTEX
  5
26E4
  8
0
 10
138.12151153693389
 20
153.0496771775498
 30
0.0
  0
VERTEX
  5
26E5
  8
0
 10
138.1378920260675
 20
153.02593274815729
 30
0.0
  0
VERTEX
  5
26E6
  8
0
 10
138.17069869121539
 20
152.97802216877199
 30
0.0
  0
VERTEX
  5
26E7
  8
0
 10
138.2035593253533
 20
152.92954923008921
 30
0.0
  0
VERTEX
  5
26E8
  8
0
 10
138.2200072741856
 20
152.9051018579822
 30
0.0
  0
VERTEX
  5
26E9
  8
0
 10
138.23646558681401
 20
152.8805138775316
 30
0.0
  0
VERTEX
  5
26EA
  8
0
 10
138.269409130751
 20
152.8309160803891
 30
0.0
  0
VERTEX
  5
26EB
  8
0
 10
138.30238161239271
 20
152.78075582825539
 30
0.0
  0
VERTEX
  5
26EC
  8
0
 10
138.33537469013169
 20
152.73003312739181
 30
0.0
  0
VERTEX
  5
26ED
  8
0
 10
138.36838002842731
 20
152.678747997047
 30
0.0
  0
VERTEX
  5
26EE
  8
0
 10
138.40138930049841
 20
152.62690046576799
 30
0.0
  0
VERTEX
  5
26EF
  8
0
 10
138.4178928125867
 20
152.60076581033911
 30
0.0
  0
VERTEX
  5
26F0
  8
0
 10
138.43439419078521
 20
152.57449056773731
 30
0.0
  0
VERTEX
  5
26F1
  8
0
 10
138.4673863971579
 20
152.52151833917429
 30
0.0
  0
VERTEX
  5
26F2
  8
0
 10
138.50035763285041
 20
152.467983814842
 30
0.0
  0
VERTEX
  5
26F3
  8
0
 10
138.53329962810031
 20
152.41388702470209
 30
0.0
  0
VERTEX
  5
26F4
  8
0
 10
138.56620413147601
 20
152.35922799076479
 30
0.0
  0
VERTEX
  5
26F5
  8
0
 10
138.59906291087299
 20
152.304006724179
 30
0.0
  0
VERTEX
  5
26F6
  8
0
 10
138.61547258699869
 20
152.2761852535057
 30
0.0
  0
VERTEX
  5
26F7
  8
0
 10
138.6318677541633
 20
152.24822322261349
 30
0.0
  0
VERTEX
  5
26F8
  8
0
 10
138.6646104694839
 20
152.19187746798039
 30
0.0
  0
VERTEX
  5
26F9
  8
0
 10
138.69728288515441
 20
152.1349694245516
 30
0.0
  0
VERTEX
  5
26FA
  8
0
 10
138.71359018238249
 20
152.106304528187
 30
0.0
  0
VERTEX
  5
26FB
  8
0
 10
138.7298768492104
 20
152.07749903752341
 30
0.0
  0
VERTEX
  5
26FC
  8
0
 10
138.76238422854851
 20
152.0194662320813
 30
0.0
  0
VERTEX
  5
26FD
  8
0
 10
138.7947930021536
 20
151.96087801825169
 30
0.0
  0
VERTEX
  5
26FE
  8
0
 10
138.81094442568201
 20
151.93140031737889
 30
0.0
  0
VERTEX
  5
26FF
  8
0
 10
138.82705576849571
 20
151.90180697846029
 30
0.0
  0
VERTEX
  5
2700
  8
0
 10
138.85915403746031
 20
151.84227552724261
 30
0.0
  0
VERTEX
  5
2701
  8
0
 10
138.8910795182538
 20
151.7822879830307
 30
0.0
  0
VERTEX
  5
2702
  8
0
 10
138.92282401531051
 20
151.7218487204342
 30
0.0
  0
VERTEX
  5
2703
  8
0
 10
138.95437943100649
 20
151.66096216619391
 30
0.0
  0
VERTEX
  5
2704
  8
0
 10
138.98573776810281
 20
151.59963279527639
 30
0.0
  0
VERTEX
  5
2705
  8
0
 10
139.00134056102581
 20
151.5688034642568
 30
0.0
  0
VERTEX
  5
2706
  8
0
 10
139.0168911319077
 20
151.5378651271501
 30
0.0
  0
VERTEX
  5
2707
  8
0
 10
139.04783173215321
 20
151.4756637222786
 30
0.0
  0
VERTEX
  5
2708
  8
0
 10
139.07855188457759
 20
151.41303317887181
 30
0.0
  0
VERTEX
  5
2709
  8
0
 10
139.10904401221441
 20
151.34997812993259
 30
0.0
  0
VERTEX
  5
270A
  8
0
 10
139.13930064638379
 20
151.2865032406373
 30
0.0
  0
VERTEX
  5
270B
  8
0
 10
139.16931442739121
 20
151.22261320608521
 30
0.0
  0
VERTEX
  5
270C
  8
0
 10
139.1842279779614
 20
151.19051398427601
 30
0.0
  0
VERTEX
  5
270D
  8
0
 10
139.1990781049349
 20
151.1583127494556
 30
0.0
  0
VERTEX
  5
270E
  8
0
 10
139.22858453823051
 20
151.09360662060479
 30
0.0
  0
VERTEX
  5
270F
  8
0
 10
139.25782669585951
 20
151.02849959513671
 30
0.0
  0
VERTEX
  5
2710
  8
0
 10
139.2867976553556
 20
150.96299647397791
 30
0.0
  0
VERTEX
  5
2711
  8
0
 10
139.3154906025394
 20
150.8971020834876
 30
0.0
  0
VERTEX
  5
2712
  8
0
 10
139.34389883061999
 20
150.83082127612559
 30
0.0
  0
VERTEX
  5
2713
  8
0
 10
139.35799410821829
 20
150.79753748994449
 30
0.0
  0
VERTEX
  5
2714
  8
0
 10
139.37201573908061
 20
150.76415893170579
 30
0.0
  0
VERTEX
  5
2715
  8
0
 10
139.39983483236929
 20
150.69711995925351
 30
0.0
  0
VERTEX
  5
2716
  8
0
 10
139.42734971841631
 20
150.62970929948611
 30
0.0
  0
VERTEX
  5
2717
  8
0
 10
139.45453735380261
 20
150.56197402216981
 30
0.0
  0
VERTEX
  5
2718
  8
0
 10
139.48136312668751
 20
150.49399397248729
 30
0.0
  0
VERTEX
  5
2719
  8
0
 10
139.5078216537575
 20
150.4257785152131
 30
0.0
  0
VERTEX
  5
271A
  8
0
 10
139.52091172667181
 20
150.3915850441108
 30
0.0
  0
VERTEX
  5
271B
  8
0
 10
139.53390824034011
 20
150.35733577036621
 30
0.0
  0
VERTEX
  5
271C
  8
0
 10
139.5596183544985
 20
150.2886739121156
 30
0.0
  0
VERTEX
  5
271D
  8
0
 10
139.58494762717069
 20
150.21980116807191
 30
0.0
  0
VERTEX
  5
271E
  8
0
 10
139.60989185225091
 20
150.15072581871621
 30
0.0
  0
VERTEX
  5
271F
  8
0
 10
139.63444698662369
 20
150.08145619695961
 30
0.0
  0
VERTEX
  5
2720
  8
0
 10
139.65860915016
 20
150.01200068782919
 30
0.0
  0
VERTEX
  5
2721
  8
0
 10
139.6705416998827
 20
149.9772058600195
 30
0.0
  0
VERTEX
  5
2722
  8
0
 10
139.68237462568251
 20
149.94236772827119
 30
0.0
  0
VERTEX
  5
2723
  8
0
 10
139.70573985890979
 20
149.87256580706429
 30
0.0
  0
VERTEX
  5
2724
  8
0
 10
139.7287014583876
 20
149.8026034648326
 30
0.0
  0
VERTEX
  5
2725
  8
0
 10
139.7400298801457
 20
149.7675648189776
 30
0.0
  0
VERTEX
  5
2726
  8
0
 10
139.75125619541441
 20
149.73248929414819
 30
0.0
  0
VERTEX
  5
2727
  8
0
 10
139.77340100397021
 20
149.6622319397114
 30
0.0
  0
VERTEX
  5
2728
  8
0
 10
139.79513298065419
 20
149.59184009859811
 30
0.0
  0
VERTEX
  5
2729
  8
0
 10
139.80584329418591
 20
149.5565964777683
 30
0.0
  0
VERTEX
  5
272A
  8
0
 10
139.81644938463859
 20
149.52132252055969
 30
0.0
  0
VERTEX
  5
272B
  8
0
 10
139.8373476376448
 20
149.45068800836481
 30
0.0
  0
VERTEX
  5
272C
  8
0
 10
139.85782532394489
 20
149.37994541816809
 30
0.0
  0
VERTEX
  5
272D
  8
0
 10
139.87788019039701
 20
149.30910365989419
 30
0.0
  0
VERTEX
  5
272E
  8
0
 10
139.89750587134151
 20
149.23818732454581
 30
0.0
  0
VERTEX
  5
272F
  8
0
 10
139.91667722573331
 20
149.1672933919609
 30
0.0
  0
VERTEX
  5
2730
  8
0
 10
139.92609127457891
 20
149.13186261353729
 30
0.0
  0
VERTEX
  5
2731
  8
0
 10
139.93539102660489
 20
149.0964440128426
 30
0.0
  0
VERTEX
  5
2732
  8
0
 10
139.9536480544092
 20
149.02564751642441
 30
0.0
  0
VERTEX
  5
2733
  8
0
 10
139.97144921723029
 20
148.95491227148159
 30
0.0
  0
VERTEX
  5
2734
  8
0
 10
139.98879555034929
 20
148.88424668870621
 30
0.0
  0
VERTEX
  5
2735
  8
0
 10
140.00568821601311
 20
148.8136592226279
 30
0.0
  0
VERTEX
  5
2736
  8
0
 10
140.02212850338589
 20
148.7431583730739
 30
0.0
  0
VERTEX
  5
2737
  8
0
 10
140.0301794428062
 20
148.70794309832959
 30
0.0
  0
VERTEX
  5
2738
  8
0
 10
140.0381178286637
 20
148.672752686162
 30
0.0
  0
VERTEX
  5
2739
  8
0
 10
140.0536577353289
 20
148.60245075482271
 30
0.0
  0
VERTEX
  5
273A
  8
0
 10
140.06874989452311
 20
148.5322612188518
 30
0.0
  0
VERTEX
  5
273B
  8
0
 10
140.0833961055182
 20
148.46219276449591
 30
0.0
  0
VERTEX
  5
273C
  8
0
 10
140.0975982962606
 20
148.39225412357769
 30
0.0
  0
VERTEX
  5
273D
  8
0
 10
140.11135852396791
 20
148.32245407216871
 30
0.0
  0
VERTEX
  5
273E
  8
0
 10
140.1180735800661
 20
148.2876087717259
 30
0.0
  0
VERTEX
  5
273F
  8
0
 10
140.124678975758
 20
148.25280142882269
 30
0.0
  0
VERTEX
  5
2740
  8
0
 10
140.13756196928469
 20
148.18330505238319
 30
0.0
  0
VERTEX
  5
2741
  8
0
 10
140.1500099533657
 20
148.1139738393812
 30
0.0
  0
VERTEX
  5
2742
  8
0
 10
140.16202550857531
 20
148.04481672104461
 30
0.0
  0
VERTEX
  5
2743
  8
0
 10
140.17361134778909
 20
147.97584265993891
 30
0.0
  0
VERTEX
  5
2744
  8
0
 10
140.18477031665881
 20
147.90706064626289
 30
0.0
  0
VERTEX
  5
2745
  8
0
 10
140.1901906503843
 20
147.87274447322039
 30
0.0
  0
VERTEX
  5
2746
  8
0
 10
140.19550539400049
 20
147.8384796938266
 30
0.0
  0
VERTEX
  5
2747
  8
0
 10
140.20581057683961
 20
147.7701704114329
 30
0.0
  0
VERTEX
  5
2748
  8
0
 10
140.2156807884482
 20
147.7022075727202
 30
0.0
  0
VERTEX
  5
2749
  8
0
 10
140.22512207499841
 20
147.63459627321799
 30
0.0
  0
VERTEX
  5
274A
  8
0
 10
140.23414050371809
 20
147.56734158661101
 30
0.0
  0
VERTEX
  5
274B
  8
0
 10
140.24274215664229
 20
147.5004486140578
 30
0.0
  0
VERTEX
  5
274C
  8
0
 10
140.24688859710861
 20
147.46713937275899
 30
0.0
  0
VERTEX
  5
274D
  8
0
 10
140.25093313160849
 20
147.43392248649471
 30
0.0
  0
VERTEX
  5
274E
  8
0
 10
140.2587195433544
 20
147.3677683661609
 30
0.0
  0
VERTEX
  5
274F
  8
0
 10
140.2661075246852
 20
147.30199144738211
 30
0.0
  0
VERTEX
  5
2750
  8
0
 10
140.26965402568311
 20
147.26924607061019
 30
0.0
  0
VERTEX
  5
2751
  8
0
 10
140.27310322767809
 20
147.2365969566527
 30
0.0
  0
VERTEX
  5
2752
  8
0
 10
140.27971282489099
 20
147.17159015205789
 30
0.0
  0
VERTEX
  5
2753
  8
0
 10
140.28594251055151
 20
147.10697632208161
 30
0.0
  0
VERTEX
  5
2754
  8
0
 10
140.28891682845239
 20
147.07481843311601
 30
0.0
  0
VERTEX
  5
2755
  8
0
 10
140.29179850169521
 20
147.04276078384419
 30
0.0
  0
VERTEX
  5
2756
  8
0
 10
140.29728703923431
 20
146.97894888081859
 30
0.0
  0
VERTEX
  5
2757
  8
0
 10
140.30241438893279
 20
146.91554598007181
 30
0.0
  0
VERTEX
  5
2758
  8
0
 10
140.3071868422706
 20
146.85255746907919
 30
0.0
  0
VERTEX
  5
2759
  8
0
 10
140.31161071718009
 20
146.7899887521601
 30
0.0
  0
VERTEX
  5
275A
  8
0
 10
140.31569235864109
 20
146.7278452465828
 30
0.0
  0
VERTEX
  5
275B
  8
0
 10
140.3176068321427
 20
146.69693464346071
 30
0.0
  0
VERTEX
  5
275C
  8
0
 10
140.31943813912341
 20
146.66613237838419
 30
0.0
  0
VERTEX
  5
275D
  8
0
 10
140.32285445886549
 20
146.60485557795181
 30
0.0
  0
VERTEX
  5
275E
  8
0
 10
140.32594774598451
 20
146.5440202754119
 30
0.0
  0
VERTEX
  5
275F
  8
0
 10
140.3287244564103
 20
146.48363189586749
 30
0.0
  0
VERTEX
  5
2760
  8
0
 10
140.33119107364081
 20
146.42369585452749
 30
0.0
  0
VERTEX
  5
2761
  8
0
 10
140.33335410831759
 20
146.36421755176801
 30
0.0
  0
VERTEX
  5
2762
  8
0
 10
140.3343238240505
 20
146.33465173469429
 30
0.0
  0
VERTEX
  5
2763
  8
0
 10
140.33522009762029
 20
146.30520236816179
 30
0.0
  0
VERTEX
  5
2764
  8
0
 10
140.33679560448331
 20
146.2466556595154
 30
0.0
  0
VERTEX
  5
2765
  8
0
 10
140.33808721663561
 20
146.1885827519439
 30
0.0
  0
VERTEX
  5
2766
  8
0
 10
140.33862862736581
 20
146.15972562865721
 30
0.0
  0
SEQEND
  5
2767
  8
0
  0
POLYLINE
  5
1DE1
  8
0
 66
     1
 10
0.0
 20
0.0
 30
0.0
  0
VERTEX
  5
2768
  8
0
 10
140.33862862736581
 20
146.1597256286571
 30
0.0
  0
VERTEX
  5
2769
  8
0
 10
140.33936932847891
 20
146.11261202805099
 30
0.0
  0
VERTEX
  5
276A
  8
0
 10
140.3403126680501
 20
146.01920724462471
 30
0.0
  0
VERTEX
  5
276B
  8
0
 10
140.34055916963811
 20
145.9269006841632
 30
0.0
  0
VERTEX
  5
276C
  8
0
 10
140.34042874107561
 20
145.88115989337379
 30
0.0
  0
VERTEX
  5
276D
  8
0
 10
140.34013322248501
 20
145.83569446066139
 30
0.0
  0
VERTEX
  5
276E
  8
0
 10
140.33905888123741
 20
145.74559080558001
 30
0.0
  0
VERTEX
  5
276F
  8
0
 10
140.33735988049301
 20
145.6565920488475
 30
0.0
  0
VERTEX
  5
2770
  8
0
 10
140.33505964759431
 20
145.56870059672761
 30
0.0
  0
VERTEX
  5
2771
  8
0
 10
140.33218131360721
 20
145.48191890732659
 30
0.0
  0
VERTEX
  5
2772
  8
0
 10
140.32874772247811
 20
145.39624946443021
 30
0.0
  0
VERTEX
  5
2773
  8
0
 10
140.32682976755501
 20
145.35383261193641
 30
0.0
  0
VERTEX
  5
2774
  8
0
 10
140.32478143838631
 20
145.3116947502657
 30
0.0
  0
VERTEX
  5
2775
  8
0
 10
140.32030475134411
 20
145.2282572177042
 30
0.0
  0
VERTEX
  5
2776
  8
0
 10
140.31533968111671
 20
145.14593926234019
 30
0.0
  0
VERTEX
  5
2777
  8
0
 10
140.30990797955209
 20
145.0647431948145
 30
0.0
  0
VERTEX
  5
2778
  8
0
 10
140.30403113142069
 20
144.98467121368299
 30
0.0
  0
VERTEX
  5
2779
  8
0
 10
140.2977303538774
 20
144.9057253790746
 30
0.0
  0
VERTEX
  5
277A
  8
0
 10
140.29442754834159
 20
144.86667536639271
 30
0.0
  0
VERTEX
  5
277B
  8
0
 10
140.29102657029671
 20
144.82790731449509
 30
0.0
  0
VERTEX
  5
277C
  8
0
 10
140.28393456538231
 20
144.75115710656891
 30
0.0
  0
VERTEX
  5
277D
  8
0
 10
140.27646847329231
 20
144.6754258367634
 30
0.0
  0
VERTEX
  5
277E
  8
0
 10
140.27260065322719
 20
144.63794124481879
 30
0.0
  0
VERTEX
  5
277F
  8
0
 10
140.24764242891561
 20
144.4183428340985
 30
0.0
  0
VERTEX
  5
2780
  8
0
 10
140.19012634233431
 20
144.0061916893917
 30
0.0
  0
VERTEX
  5
2781
  8
0
 10
140.1252498047553
 20
143.6295790357029
 30
0.0
  0
VERTEX
  5
2782
  8
0
 10
140.05522654599929
 20
143.28410191925369
 30
0.0
  0
VERTEX
  5
2783
  8
0
 10
139.9810255666427
 20
142.96322691987911
 30
0.0
  0
VERTEX
  5
2784
  8
0
 10
139.904687185721
 20
142.6675224018403
 30
0.0
  0
VERTEX
  5
2785
  8
0
 10
139.8663552349733
 20
142.52933831144361
 30
0.0
  0
VERTEX
  5
2786
  8
0
 10
139.82825175411651
 20
142.3977272678014
 30
0.0
  0
VERTEX
  5
2787
  8
0
 10
139.75372701610439
 20
142.1546256123813
 30
0.0
  0
VERTEX
  5
2788
  8
0
 10
139.683076782591
 20
141.9390571320117
 30
0.0
  0
VERTEX
  5
2789
  8
0
 10
139.61820678445369
 20
141.75193299232521
 30
0.0
  0
VERTEX
  5
278A
  8
0
 10
139.56127332553791
 20
141.59513522328729
 30
0.0
  0
VERTEX
  5
278B
  8
0
 10
139.51438021343779
 20
141.47066300629419
 30
0.0
  0
VERTEX
  5
278C
  8
0
 10
139.4950053323972
 20
141.42037743267099
 30
0.0
  0
VERTEX
  5
278D
  8
0
 10
139.47847075087739
 20
141.3779670081133
 30
0.0
  0
VERTEX
  5
278E
  8
0
 10
139.45420416030899
 20
141.31653584171161
 30
0.0
  0
VERTEX
  5
278F
  8
0
 10
139.44198374283761
 20
141.28595461173271
 30
0.0
  0
VERTEX
  5
2790
  8
0
 10
139.44045033124971
 20
141.2821337376825
 30
0.0
  0
SEQEND
  5
2791
  8
0
  0
POLYLINE
  5
1DE2
  8
0
 66
     1
 10
0.0
 20
0.0
 30
0.0
  0
VERTEX
  5
2792
  8
0
 10
134.54732146529119
 20
156.488105923109
 30
0.0
  0
VERTEX
  5
2793
  8
0
 10
134.55068955542191
 20
156.4859637162383
 30
0.0
  0
VERTEX
  5
2794
  8
0
 10
134.57761084685151
 20
156.46878657613371
 30
0.0
  0
VERTEX
  5
2795
  8
0
 10
134.63132259435011
 20
156.4342254334353
 30
0.0
  0
VERTEX
  5
2796
  8
0
 10
134.6681651278152
 20
156.4102936122824
 30
0.0
  0
VERTEX
  5
2797
  8
0
 10
134.71169577060681
 20
156.38177918018141
 30
0.0
  0
VERTEX
  5
2798
  8
0
 10
134.81875998780029
 20
156.3105367218875
 30
0.0
  0
VERTEX
  5
2799
  8
0
 10
134.95226161639039
 20
156.21944882249201
 30
0.0
  0
VERTEX
  5
279A
  8
0
 10
135.1117805660121
 20
156.10724124572039
 30
0.0
  0
VERTEX
  5
279B
  8
0
 10
135.29674772232289
 20
155.97238744716691
 30
0.0
  0
VERTEX
  5
279C
  8
0
 10
135.50505934417441
 20
155.81416268572821
 30
0.0
  0
VERTEX
  5
279D
  8
0
 10
135.6161589578029
 20
155.72691769806889
 30
0.0
  0
VERTEX
  5
279E
  8
0
 10
135.73142561040569
 20
155.6342250306663
 30
0.0
  0
VERTEX
  5
279F
  8
0
 10
135.97326381098159
 20
155.43226118453489
 30
0.0
  0
VERTEX
  5
27A0
  8
0
 10
136.2282074849573
 20
155.20776201962471
 30
0.0
  0
VERTEX
  5
27A1
  8
0
 10
136.49393390677611
 20
154.96016230087079
 30
0.0
  0
VERTEX
  5
27A2
  8
0
 10
136.7681663248359
 20
154.68884183884111
 30
0.0
  0
VERTEX
  5
27A3
  8
0
 10
137.05069498157849
 20
154.39091708688761
 30
0.0
  0
VERTEX
  5
27A4
  8
0
 10
137.19686667224619
 20
154.2288008165963
 30
0.0
  0
VERTEX
  5
27A5
  8
0
 10
137.22152819061441
 20
154.2008805731021
 30
0.0
  0
VERTEX
  5
27A6
  8
0
 10
137.27109159236471
 20
154.14425642361221
 30
0.0
  0
VERTEX
  5
27A7
  8
0
 10
137.3209630340537
 20
154.0865787987932
 30
0.0
  0
VERTEX
  5
27A8
  8
0
 10
137.34600954608771
 20
154.05734169037041
 30
0.0
  0
VERTEX
  5
27A9
  8
0
 10
137.37112737058939
 20
154.0278373091858
 30
0.0
  0
VERTEX
  5
27AA
  8
0
 10
137.4215692285257
 20
153.9680214589292
 30
0.0
  0
VERTEX
  5
27AB
  8
0
 10
137.47227301721239
 20
153.90712062696639
 30
0.0
  0
VERTEX
  5
27AC
  8
0
 10
137.52322293922501
 20
153.8451240472717
 30
0.0
  0
VERTEX
  5
27AD
  8
0
 10
137.57440299989719
 20
153.78202078822159
 30
0.0
  0
VERTEX
  5
27AE
  8
0
 10
137.62579701575061
 20
153.71779973126641
 30
0.0
  0
VERTEX
  5
27AF
  8
0
 10
137.6515691496856
 20
153.68526649755
 30
0.0
  0
VERTEX
  5
27B0
  8
0
 10
137.67738862160451
 20
153.65244954910349
 30
0.0
  0
VERTEX
  5
27B1
  8
0
 10
137.72916127612419
 20
153.5859586835972
 30
0.0
  0
VERTEX
  5
27B2
  8
0
 10
137.78109826555499
 20
153.5183153237468
 30
0.0
  0
VERTEX
  5
27B3
  8
0
 10
137.8331827053633
 20
153.44950738405751
 30
0.0
  0
VERTEX
  5
27B4
  8
0
 10
137.88539753949789
 20
153.37952248373509
 30
0.0
  0
VERTEX
  5
27B5
  8
0
 10
137.9377255369657
 20
153.30834792719219
 30
0.0
  0
VERTEX
  5
27B6
  8
0
 10
137.9639265379146
 20
153.27231047000549
 30
0.0
  0
VERTEX
  5
27B7
  8
0
 10
137.9901492854093
 20
153.2359706864255
 30
0.0
  0
VERTEX
  5
27B8
  8
0
 10
138.042651181368
 20
153.1623773859022
 30
0.0
  0
VERTEX
  5
27B9
  8
0
 10
138.09521341690009
 20
153.08755429066869
 30
0.0
  0
VERTEX
  5
27BA
  8
0
 10
138.12151153693381
 20
153.04967717754991
 30
0.0
  0
SEQEND
  5
27BB
  8
0
  0
LINE
  5
1DE3
  8
1
 10
129.54492302569119
 20
156.14181669790949
 30
0.0
 11
189.54492302569119
 21
156.14181669790949
 31
0.0
  0
LINE
  5
1DE4
  8
1
 10
159.54492302569119
 20
126.14181669790941
 30
0.0
 11
159.54492302569119
 21
186.14181669790949
 31
0.0
  0
LINE
  5
1DE5
  8
0
 10
151.79492302569119
 20
24.9348213599433
 30
0.0
 11
151.79492302569119
 21
24.634821359943299
 31
0.0
  0
LINE
  5
1DE6
  8
0
 10
167.29492302569119
 20
24.634821359943299
 30
0.0
 11
167.29492302569119
 21
24.9348213599433
 31
0.0
  0
LINE
  5
1DE7
  8
0
 10
141.04492302569119
 20
44.634821359943302
 30
0.0
 11
141.04492302569119
 21
24.9348213599433
 31
0.0
  0
LINE
  5
1DE8
  8
0
 10
178.04492302569119
 20
24.9348213599433
 30
0.0
 11
178.04492302569119
 21
44.634821359943302
 31
0.0
  0
ARC
  5
1DE9
  8
0
 10
169.80550733687119
 20
70.513376852683209
 30
0.0
 40
13.00000000000014
 50
28.865422738373461
 51
76.88590709209069
  0
ARC
  5
1DEA
  8
0
 10
149.28433871451131
 20
70.513376852683166
 30
0.0
 40
13.00000000000019
 50
103.1140929079093
 51
151.1345772616265
  0
LINE
  5
1DEB
  8
0
 10
147.0449230256913
 20
83.329415707738306
 30
0.0
 11
146.44271520616849
 21
83.172991606466027
 31
0.0
  0
ARC
  5
1DEC
  8
0
 10
159.54492302569119
 20
24.134821359943452
 30
0.0
 40
60.499999999999901
 50
78.076144871772215
 51
101.9238551282276
  0
ARC
  5
1DED
  8
0
 10
161.5449230256913
 20
63.754821359943378
 30
0.0
 40
27.000000000000121
 50
188.7760377288599
 51
207.40581137051899
  0
ARC
  5
1DEE
  8
0
 10
161.54492302569139
 20
63.754821359943293
 30
0.0
 40
27.000000000000249
 50
151.13457726162659
 51
171.22396227114001
  0
ARC
  5
1DEF
  8
0
 10
157.54492302569139
 20
63.754821359943463
 30
0.0
 40
26.999999999999751
 50
11.24420741096421
 51
28.865422738373461
  0
ARC
  5
1DF0
  8
0
 10
157.54492302569119
 20
63.75482135994335
 30
0.0
 40
26.999999999999979
 50
332.5941886294803
 51
348.75579258903412
  0
LINE
  5
1DF1
  8
0
 10
137.57516802759321
 20
51.326995913343289
 30
0.0
 11
141.04492302569119
 21
44.634821359943302
 31
0.0
  0
LINE
  5
1DF2
  8
0
 10
178.04492302569119
 20
44.634821359943302
 30
0.0
 11
181.5146780237892
 21
51.326995913343289
 31
0.0
  0
LINE
  5
1DF9
  8
0
 10
167.29492302569119
 20
24.634821359943299
 30
0.0
 11
151.79492302569119
 21
24.634821359943299
 31
0.0
  0
LINE
  5
1DFA
  8
0
 10
178.04492302569119
 20
24.9348213599433
 30
0.0
 11
141.04492302569119
 21
24.9348213599433
 31
0.0
  0
LINE
  5
1DFB
  8
0
 10
172.75508860985261
 20
83.174339308755847
 30
0.0
 11
146.3347574415298
 21
83.174339308755847
 31
0.0
  0
LINE
  5
1DFC
  8
0
 10
178.04492302569119
 20
44.634821359943302
 30
0.0
 11
141.04492302569119
 21
44.634821359943302
 31
0.0
  0
POLYLINE
  5
1DFD
  8
0
 66
     1
 10
0.0
 20
0.0
 30
0.0
  0
VERTEX
  5
27BC
  8
0
 10
137.73827750488189
 20
51.326995913343289
 30
0.0
  0
VERTEX
  5
27BD
  8
0
 10
137.85755774160251
 20
51.136184160614548
 30
0.0
  0
VERTEX
  5
27BE
  8
0
 10
138.09613825056121
 20
50.766530220316312
 30
0.0
  0
VERTEX
  5
27BF
  8
0
 10
138.33302805479209
 20
50.417986652363084
 30
0.0
  0
VERTEX
  5
27C0
  8
0
 10
138.4502068605272
 20
50.253564326905611
 30
0.0
  0
VERTEX
  5
27C1
  8
0
 10
138.46962904319679
 20
50.226878288272509
 30
0.0
  0
VERTEX
  5
27C2
  8
0
 10
138.5083708886057
 20
50.174153508730953
 30
0.0
  0
VERTEX
  5
27C3
  8
0
 10
138.5469684670029
 20
50.122315569192359
 30
0.0
  0
VERTEX
  5
27C4
  8
0
 10
138.56621035908171
 20
50.096738025513012
 30
0.0
  0
VERTEX
  5
27C5
  8
0
 10
138.58541324774919
 20
50.071392274811082
 30
0.0
  0
VERTEX
  5
27C6
  8
0
 10
138.62369777886369
 20
50.021410076444788
 30
0.0
  0
VERTEX
  5
27C7
  8
0
 10
138.66181294769481
 20
49.972397667515381
 30
0.0
  0
VERTEX
  5
27C8
  8
0
 10
138.6997495189222
 20
49.924383883365977
 30
0.0
  0
VERTEX
  5
27C9
  8
0
 10
138.73749826334731
 20
49.877397519597572
 30
0.0
  0
VERTEX
  5
27CA
  8
0
 10
138.7750499580934
 20
49.831467321536131
 30
0.0
  0
VERTEX
  5
27CB
  8
0
 10
138.79374903155781
 20
49.808907251017388
 30
0.0
  0
VERTEX
  5
27CC
  8
0
 10
138.81239538721789
 20
49.78662197279786
 30
0.0
  0
VERTEX
  5
27CD
  8
0
 10
138.84952534279009
 20
49.742890082951263
 30
0.0
  0
VERTEX
  5
27CE
  8
0
 10
138.8864306264762
 20
49.700300174293091
 30
0.0
  0
VERTEX
  5
27CF
  8
0
 10
138.9231020516815
 20
49.658880667776032
 30
0.0
  0
VERTEX
  5
27D0
  8
0
 10
138.9595304462888
 20
49.618659868151212
 30
0.0
  0
VERTEX
  5
27D1
  8
0
 10
138.99570665603019
 20
49.579665948418132
 30
0.0
  0
VERTEX
  5
27D2
  8
0
 10
139.0136973367272
 20
49.560637832590288
 30
0.0
  0
VERTEX
  5
27D3
  8
0
 10
139.0316215485212
 20
49.541926933707472
 30
0.0
  0
VERTEX
  5
27D4
  8
0
 10
139.06726601797121
 20
49.505470684759167
 30
0.0
  0
VERTEX
  5
27D5
  8
0
 10
139.10263099057909
 20
49.470324881198522
 30
0.0
  0
VERTEX
  5
27D6
  8
0
 10
139.13770743059791
 20
49.436517004856128
 30
0.0
  0
VERTEX
  5
27D7
  8
0
 10
139.17248634703861
 20
49.404074323422492
 30
0.0
  0
VERTEX
  5
27D8
  8
0
 10
139.2069588009569
 20
49.373023874772983
 30
0.0
  0
VERTEX
  5
27D9
  8
0
 10
139.22407732723309
 20
49.358029120573292
 30
0.0
  0
VERTEX
  5
27DA
  8
0
 10
139.24111591749229
 20
49.34339244873015
 30
0.0
  0
VERTEX
  5
27DB
  8
0
 10
139.27494892095069
 20
49.315206552722309
 30
0.0
  0
VERTEX
  5
27DC
  8
0
 10
139.30844903995941
 20
49.288492486739621
 30
0.0
  0
VERTEX
  5
27DD
  8
0
 10
139.34160744771
 20
49.263276372054861
 30
0.0
  0
VERTEX
  5
27DE
  8
0
 10
139.37441527059181
 20
49.239584117274113
 30
0.0
  0
VERTEX
  5
27DF
  8
0
 10
139.4068635994974
 20
49.217441382717247
 30
0.0
  0
VERTEX
  5
27E0
  8
0
 10
139.42295016301691
 20
49.206959027691447
 30
0.0
  0
VERTEX
  5
27E1
  8
0
 10
139.43894350257409
 20
49.196873544735162
 30
0.0
  0
VERTEX
  5
27E2
  8
0
 10
139.47064603931139
 20
49.177905660630223
 30
0.0
  0
VERTEX
  5
27E3
  8
0
 10
139.50196227579579
 20
49.160562434920777
 30
0.0
  0
VERTEX
  5
27E4
  8
0
 10
139.5328833009163
 20
49.144868187751868
 30
0.0
  0
VERTEX
  5
27E5
  8
0
 10
139.5634002432447
 20
49.130846826294679
 30
0.0
  0
VERTEX
  5
27E6
  8
0
 10
139.59350428826539
 20
49.118521819995991
 30
0.0
  0
VERTEX
  5
27E7
  8
0
 10
139.608398739552
 20
49.113002659498612
 30
0.0
  0
VERTEX
  5
27E8
  8
0
 10
139.62318669557919
 20
49.107916180525827
 30
0.0
  0
VERTEX
  5
27E9
  8
0
 10
139.65243881566889
 20
49.099052447230271
 30
0.0
  0
VERTEX
  5
27EA
  8
0
 10
139.68125210578339
 20
49.091952678817819
 30
0.0
  0
VERTEX
  5
27EB
  8
0
 10
139.69549155279771
 20
49.089071042856332
 30
0.0
  0
VERTEX
  5
27EC
  8
0
 10
139.70961814447949
 20
49.08663845189713
 30
0.0
  0
VERTEX
  5
27ED
  8
0
 10
139.73752864436321
 20
49.083130866838999
 30
0.0
  0
VERTEX
  5
27EE
  8
0
 10
139.76497546258409
 20
49.081450561260418
 30
0.0
  0
VERTEX
  5
27EF
  8
0
 10
139.77852171740301
 20
49.081301961307858
 30
0.0
  0
VERTEX
  5
27F0
  8
0
 10
139.7919175948534
 20
49.08161637745971
 30
0.0
  0
VERTEX
  5
27F1
  8
0
 10
139.81821136461051
 20
49.083625624849311
 30
0.0
  0
VERTEX
  5
27F2
  8
0
 10
139.8438447256207
 20
49.087458486694011
 30
0.0
  0
VERTEX
  5
27F3
  8
0
 10
139.86882194324991
 20
49.093094243788983
 30
0.0
  0
VERTEX
  5
27F4
  8
0
 10
139.89314728325701
 20
49.100511711191629
 30
0.0
  0
VERTEX
  5
27F5
  8
0
 10
139.9168250362024
 20
49.109689226116501
 30
0.0
  0
VERTEX
  5
27F6
  8
0
 10
139.92842242058541
 20
49.11493109985561
 30
0.0
  0
VERTEX
  5
27F7
  8
0
 10
139.93985953948709
 20
49.120604643413287
 30
0.0
  0
VERTEX
  5
27F8
  8
0
 10
139.96225519676631
 20
49.13323533829611
 30
0.0
  0
VERTEX
  5
27F9
  8
0
 10
139.9840164945733
 20
49.147558215823352
 30
0.0
  0
VERTEX
  5
27FA
  8
0
 10
140.0051480160692
 20
49.163549726487602
 30
0.0
  0
VERTEX
  5
27FB
  8
0
 10
140.0256544519205
 20
49.181185887170891
 30
0.0
  0
VERTEX
  5
27FC
  8
0
 10
140.04554060837231
 20
49.200442306648391
 30
0.0
  0
VERTEX
  5
27FD
  8
0
 10
140.05525261676101
 20
49.21067038670931
 30
0.0
  0
VERTEX
  5
27FE
  8
0
 10
140.06481141265499
 20
49.22129421478752
 30
0.0
  0
VERTEX
  5
27FF
  8
0
 10
140.0834719159075
 20
49.243716494583097
 30
0.0
  0
VERTEX
  5
2800
  8
0
 10
140.10152729384629
 20
49.26768371619103
 30
0.0
  0
VERTEX
  5
2801
  8
0
 10
140.11898284543031
 20
49.293170172168452
 30
0.0
  0
VERTEX
  5
2802
  8
0
 10
140.13584398979759
 20
49.320149913191841
 30
0.0
  0
VERTEX
  5
2803
  8
0
 10
140.1521162617465
 20
49.348596783601231
 30
0.0
  0
VERTEX
  5
2804
  8
0
 10
140.16003333043139
 20
49.363362170848063
 30
0.0
  0
VERTEX
  5
2805
  8
0
 10
140.16780530426311
 20
49.378484452675011
 30
0.0
  0
VERTEX
  5
2806
  8
0
 10
140.18291682351659
 20
49.40978636382043
 30
0.0
  0
VERTEX
  5
2807
  8
0
 10
140.19745656043619
 20
49.442475680198342
 30
0.0
  0
VERTEX
  5
2808
  8
0
 10
140.21143031123231
 20
49.47652532163989
 30
0.0
  0
VERTEX
  5
2809
  8
0
 10
140.2248439329594
 20
49.511907980904219
 30
0.0
  0
VERTEX
  5
280A
  8
0
 10
140.23770334708379
 20
49.548596139500503
 30
0.0
  0
VERTEX
  5
280B
  8
0
 10
140.24392709499969
 20
49.567421127792031
 30
0.0
  0
VERTEX
  5
280C
  8
0
 10
140.25001454197911
 20
49.586562084116579
 30
0.0
  0
VERTEX
  5
280D
  8
0
 10
140.26178357448751
 20
49.625777923327057
 30
0.0
  0
VERTEX
  5
280E
  8
0
 10
140.2730165706856
 20
49.66621560429769
 30
0.0
  0
VERTEX
  5
280F
  8
0
 10
140.28371972598671
 20
49.707846929248582
 30
0.0
  0
VERTEX
  5
2810
  8
0
 10
140.29389930469691
 20
49.750643571480488
 30
0.0
  0
VERTEX
  5
2811
  8
0
 10
140.30356163913871
 20
49.794577090809199
 30
0.0
  0
VERTEX
  5
2812
  8
0
 10
140.3082008369158
 20
49.816961264435392
 30
0.0
  0
VERTEX
  5
2813
  8
0
 10
140.31271312844149
 20
49.839618948287921
 30
0.0
  0
VERTEX
  5
2814
  8
0
 10
140.3213602370837
 20
49.885740520131691
 30
0.0
  0
VERTEX
  5
2815
  8
0
 10
140.32950949326741
 20
49.93291311078476
 30
0.0
  0
VERTEX
  5
2816
  8
0
 10
140.33339948375041
 20
49.956884554193891
 30
0.0
  0
VERTEX
  5
2817
  8
0
 10
140.33716748718831
 20
49.981107965097173
 30
0.0
  0
VERTEX
  5
2818
  8
0
 10
140.34434086925609
 20
50.03029627959755
 30
0.0
  0
VERTEX
  5
2819
  8
0
 10
140.35103634831361
 20
50.080449212865489
 30
0.0
  0
VERTEX
  5
281A
  8
0
 10
140.35420698628079
 20
50.105878390632739
 30
0.0
  0
VERTEX
  5
281B
  8
0
 10
140.35726073815641
 20
50.1315383103233
 30
0.0
  0
VERTEX
  5
281C
  8
0
 10
140.36302111843301
 20
50.183537266587841
 30
0.0
  0
VERTEX
  5
281D
  8
0
 10
140.3683243452175
 20
50.236417951734502
 30
0.0
  0
VERTEX
  5
281E
  8
0
 10
140.3833848871127
 20
50.428031662865692
 30
0.0
  0
VERTEX
  5
281F
  8
0
 10
140.397232846788
 20
50.777295337357188
 30
0.0
  0
VERTEX
  5
2820
  8
0
 10
140.3988898234829
 20
50.960160809274207
 30
0.0
  0
SEQEND
  5
2821
  8
0
  0
POLYLINE
  5
1DFE
  8
0
 66
     1
 10
0.0
 20
0.0
 30
0.0
  0
VERTEX
  5
2822
  8
0
 10
140.3988898234829
 20
50.960160809274207
 30
0.0
  0
VERTEX
  5
2823
  8
0
 10
140.39872117333749
 20
51.020286726579222
 30
0.0
  0
VERTEX
  5
2824
  8
0
 10
140.39739250721499
 20
51.141832758321343
 30
0.0
  0
VERTEX
  5
2825
  8
0
 10
140.39478800238479
 20
51.26493041234167
 30
0.0
  0
VERTEX
  5
2826
  8
0
 10
140.39302471112541
 20
51.326995913343289
 30
0.0
  0
SEQEND
  5
2827
  8
0
  0
POLYLINE
  5
1DFF
  8
0
 66
     1
 10
0.0
 20
0.0
 30
0.0
  0
VERTEX
  5
2828
  8
0
 10
140.39302471112541
 20
51.326995913343289
 30
0.0
  0
VERTEX
  5
2829
  8
0
 10
140.3916859199704
 20
51.368554064525682
 30
0.0
  0
VERTEX
  5
282A
  8
0
 10
140.38862556408671
 20
51.452470476450372
 30
0.0
  0
VERTEX
  5
282B
  8
0
 10
140.38507075087679
 20
51.537428201519532
 30
0.0
  0
VERTEX
  5
282C
  8
0
 10
140.3831138154726
 20
51.58028804383639
 30
0.0
  0
VERTEX
  5
282D
  8
0
 10
140.3810402992886
 20
51.623396822007493
 30
0.0
  0
VERTEX
  5
282E
  8
0
 10
140.37655273007019
 20
51.710346090161501
 30
0.0
  0
VERTEX
  5
282F
  8
0
 10
140.3716262762552
 20
51.798245889909147
 30
0.0
  0
VERTEX
  5
2830
  8
0
 10
140.35118427459361
 20
52.112947754408992
 30
0.0
  0
VERTEX
  5
2831
  8
0
 10
140.30626226866269
 20
52.674974834539718
 30
0.0
  0
VERTEX
  5
2832
  8
0
 10
140.28003392002961
 20
52.964974427689249
 30
0.0
  0
VERTEX
  5
2833
  8
0
 10
140.25183467485371
 20
53.259968505792067
 30
0.0
  0
VERTEX
  5
2834
  8
0
 10
140.19062102365061
 20
53.865769542084237
 30
0.0
  0
VERTEX
  5
2835
  8
0
 10
140.12493775209199
 20
54.490419667035908
 30
0.0
  0
VERTEX
  5
2836
  8
0
 10
140.05697818501829
 20
55.130431819530131
 30
0.0
  0
VERTEX
  5
2837
  8
0
 10
139.98869257421501
 20
55.782308450415677
 30
0.0
  0
VERTEX
  5
2838
  8
0
 10
139.92121142502901
 20
56.448392543771227
 30
0.0
  0
VERTEX
  5
2839
  8
0
 10
139.8878327853464
 20
56.790214166993422
 30
0.0
  0
VERTEX
  5
283A
  8
0
 10
139.85492875364579
 20
57.137793832244739
 30
0.0
  0
VERTEX
  5
283B
  8
0
 10
139.7912557787767
 20
57.849675494734413
 30
0.0
  0
VERTEX
  5
283C
  8
0
 10
139.73158200820251
 20
58.582938279832632
 30
0.0
  0
VERTEX
  5
283D
  8
0
 10
139.67723624366661
 20
59.336488862274052
 30
0.0
  0
VERTEX
  5
283E
  8
0
 10
139.62947492985481
 20
60.10923828594936
 30
0.0
  0
VERTEX
  5
283F
  8
0
 10
139.5894699129577
 20
60.900099994196168
 30
0.0
  0
VERTEX
  5
2840
  8
0
 10
139.5727159124383
 20
61.301983412029159
 30
0.0
  0
VERTEX
  5
2841
  8
0
 10
139.55829680204741
 20
61.707946046839091
 30
0.0
  0
VERTEX
  5
2842
  8
0
 10
139.537048987883
 20
62.524917148740599
 30
0.0
  0
VERTEX
  5
2843
  8
0
 10
139.52632713278771
 20
63.344548781669857
 30
0.0
  0
VERTEX
  5
2844
  8
0
 10
139.524982244314
 20
63.754821359943357
 30
0.0
  0
SEQEND
  5
2845
  8
0
  0
POLYLINE
  5
1E00
  8
0
 66
     1
 10
0.0
 20
0.0
 30
0.0
  0
VERTEX
  5
2846
  8
0
 10
139.524982244314
 20
63.754821359943357
 30
0.0
  0
VERTEX
  5
2847
  8
0
 10
139.52636193007251
 20
64.170368756437142
 30
0.0
  0
VERTEX
  5
2848
  8
0
 10
139.53736218171611
 20
65.000613703948332
 30
0.0
  0
VERTEX
  5
2849
  8
0
 10
139.55916147843249
 20
65.828226840904875
 30
0.0
  0
VERTEX
  5
284A
  8
0
 10
139.57399587748009
 20
66.240574682347074
 30
0.0
  0
VERTEX
  5
284B
  8
0
 10
139.5913971658436
 20
66.65232696401101
 30
0.0
  0
VERTEX
  5
284C
  8
0
 10
139.63362479298209
 20
67.473361751864815
 30
0.0
  0
VERTEX
  5
284D
  8
0
 10
139.68512518348851
 20
68.289285972889957
 30
0.0
  0
VERTEX
  5
284E
  8
0
 10
139.74494028278929
 20
69.097923739662662
 30
0.0
  0
VERTEX
  5
284F
  8
0
 10
139.81187450062961
 20
69.897099173031592
 30
0.0
  0
VERTEX
  5
2850
  8
0
 10
139.88428914896571
 20
70.682540862809404
 30
0.0
  0
VERTEX
  5
2851
  8
0
 10
139.92155738133189
 20
71.064743697361152
 30
0.0
  0
VERTEX
  5
2852
  8
0
 10
139.95912400293079
 20
71.438943010011073
 30
0.0
  0
VERTEX
  5
2853
  8
0
 10
140.03414248122701
 20
72.162867514080233
 30
0.0
  0
VERTEX
  5
2854
  8
0
 10
140.10732196712459
 20
72.853382734062933
 30
0.0
  0
VERTEX
  5
2855
  8
0
 10
140.17664039696569
 20
73.509540363977464
 30
0.0
  0
VERTEX
  5
2856
  8
0
 10
140.24008001105281
 20
74.130358287729294
 30
0.0
  0
VERTEX
  5
2857
  8
0
 10
140.29566977711929
 20
74.715281833724404
 30
0.0
  0
VERTEX
  5
2858
  8
0
 10
140.32020626270671
 20
74.997784089492313
 30
0.0
  0
VERTEX
  5
2859
  8
0
 10
140.3422315604877
 20
75.274577109552496
 30
0.0
  0
VERTEX
  5
285A
  8
0
 10
140.36417467244581
 20
75.589131229146844
 30
0.0
  0
VERTEX
  5
285B
  8
0
 10
140.36960807664889
 20
75.677169148705005
 30
0.0
  0
VERTEX
  5
285C
  8
0
 10
140.3746385082099
 20
75.764333682998682
 30
0.0
  0
VERTEX
  5
285D
  8
0
 10
140.37699715394331
 20
75.807578578316196
 30
0.0
  0
VERTEX
  5
285E
  8
0
 10
140.37924848178801
 20
75.850593309409646
 30
0.0
  0
VERTEX
  5
285F
  8
0
 10
140.38342028379759
 20
75.935916538491085
 30
0.0
  0
VERTEX
  5
2860
  8
0
 10
140.3871359674086
 20
76.02027189205495
 30
0.0
  0
VERTEX
  5
2861
  8
0
 10
140.3903773464065
 20
76.103627877948043
 30
0.0
  0
VERTEX
  5
2862
  8
0
 10
140.39312598787339
 20
76.185952961276087
 30
0.0
  0
VERTEX
  5
2863
  8
0
 10
140.3953632036644
 20
76.267215531832989
 30
0.0
  0
VERTEX
  5
2864
  8
0
 10
140.396284114726
 20
76.307438467117805
 30
0.0
  0
VERTEX
  5
2865
  8
0
 10
140.3970700406694
 20
76.347383867494926
 30
0.0
  0
VERTEX
  5
2866
  8
0
 10
140.3982272698677
 20
76.426426093347061
 30
0.0
  0
VERTEX
  5
2867
  8
0
 10
140.39881537420769
 20
76.504310136323383
 30
0.0
  0
VERTEX
  5
2868
  8
0
 10
140.3988898234829
 20
76.542807750001373
 30
0.0
  0
SEQEND
  5
2869
  8
0
  0
POLYLINE
  5
1E01
  8
0
 66
     1
 10
0.0
 20
0.0
 30
0.0
  0
VERTEX
  5
286A
  8
0
 10
140.3988898234829
 20
76.542807750001373
 30
0.0
  0
VERTEX
  5
286B
  8
0
 10
140.3987986392082
 20
76.58481445020594
 30
0.0
  0
VERTEX
  5
286C
  8
0
 10
140.39805902070509
 20
76.667710488283689
 30
0.0
  0
VERTEX
  5
286D
  8
0
 10
140.3965536011512
 20
76.749079995462353
 30
0.0
  0
VERTEX
  5
286E
  8
0
 10
140.3955050457009
 20
76.789178381656285
 30
0.0
  0
SEQEND
  5
286F
  8
0
  0
POLYLINE
  5
1E02
  8
0
 66
     1
 10
0.0
 20
0.0
 30
0.0
  0
VERTEX
  5
2870
  8
0
 10
140.3955050457009
 20
76.789178381656257
 30
0.0
  0
VERTEX
  5
2871
  8
0
 10
140.3948005181679
 20
76.812351862397037
 30
0.0
  0
VERTEX
  5
2872
  8
0
 10
140.39318053608039
 20
76.858172153778568
 30
0.0
  0
VERTEX
  5
2873
  8
0
 10
140.39127365428359
 20
76.903285334319705
 30
0.0
  0
VERTEX
  5
2874
  8
0
 10
140.39021050454389
 20
76.925574933171418
 30
0.0
  0
VERTEX
  5
2875
  8
0
 10
140.38907308549659
 20
76.94768556782077
 30
0.0
  0
VERTEX
  5
2876
  8
0
 10
140.3865720534971
 20
76.991367043867115
 30
0.0
  0
VERTEX
  5
2877
  8
0
 10
140.38376379364729
 20
77.034323974699504
 30
0.0
  0
VERTEX
  5
2878
  8
0
 10
140.38064155324341
 20
77.076550591547772
 30
0.0
  0
VERTEX
  5
2879
  8
0
 10
140.37719859169039
 20
77.118041140414761
 30
0.0
  0
VERTEX
  5
287A
  8
0
 10
140.37342818050061
 20
77.158789877298631
 30
0.0
  0
VERTEX
  5
287B
  8
0
 10
140.37141808191089
 20
77.178884272675091
 30
0.0
  0
VERTEX
  5
287C
  8
0
 10
140.36932360312059
 20
77.198791062844634
 30
0.0
  0
VERTEX
  5
287D
  8
0
 10
140.3648781545931
 20
77.238038956418066
 30
0.0
  0
VERTEX
  5
287E
  8
0
 10
140.36008514105771
 20
77.276527809593674
 30
0.0
  0
VERTEX
  5
287F
  8
0
 10
140.35493787910241
 20
77.314251859058217
 30
0.0
  0
VERTEX
  5
2880
  8
0
 10
140.34942969497661
 20
77.351205318926276
 30
0.0
  0
VERTEX
  5
2881
  8
0
 10
140.343553923679
 20
77.387382372471677
 30
0.0
  0
VERTEX
  5
2882
  8
0
 10
140.3404761121709
 20
77.405177918547935
 30
0.0
  0
VERTEX
  5
2883
  8
0
 10
140.33730390793701
 20
77.422777163280244
 30
0.0
  0
VERTEX
  5
2884
  8
0
 10
140.3306729970966
 20
77.457383785832477
 30
0.0
  0
VERTEX
  5
2885
  8
0
 10
140.32365454594361
 20
77.491196275528011
 30
0.0
  0
VERTEX
  5
2886
  8
0
 10
140.31999791730721
 20
77.507802837884469
 30
0.0
  0
VERTEX
  5
2887
  8
0
 10
140.3162419134795
 20
77.524208598167831
 30
0.0
  0
VERTEX
  5
2888
  8
0
 10
140.308428461679
 20
77.556414638912258
 30
0.0
  0
VERTEX
  5
2889
  8
0
 10
140.30020979979281
 20
77.587799933904535
 30
0.0
  0
VERTEX
  5
288A
  8
0
 10
140.29595036054201
 20
77.603169528345603
 30
0.0
  0
VERTEX
  5
288B
  8
0
 10
140.29159053014189
 20
77.618321635413693
 30
0.0
  0
VERTEX
  5
288C
  8
0
 10
140.28256757117941
 20
77.647971831436877
 30
0.0
  0
VERTEX
  5
288D
  8
0
 10
140.27313674188241
 20
77.676747414463065
 30
0.0
  0
VERTEX
  5
288E
  8
0
 10
140.2632939706146
 20
77.704645280652016
 30
0.0
  0
VERTEX
  5
288F
  8
0
 10
140.25303529492859
 20
77.731662324502096
 30
0.0
  0
VERTEX
  5
2890
  8
0
 10
140.24235686123171
 20
77.757795433071152
 30
0.0
  0
VERTEX
  5
2891
  8
0
 10
140.23685906053731
 20
77.770529535276495
 30
0.0
  0
VERTEX
  5
2892
  8
0
 10
140.23125492433351
 20
77.783041479765814
 30
0.0
  0
VERTEX
  5
2893
  8
0
 10
140.21972584688999
 20
77.807397317716891
 30
0.0
  0
VERTEX
  5
2894
  8
0
 10
140.20776609876549
 20
77.830859772760576
 30
0.0
  0
VERTEX
  5
2895
  8
0
 10
140.1953722563297
 20
77.853425636048058
 30
0.0
  0
VERTEX
  5
2896
  8
0
 10
140.18254100171441
 20
77.875091656307831
 30
0.0
  0
VERTEX
  5
2897
  8
0
 10
140.1692691220513
 20
77.895854531787904
 30
0.0
  0
VERTEX
  5
2898
  8
0
 10
140.16246697233021
 20
77.905896242585555
 30
0.0
  0
VERTEX
  5
2899
  8
0
 10
140.15555350871719
 20
77.915710901906394
 30
0.0
  0
VERTEX
  5
289A
  8
0
 10
140.1413911566103
 20
77.934657338641799
 30
0.0
  0
VERTEX
  5
289B
  8
0
 10
140.12677916348559
 20
77.952690337695685
 30
0.0
  0
VERTEX
  5
289C
  8
0
 10
140.11171472937639
 20
77.969806309462555
 30
0.0
  0
VERTEX
  5
289D
  8
0
 10
140.09619515613139
 20
77.986001569843154
 30
0.0
  0
VERTEX
  5
289E
  8
0
 10
140.0802178470928
 20
78.001272330939244
 30
0.0
  0
VERTEX
  5
289F
  8
0
 10
140.07205675790729
 20
78.008559809846275
 30
0.0
  0
VERTEX
  5
28A0
  8
0
 10
140.06378030694921
 20
78.015614691668787
 30
0.0
  0
VERTEX
  5
28A1
  8
0
 10
140.04688014178711
 20
78.029024628342285
 30
0.0
  0
VERTEX
  5
28A2
  8
0
 10
140.029515059375
 20
78.041497985241278
 30
0.0
  0
VERTEX
  5
28A3
  8
0
 10
140.0116973584565
 20
78.053021594596274
 30
0.0
  0
VERTEX
  5
28A4
  8
0
 10
139.9934433057378
 20
78.063583886949118
 30
0.0
  0
VERTEX
  5
28A5
  8
0
 10
139.97475372204539
 20
78.073185028737498
 30
0.0
  0
VERTEX
  5
28A6
  8
0
 10
139.96524590170119
 20
78.077625206499818
 30
0.0
  0
VERTEX
  5
28A7
  8
0
 10
139.95562957379019
 20
78.081825134391394
 30
0.0
  0
VERTEX
  5
28A8
  8
0
 10
139.9360719907738
 20
78.08950425193953
 30
0.0
  0
VERTEX
  5
28A9
  8
0
 10
139.91608226588201
 20
78.096222361042237
 30
0.0
  0
VERTEX
  5
28AA
  8
0
 10
139.8956618548151
 20
78.101979371092256
 30
0.0
  0
VERTEX
  5
28AB
  8
0
 10
139.874812375857
 20
78.106775119397469
 30
0.0
  0
VERTEX
  5
28AC
  8
0
 10
139.85353560968639
 20
78.110609369458302
 30
0.0
  0
VERTEX
  5
28AD
  8
0
 10
139.84273759472771
 20
78.112165838159143
 30
0.0
  0
VERTEX
  5
28AE
  8
0
 10
139.83183349923559
 20
78.113481809351555
 30
0.0
  0
VERTEX
  5
28AF
  8
0
 10
139.80970814959429
 20
78.115392050230923
 30
0.0
  0
VERTEX
  5
28B0
  8
0
 10
139.78716182796541
 20
78.11633962495327
 30
0.0
  0
VERTEX
  5
28B1
  8
0
 10
139.7757315554835
 20
78.116452244805885
 30
0.0
  0
VERTEX
  5
28B2
  8
0
 10
139.76419696366651
 20
78.116323986837983
 30
0.0
  0
VERTEX
  5
28B3
  8
0
 10
139.7408161481838
 20
78.11534450856594
 30
0.0
  0
VERTEX
  5
28B4
  8
0
 10
139.71702213527061
 20
78.113400481222271
 30
0.0
  0
VERTEX
  5
28B5
  8
0
 10
139.7049710847302
 20
78.112066517598919
 30
0.0
  0
VERTEX
  5
28B6
  8
0
 10
139.69281784109251
 20
78.110491113486248
 30
0.0
  0
VERTEX
  5
28B7
  8
0
 10
139.6682063444153
 20
78.106615530969904
 30
0.0
  0
VERTEX
  5
28B8
  8
0
 10
139.64319088683189
 20
78.101772775705143
 30
0.0
  0
VERTEX
  5
28B9
  8
0
 10
139.6177748730241
 20
78.095961805778217
 30
0.0
  0
VERTEX
  5
28BA
  8
0
 10
139.59196883277929
 20
78.089183439677043
 30
0.0
  0
VERTEX
  5
28BB
  8
0
 10
139.56580936619119
 20
78.081447401193714
 30
0.0
  0
VERTEX
  5
28BC
  8
0
 10
139.5526002803503
 20
78.077221687269883
 30
0.0
  0
VERTEX
  5
28BD
  8
0
 10
139.53930587239839
 20
78.072758061410454
 30
0.0
  0
VERTEX
  5
28BE
  8
0
 10
139.51246387619969
 20
78.063118680971911
 30
0.0
  0
VERTEX
  5
28BF
  8
0
 10
139.4852890290141
 20
78.052532400147484
 30
0.0
  0
VERTEX
  5
28C0
  8
0
 10
139.45778710992121
 20
78.041002245990697
 30
0.0
  0
VERTEX
  5
28C1
  8
0
 10
139.42996402659929
 20
78.028531139595074
 30
0.0
  0
VERTEX
  5
28C2
  8
0
 10
139.4018258161405
 20
78.015121903413814
 30
0.0
  0
VERTEX
  5
28C3
  8
0
 10
139.38764046038119
 20
78.00806634350667
 30
0.0
  0
VERTEX
  5
28C4
  8
0
 10
139.37337864572251
 20
78.000777268608644
 30
0.0
  0
VERTEX
  5
28C5
  8
0
 10
139.34462881311691
 20
77.985499882394876
 30
0.0
  0
VERTEX
  5
28C6
  8
0
 10
139.31558274701871
 20
77.969292315348952
 30
0.0
  0
VERTEX
  5
28C7
  8
0
 10
139.2862470071783
 20
77.952157068645619
 30
0.0
  0
VERTEX
  5
28C8
  8
0
 10
139.25662828432399
 20
77.934096581192335
 30
0.0
  0
VERTEX
  5
28C9
  8
0
 10
139.2267333998611
 20
77.915113236629111
 30
0.0
  0
VERTEX
  5
28CA
  8
0
 10
139.21168456432099
 20
77.905276224392367
 30
0.0
  0
VERTEX
  5
28CB
  8
0
 10
139.1965693053375
 20
77.895209370163002
 30
0.0
  0
VERTEX
  5
28CC
  8
0
 10
139.16614308166669
 20
77.874387275207539
 30
0.0
  0
VERTEX
  5
28CD
  8
0
 10
139.13546193810171
 20
77.852649209798429
 30
0.0
  0
VERTEX
  5
28CE
  8
0
 10
139.1045332109538
 20
77.829997402758067
 30
0.0
  0
VERTEX
  5
28CF
  8
0
 10
139.073364362056
 20
77.80643405958314
 30
0.0
  0
VERTEX
  5
28D0
  8
0
 10
139.04196297696589
 20
77.781961368031006
 30
0.0
  0
VERTEX
  5
28D1
  8
0
 10
139.02617748716659
 20
77.769384696739039
 30
0.0
  0
VERTEX
  5
28D2
  8
0
 10
139.01033676291351
 20
77.756581503381895
 30
0.0
  0
VERTEX
  5
28D3
  8
0
 10
138.97852273370859
 20
77.730321058430889
 30
0.0
  0
VERTEX
  5
28D4
  8
0
 10
138.9465604387733
 20
77.703211349446093
 30
0.0
  0
VERTEX
  5
28D5
  8
0
 10
138.9144577563973
 20
77.675258478504659
 30
0.0
  0
VERTEX
  5
28D6
  8
0
 10
138.88222257723871
 20
77.646468402186386
 30
0.0
  0
VERTEX
  5
28D7
  8
0
 10
138.84986282010399
 20
77.616846955086203
 30
0.0
  0
VERTEX
  5
28D8
  8
0
 10
138.83363870765811
 20
77.601726260502531
 30
0.0
  0
VERTEX
  5
28D9
  8
0
 10
138.81738643410549
 20
77.586399862192934
 30
0.0
  0
VERTEX
  5
28DA
  8
0
 10
138.78480140044539
 20
77.555132750888674
 30
0.0
  0
VERTEX
  5
28DB
  8
0
 10
138.75211573382009
 20
77.52305116253477
 30
0.0
  0
VERTEX
  5
28DC
  8
0
 10
138.73573767715581
 20
77.506706650369864
 30
0.0
  0
VERTEX
  5
28DD
  8
0
 10
138.71933748344131
 20
77.49016056361387
 30
0.0
  0
VERTEX
  5
28DE
  8
0
 10
138.6864747336748
 20
77.456466356401052
 30
0.0
  0
VERTEX
  5
28DF
  8
0
 10
138.6535356042989
 20
77.421973889140475
 30
0.0
  0
VERTEX
  5
28E0
  8
0
 10
138.6370399443509
 20
77.404429966933151
 30
0.0
  0
VERTEX
  5
28E1
  8
0
 10
138.62052825039069
 20
77.386688465707621
 30
0.0
  0
VERTEX
  5
28E2
  8
0
 10
138.5874608618461
 20
77.350615354740171
 30
0.0
  0
VERTEX
  5
28E3
  8
0
 10
138.55434166254699
 20
77.313759798224396
 30
0.0
  0
VERTEX
  5
28E4
  8
0
 10
138.52117890918669
 20
77.276127019526683
 30
0.0
  0
VERTEX
  5
28E5
  8
0
 10
138.48798088977071
 20
77.23772223086317
 30
0.0
  0
VERTEX
  5
28E6
  8
0
 10
138.45475592180739
 20
77.198550640203223
 30
0.0
  0
VERTEX
  5
28E7
  8
0
 10
138.43813593889811
 20
77.178678922024744
 30
0.0
  0
VERTEX
  5
28E8
  8
0
 10
138.4215123502085
 20
77.158617457605743
 30
0.0
  0
VERTEX
  5
28E9
  8
0
 10
138.38825854491711
 20
77.117927900988988
 30
0.0
  0
VERTEX
  5
28EA
  8
0
 10
138.35500289828479
 20
77.076487201338281
 30
0.0
  0
VERTEX
  5
28EB
  8
0
 10
138.32175382221959
 20
77.034300607357295
 30
0.0
  0
VERTEX
  5
28EC
  8
0
 10
138.28851974512389
 20
76.991373389571152
 30
0.0
  0
VERTEX
  5
28ED
  8
0
 10
138.2553091086474
 20
76.947710843891741
 30
0.0
  0
VERTEX
  5
28EE
  8
0
 10
138.23871522144279
 20
76.925605485764635
 30
0.0
  0
VERTEX
  5
28EF
  8
0
 10
138.22213036427621
 20
76.903318294656614
 30
0.0
  0
VERTEX
  5
28F0
  8
0
 10
138.1889919697806
 20
76.858201097155614
 30
0.0
  0
VERTEX
  5
28F1
  8
0
 10
138.15590238554361
 20
76.812364639659421
 30
0.0
  0
VERTEX
  5
28F2
  8
0
 10
138.13937854093081
 20
76.789178381656271
 30
0.0
  0
SEQEND
  5
28F3
  8
0
  0
POLYLINE
  5
1E03
  8
0
 66
     1
 10
0.0
 20
0.0
 30
0.0
  0
VERTEX
  5
28F4
  8
0
 10
138.13937854093069
 20
76.789178381656285
 30
0.0
  0
VERTEX
  5
28F5
  8
0
 10
138.01991299489001
 20
76.617147157159295
 30
0.0
  0
VERTEX
  5
28F6
  8
0
 10
137.7826140212598
 20
76.253744316150247
 30
0.0
  0
VERTEX
  5
28F7
  8
0
 10
137.5489499310635
 20
75.867580565154697
 30
0.0
  0
VERTEX
  5
28F8
  8
0
 10
137.43400823205221
 20
75.667097290753645
 30
0.0
  0
VERTEX
  5
28F9
  8
0
 10
137.32059578514071
 20
75.462288618091748
 30
0.0
  0
VERTEX
  5
28FA
  8
0
 10
137.0983748374282
 20
75.040075582751655
 30
0.0
  0
VERTEX
  5
28FB
  8
0
 10
136.88270492010969
 20
74.602236572036304
 30
0.0
  0
VERTEX
  5
28FC
  8
0
 10
136.67455644194359
 20
74.151110197135637
 30
0.0
  0
VERTEX
  5
28FD
  8
0
 10
136.47482123912789
 20
73.689041543123324
 30
0.0
  0
VERTEX
  5
28FE
  8
0
 10
136.28296287698581
 20
73.214980070777841
 30
0.0
  0
VERTEX
  5
28FF
  8
0
 10
136.1891562653899
 20
72.971194093932752
 30
0.0
  0
VERTEX
  5
2900
  8
0
 10
136.09686886285459
 20
72.72290905223177
 30
0.0
  0
VERTEX
  5
2901
  8
0
 10
135.91726539150449
 20
72.213090199703487
 30
0.0
  0
VERTEX
  5
2902
  8
0
 10
135.74498060832499
 20
71.686013474351924
 30
0.0
  0
VERTEX
  5
2903
  8
0
 10
135.58084334965531
 20
71.14216014077175
 30
0.0
  0
VERTEX
  5
2904
  8
0
 10
135.4256824136375
 20
70.582005479362351
 30
0.0
  0
VERTEX
  5
2905
  8
0
 10
135.280325867421
 20
70.006020884036019
 30
0.0
  0
VERTEX
  5
2906
  8
0
 10
135.2115826681538
 20
69.712239032757481
 30
0.0
  0
VERTEX
  5
2907
  8
0
 10
135.14560047881221
 20
69.41467556297286
 30
0.0
  0
VERTEX
  5
2908
  8
0
 10
135.0223313311493
 20
68.808438020454133
 30
0.0
  0
VERTEX
  5
2909
  8
0
 10
134.91136470913531
 20
68.187915825976432
 30
0.0
  0
VERTEX
  5
290A
  8
0
 10
134.8610315510885
 20
67.874279549029325
 30
0.0
  0
SEQEND
  5
290B
  8
0
  0
POLYLINE
  5
1E04
  8
0
 66
     1
 10
0.0
 20
0.0
 30
0.0
  0
VERTEX
  5
290C
  8
0
 10
134.8610315510885
 20
67.874279549029325
 30
0.0
  0
VERTEX
  5
290D
  8
0
 10
134.7649551705552
 20
67.194141650516826
 30
0.0
  0
VERTEX
  5
290E
  8
0
 10
134.6247384711458
 20
65.82311455043677
 30
0.0
  0
VERTEX
  5
290F
  8
0
 10
134.5545372383751
 20
64.444936208834704
 30
0.0
  0
VERTEX
  5
2910
  8
0
 10
134.5457604551778
 20
63.754821359943357
 30
0.0
  0
SEQEND
  5
2911
  8
0
  0
POLYLINE
  5
1E05
  8
0
 66
     1
 10
0.0
 20
0.0
 30
0.0
  0
VERTEX
  5
2912
  8
0
 10
134.5457604551778
 20
63.754821359943357
 30
0.0
  0
VERTEX
  5
2913
  8
0
 10
134.55456622577921
 20
63.063568074660921
 30
0.0
  0
VERTEX
  5
2914
  8
0
 10
134.6250041817687
 20
61.683059013032789
 30
0.0
  0
VERTEX
  5
2915
  8
0
 10
134.7653915740658
 20
60.312099025323619
 30
0.0
  0
VERTEX
  5
2916
  8
0
 10
134.8610315510885
 20
59.635363170857488
 30
0.0
  0
SEQEND
  5
2917
  8
0
  0
POLYLINE
  5
1E06
  8
0
 66
     1
 10
0.0
 20
0.0
 30
0.0
  0
VERTEX
  5
2918
  8
0
 10
134.8610315510885
 20
59.635363170857488
 30
0.0
  0
VERTEX
  5
2919
  8
0
 10
134.908182854036
 20
59.340868333089453
 30
0.0
  0
VERTEX
  5
291A
  8
0
 10
135.01104679972971
 20
58.760612881845361
 30
0.0
  0
VERTEX
  5
291B
  8
0
 10
135.1247808435254
 20
58.192418831569952
 30
0.0
  0
VERTEX
  5
291C
  8
0
 10
135.18551681661631
 20
57.913000980119833
 30
0.0
  0
VERTEX
  5
291D
  8
0
 10
135.24871994684719
 20
57.636785949042689
 30
0.0
  0
VERTEX
  5
291E
  8
0
 10
135.38218665683081
 20
57.094214595454503
 30
0.0
  0
VERTEX
  5
291F
  8
0
 10
135.52449157766321
 20
56.56520520941703
 30
0.0
  0
VERTEX
  5
2920
  8
0
 10
135.67493414852001
 20
56.050257709359947
 30
0.0
  0
VERTEX
  5
2921
  8
0
 10
135.8328037272812
 20
55.549870854113323
 30
0.0
  0
VERTEX
  5
2922
  8
0
 10
135.99738097670681
 20
55.0645416069475
 30
0.0
  0
VERTEX
  5
2923
  8
0
 10
136.08195821526641
 20
54.827678252500299
 30
0.0
  0
VERTEX
  5
2924
  8
0
 10
136.1679395452214
 20
54.594764560438442
 30
0.0
  0
VERTEX
  5
2925
  8
0
 10
136.3437374122079
 20
54.141058039738617
 30
0.0
  0
VERTEX
  5
2926
  8
0
 10
136.5236725557877
 20
53.704770975364738
 30
0.0
  0
VERTEX
  5
2927
  8
0
 10
136.70680819876381
 20
53.28668339306936
 30
0.0
  0
VERTEX
  5
2928
  8
0
 10
136.89239073238639
 20
52.887117409494387
 30
0.0
  0
VERTEX
  5
2929
  8
0
 10
137.07967913464691
 20
52.506396151167742
 30
0.0
  0
VERTEX
  5
292A
  8
0
 10
137.17373531268251
 20
52.323203702895107
 30
0.0
  0
VERTEX
  5
292B
  8
0
 10
137.26794661866271
 20
52.144844430015482
 30
0.0
  0
VERTEX
  5
292C
  8
0
 10
137.45648234261
 20
51.802789990796242
 30
0.0
  0
VERTEX
  5
292D
  8
0
 10
137.64459304006891
 20
51.480565633013612
 30
0.0
  0
VERTEX
  5
292E
  8
0
 10
137.73827750488189
 20
51.326995913343289
 30
0.0
  0
SEQEND
  5
292F
  8
0
  0
POLYLINE
  5
1E07
  8
0
 66
     1
 10
0.0
 20
0.0
 30
0.0
  0
VERTEX
  5
2930
  8
0
 10
163.22432181307289
 20
76.789178381656257
 30
0.0
  0
VERTEX
  5
2931
  8
0
 10
163.1966665494916
 20
76.812361244153806
 30
0.0
  0
VERTEX
  5
2932
  8
0
 10
163.14094884380569
 20
76.858192840014567
 30
0.0
  0
VERTEX
  5
2933
  8
0
 10
163.08469067581291
 20
76.903307672845585
 30
0.0
  0
VERTEX
  5
2934
  8
0
 10
163.05635984317951
 20
76.925594589408149
 30
0.0
  0
VERTEX
  5
2935
  8
0
 10
163.02789500897819
 20
76.947700262794854
 30
0.0
  0
VERTEX
  5
2936
  8
0
 10
162.97056484013601
 20
76.991365161734151
 30
0.0
  0
VERTEX
  5
2937
  8
0
 10
162.9127031950762
 20
77.034296951017723
 30
0.0
  0
VERTEX
  5
2938
  8
0
 10
162.8543131240564
 20
77.076490238735033
 30
0.0
  0
VERTEX
  5
2939
  8
0
 10
162.79539769726611
 20
77.117939656443184
 30
0.0
  0
VERTEX
  5
293A
  8
0
 10
162.735960000284
 20
77.158639855365493
 30
0.0
  0
VERTEX
  5
293B
  8
0
 10
162.7060462678094
 20
77.178707330608461
 30
0.0
  0
VERTEX
  5
293C
  8
0
 10
162.67600312956031
 20
77.198585502045148
 30
0.0
  0
VERTEX
  5
293D
  8
0
 10
162.61553018796681
 20
77.23777127344394
 30
0.0
  0
VERTEX
  5
293E
  8
0
 10
162.55454428045579
 20
77.276191851478671
 30
0.0
  0
VERTEX
  5
293F
  8
0
 10
162.49304850987119
 20
77.313841916989389
 30
0.0
  0
VERTEX
  5
2940
  8
0
 10
162.43104597295709
 20
77.350716143136808
 30
0.0
  0
VERTEX
  5
2941
  8
0
 10
162.36853975661401
 20
77.386809188227772
 30
0.0
  0
VERTEX
  5
2942
  8
0
 10
162.33709872976539
 20
77.404561092642297
 30
0.0
  0
VERTEX
  5
2943
  8
0
 10
162.30553293444811
 20
77.422115687971456
 30
0.0
  0
VERTEX
  5
2944
  8
0
 10
162.24202856366571
 20
77.456630247170722
 30
0.0
  0
VERTEX
  5
2945
  8
0
 10
162.17802968236569
 20
77.490347430857213
 30
0.0
  0
VERTEX
  5
2946
  8
0
 10
162.14584574388621
 20
77.506905295275715
 30
0.0
  0
VERTEX
  5
2947
  8
0
 10
162.1135393072781
 20
77.523261754880906
 30
0.0
  0
VERTEX
  5
2948
  8
0
 10
162.0485604320049
 20
77.555367675968881
 30
0.0
  0
VERTEX
  5
2949
  8
0
 10
161.9830960258131
 20
77.586659581270709
 30
0.0
  0
VERTEX
  5
294A
  8
0
 10
161.95018266970271
 20
77.601998502276857
 30
0.0
  0
VERTEX
  5
294B
  8
0
 10
161.91714903303131
 20
77.617131777412226
 30
0.0
  0
VERTEX
  5
294C
  8
0
 10
161.85072237310379
 20
77.646778479081974
 30
0.0
  0
VERTEX
  5
294D
  8
0
 10
161.78381894134799
 20
77.675593797178891
 30
0.0
  0
VERTEX
  5
294E
  8
0
 10
161.7164416104647
 20
77.703571726552795
 30
0.0
  0
VERTEX
  5
294F
  8
0
 10
161.64859959422611
 20
77.730703637648475
 30
0.0
  0
VERTEX
  5
2950
  8
0
 10
161.58038601108021
 20
77.756949486511843
 30
0.0
  0
VERTEX
  5
2951
  8
0
 10
161.54615279698999
 20
77.769735043878001
 30
0.0
  0
VERTEX
  5
2952
  8
0
 10
161.51183653799561
 20
77.78229527712756
 30
0.0
  0
VERTEX
  5
2953
  8
0
 10
161.44295860285919
 20
77.806738529869335
 30
0.0
  0
VERTEX
  5
2954
  8
0
 10
161.37375965077601
 20
77.830276753906617
 30
0.0
  0
VERTEX
  5
2955
  8
0
 10
161.30424714003721
 20
77.852907441589679
 30
0.0
  0
VERTEX
  5
2956
  8
0
 10
161.2344285383777
 20
77.874628062483652
 30
0.0
  0
VERTEX
  5
2957
  8
0
 10
161.16431131955639
 20
77.895436057074349
 30
0.0
  0
VERTEX
  5
2958
  8
0
 10
161.12914306514401
 20
77.905497010088339
 30
0.0
  0
VERTEX
  5
2959
  8
0
 10
161.09390296028789
 20
77.915328830169599
 30
0.0
  0
VERTEX
  5
295A
  8
0
 10
161.02321093755791
 20
77.9343037440226
 30
0.0
  0
VERTEX
  5
295B
  8
0
 10
160.95224272634721
 20
77.952358111204788
 30
0.0
  0
VERTEX
  5
295C
  8
0
 10
160.88100579779061
 20
77.969489187257579
 30
0.0
  0
VERTEX
  5
295D
  8
0
 10
160.8095076177938
 20
77.985694163153553
 30
0.0
  0
VERTEX
  5
295E
  8
0
 10
160.73775564612919
 20
78.000970157599085
 30
0.0
  0
VERTEX
  5
295F
  8
0
 10
160.7017868178126
 20
78.008258864690291
 30
0.0
  0
VERTEX
  5
2960
  8
0
 10
160.66575733602849
 20
78.015314209211638
 30
0.0
  0
VERTEX
  5
2961
  8
0
 10
160.59352013428739
 20
78.028723268605631
 30
0.0
  0
VERTEX
  5
2962
  8
0
 10
160.521051481895
 20
78.041194190421876
 30
0.0
  0
VERTEX
  5
2963
  8
0
 10
160.4483588151968
 20
78.052723725336193
 30
0.0
  0
VERTEX
  5
2964
  8
0
 10
160.375449567598
 20
78.063308512083125
 30
0.0
  0
VERTEX
  5
2965
  8
0
 10
160.30233117181081
 20
78.072945069531116
 30
0.0
  0
VERTEX
  5
2966
  8
0
 10
160.2656972583558
 20
78.077406474847194
 30
0.0
  0
VERTEX
  5
2967
  8
0
 10
160.22903575347789
 20
78.081627028564725
 30
0.0
  0
VERTEX
  5
2968
  8
0
 10
160.15565486462509
 20
78.089343343285691
 30
0.0
  0
VERTEX
  5
2969
  8
0
 10
160.08220450743249
 20
78.096093720086714
 30
0.0
  0
VERTEX
  5
296A
  8
0
 10
160.0086939267498
 20
78.101878637573947
 30
0.0
  0
VERTEX
  5
296B
  8
0
 10
159.93513236748569
 20
78.106698500103263
 30
0.0
  0
VERTEX
  5
296C
  8
0
 10
159.86152907436491
 20
78.110553636939869
 30
0.0
  0
VERTEX
  5
296D
  8
0
 10
159.82471466649179
 20
78.112119515404345
 30
0.0
  0
VERTEX
  5
296E
  8
0
 10
159.7878932917597
 20
78.113444301529341
 30
0.0
  0
VERTEX
  5
296F
  8
0
 10
159.71423426358211
 20
78.115370670888055
 30
0.0
  0
VERTEX
  5
2970
  8
0
 10
159.640561233228
 20
78.116332845119103
 30
0.0
  0
VERTEX
  5
2971
  8
0
 10
159.6037223556493
 20
78.116452369223154
 30
0.0
  0
VERTEX
  5
2972
  8
0
 10
159.566883443557
 20
78.116330847058407
 30
0.0
  0
VERTEX
  5
2973
  8
0
 10
159.4932101368982
 20
78.115364622054557
 30
0.0
  0
VERTEX
  5
2974
  8
0
 10
159.41955055506691
 20
78.113434037883891
 30
0.0
  0
VERTEX
  5
2975
  8
0
 10
159.38272879889209
 20
78.112107048589678
 30
0.0
  0
VERTEX
  5
2976
  8
0
 10
159.3459139393791
 20
78.110538884801272
 30
0.0
  0
VERTEX
  5
2977
  8
0
 10
159.27230953065151
 20
78.106678875725237
 30
0.0
  0
VERTEX
  5
2978
  8
0
 10
159.1987465691733
 20
78.101853646554815
 30
0.0
  0
VERTEX
  5
2979
  8
0
 10
159.12523429463661
 20
78.096062756613676
 30
0.0
  0
VERTEX
  5
297A
  8
0
 10
159.0517819460141
 20
78.089305689215891
 30
0.0
  0
VERTEX
  5
297B
  8
0
 10
158.97839876137331
 20
78.081581852346403
 30
0.0
  0
VERTEX
  5
297C
  8
0
 10
158.9417421077525
 20
78.077357915028443
 30
0.0
  0
VERTEX
  5
297D
  8
0
 10
158.90513289145451
 20
78.072895452791187
 30
0.0
  0
VERTEX
  5
297E
  8
0
 10
158.83206560646991
 20
78.063257297638756
 30
0.0
  0
VERTEX
  5
297F
  8
0
 10
158.75920610345199
 20
78.052671046754284
 30
0.0
  0
VERTEX
  5
2980
  8
0
 10
158.68656188334401
 20
78.041140047265728
 30
0.0
  0
VERTEX
  5
2981
  8
0
 10
158.61414044787841
 20
78.028667530837168
 30
0.0
  0
VERTEX
  5
2982
  8
0
 10
158.54194930154361
 20
78.015256621418814
 30
0.0
  0
VERTEX
  5
2983
  8
0
 10
158.505942433071
 20
78.008200218037544
 30
0.0
  0
VERTEX
  5
2984
  8
0
 10
158.46999595302131
 20
78.000910343040744
 30
0.0
  0
VERTEX
  5
2985
  8
0
 10
158.3982879160985
 20
77.985631627615277
 30
0.0
  0
VERTEX
  5
2986
  8
0
 10
158.32683271006161
 20
77.969423322712032
 30
0.0
  0
VERTEX
  5
2987
  8
0
 10
158.2556378595807
 20
77.952288199271734
 30
0.0
  0
VERTEX
  5
2988
  8
0
 10
158.18471089409911
 20
77.934228959223873
 30
0.0
  0
VERTEX
  5
2989
  8
0
 10
158.1140593467405
 20
77.915248242975224
 30
0.0
  0
VERTEX
  5
298A
  8
0
 10
158.07883920959151
 20
77.905413141387044
 30
0.0
  0
VERTEX
  5
298B
  8
0
 10
158.0436907527546
 20
77.89534863673677
 30
0.0
  0
VERTEX
  5
298C
  8
0
 10
157.97361264752089
 20
77.874532679657733
 30
0.0
  0
VERTEX
  5
298D
  8
0
 10
157.90383256413321
 20
77.852802870736383
 30
0.0
  0
VERTEX
  5
298E
  8
0
 10
157.83435803059129
 20
77.830161675479602
 30
0.0
  0
VERTEX
  5
298F
  8
0
 10
157.7651965666258
 20
77.806611532283256
 30
0.0
  0
VERTEX
  5
2990
  8
0
 10
157.69635568018569
 20
77.782154858508449
 30
0.0
  0
VERTEX
  5
2991
  8
0
 10
157.66205779561619
 20
77.769587323749477
 30
0.0
  0
VERTEX
  5
2992
  8
0
 10
157.62784286361961
 20
77.756794056229694
 30
0.0
  0
VERTEX
  5
2993
  8
0
 10
157.55966996662681
 20
77.730533236898552
 30
0.0
  0
VERTEX
  5
2994
  8
0
 10
157.49193007865281
 20
77.70340993571574
 30
0.0
  0
VERTEX
  5
2995
  8
0
 10
157.42466028914109
 20
77.675443273942079
 30
0.0
  0
VERTEX
  5
2996
  8
0
 10
157.35786347173129
 20
77.646639305549286
 30
0.0
  0
VERTEX
  5
2997
  8
0
 10
157.29154252089941
 20
77.617003958850631
 30
0.0
  0
VERTEX
  5
2998
  8
0
 10
157.25856140620689
 20
77.601876339963084
 30
0.0
  0
VERTEX
  5
2999
  8
0
 10
157.2257003540677
 20
77.586543049019582
 30
0.0
  0
VERTEX
  5
299A
  8
0
 10
157.1603399129294
 20
77.555262290232847
 30
0.0
  0
VERTEX
  5
299B
  8
0
 10
157.09546416403131
 20
77.523167307403554
 30
0.0
  0
VERTEX
  5
299C
  8
0
 10
157.06320898300081
 20
77.506816218138695
 30
0.0
  0
VERTEX
  5
299D
  8
0
 10
157.0310760986651
 20
77.490263647473256
 30
0.0
  0
VERTEX
  5
299E
  8
0
 10
156.96717873211509
 20
77.456556790234856
 30
0.0
  0
VERTEX
  5
299F
  8
0
 10
156.9037751023138
 20
77.42205215866251
 30
0.0
  0
VERTEX
  5
29A0
  8
0
 10
156.87225939378729
 20
77.404502359070648
 30
0.0
  0
VERTEX
  5
29A1
  8
0
 10
156.8408682679578
 20
77.386755128727685
 30
0.0
  0
VERTEX
  5
29A2
  8
0
 10
156.77846130613571
 20
77.350671038684055
 30
0.0
  0
VERTEX
  5
29A3
  8
0
 10
156.71655730951869
 20
77.313805197807227
 30
0.0
  0
VERTEX
  5
29A4
  8
0
 10
156.6551593831685
 20
77.276162894578789
 30
0.0
  0
VERTEX
  5
29A5
  8
0
 10
156.59427064101081
 20
77.237749404306811
 30
0.0
  0
VERTEX
  5
29A6
  8
0
 10
156.53389420202541
 20
77.19856999617835
 30
0.0
  0
VERTEX
  5
29A7
  8
0
 10
156.5038990712944
 20
77.178694719472219
 30
0.0
  0
VERTEX
  5
29A8
  8
0
 10
156.4740331862024
 20
77.158629939742141
 30
0.0
  0
VERTEX
  5
29A9
  8
0
 10
156.41469071030949
 20
77.117934510822323
 30
0.0
  0
VERTEX
  5
29AA
  8
0
 10
156.35586988351801
 20
77.076488996866772
 30
0.0
  0
VERTEX
  5
29AB
  8
0
 10
156.29757380292961
 20
77.034298701735494
 30
0.0
  0
VERTEX
  5
29AC
  8
0
 10
156.239805549045
 20
76.991368949937481
 30
0.0
  0
VERTEX
  5
29AD
  8
0
 10
156.1825681812154
 20
76.947705090325215
 30
0.0
  0
VERTEX
  5
29AE
  8
0
 10
156.15414952871899
 20
76.925599549051086
 30
0.0
  0
VERTEX
  5
29AF
  8
0
 10
156.12586473311021
 20
76.903312499259414
 30
0.0
  0
VERTEX
  5
29B0
  8
0
 10
156.06969820823869
 20
76.858196583256216
 30
0.0
  0
VERTEX
  5
29B1
  8
0
 10
156.0140715755555
 20
76.812362781132663
 30
0.0
  0
VERTEX
  5
29B2
  8
0
 10
155.98646163607799
 20
76.789178381656271
 30
0.0
  0
SEQEND
  5
29B3
  8
0
  0
POLYLINE
  5
1E08
  8
0
 66
     1
 10
0.0
 20
0.0
 30
0.0
  0
VERTEX
  5
29B4
  8
0
 10
155.98646163607799
 20
76.789178381656271
 30
0.0
  0
VERTEX
  5
29B5
  8
0
 10
155.94151182036941
 20
76.750882466319183
 30
0.0
  0
VERTEX
  5
29B6
  8
0
 10
155.85255824835491
 20
76.673230661132834
 30
0.0
  0
VERTEX
  5
29B7
  8
0
 10
155.76486154810371
 20
76.594201373128584
 30
0.0
  0
VERTEX
  5
29B8
  8
0
 10
155.72148287449019
 20
76.55418354533245
 30
0.0
  0
VERTEX
  5
29B9
  8
0
 10
155.67841646454841
 20
76.51383736799157
 30
0.0
  0
VERTEX
  5
29BA
  8
0
 10
155.5932179456176
 20
76.432181225505531
 30
0.0
  0
VERTEX
  5
29BB
  8
0
 10
155.50926111887571
 20
76.349275398488714
 30
0.0
  0
VERTEX
  5
29BC
  8
0
 10
155.42654126594539
 20
76.265162265006367
 30
0.0
  0
VERTEX
  5
29BD
  8
0
 10
155.34505379544609
 20
76.179884174228022
 30
0.0
  0
VERTEX
  5
29BE
  8
0
 10
155.2647942150827
 20
76.093483486320252
 30
0.0
  0
VERTEX
  5
29BF
  8
0
 10
155.22512350000551
 20
76.049875417558056
 30
0.0
  0
VERTEX
  5
29C0
  8
0
 10
155.18575810341801
 20
76.006002606777429
 30
0.0
  0
VERTEX
  5
29C1
  8
0
 10
155.10794108178581
 20
75.917484015592663
 30
0.0
  0
VERTEX
  5
29C2
  8
0
 10
155.0313387867148
 20
75.827970291664599
 30
0.0
  0
VERTEX
  5
29C3
  8
0
 10
154.9559468431666
 20
75.737504132821414
 30
0.0
  0
VERTEX
  5
29C4
  8
0
 10
154.88176083882769
 20
75.64612837182446
 30
0.0
  0
VERTEX
  5
29C5
  8
0
 10
154.8087762996376
 20
75.553885988692087
 30
0.0
  0
VERTEX
  5
29C6
  8
0
 10
154.7727281187835
 20
75.507446753650285
 30
0.0
  0
VERTEX
  5
29C7
  8
0
 10
154.73695586290049
 20
75.460777052747915
 30
0.0
  0
VERTEX
  5
29C8
  8
0
 10
154.6662303954871
 20
75.366754820240061
 30
0.0
  0
VERTEX
  5
29C9
  8
0
 10
154.5965899259372
 20
75.271845752641809
 30
0.0
  0
VERTEX
  5
29CA
  8
0
 10
154.56217396478931
 20
75.224067479773467
 30
0.0
  0
VERTEX
  5
29CB
  8
0
 10
154.36127447572511
 20
74.933086945541575
 30
0.0
  0
VERTEX
  5
29CC
  8
0
 10
153.98759901150129
 20
74.331352924271457
 30
0.0
  0
VERTEX
  5
29CD
  8
0
 10
153.65004953580569
 20
73.708211405751442
 30
0.0
  0
VERTEX
  5
29CE
  8
0
 10
153.3414595538313
 20
73.057087084033071
 30
0.0
  0
VERTEX
  5
29CF
  8
0
 10
153.0576009194393
 20
72.37194722604039
 30
0.0
  0
VERTEX
  5
29D0
  8
0
 10
152.7985146784215
 20
71.65399627195913
 30
0.0
  0
VERTEX
  5
29D1
  8
0
 10
152.67828790656591
 20
71.283083565402336
 30
0.0
  0
VERTEX
  5
29D2
  8
0
 10
152.56429320689199
 20
70.904405602959983
 30
0.0
  0
VERTEX
  5
29D3
  8
0
 10
152.35508760751941
 20
70.124327601381836
 30
0.0
  0
VERTEX
  5
29D4
  8
0
 10
152.17112127075549
 20
69.314905800546711
 30
0.0
  0
VERTEX
  5
29D5
  8
0
 10
152.01295791693889
 20
68.478733419586945
 30
0.0
  0
VERTEX
  5
29D6
  8
0
 10
151.88270477355891
 20
67.630347928287691
 30
0.0
  0
VERTEX
  5
29D7
  8
0
 10
151.7799096993719
 20
66.774991752738472
 30
0.0
  0
VERTEX
  5
29D8
  8
0
 10
151.73852498869121
 20
66.345385092638736
 30
0.0
  0
VERTEX
  5
29D9
  8
0
 10
151.7036871085964
 20
65.914858255948076
 30
0.0
  0
VERTEX
  5
29DA
  8
0
 10
151.65333065612299
 20
65.052141852258742
 30
0.0
  0
VERTEX
  5
29DB
  8
0
 10
151.62827901632431
 20
64.187774048264515
 30
0.0
  0
VERTEX
  5
29DC
  8
0
 10
151.6251484418168
 20
63.754821359943357
 30
0.0
  0
SEQEND
  5
29DD
  8
0
  0
POLYLINE
  5
1E09
  8
0
 66
     1
 10
0.0
 20
0.0
 30
0.0
  0
VERTEX
  5
29DE
  8
0
 10
151.6251484418168
 20
63.754821359943357
 30
0.0
  0
VERTEX
  5
29DF
  8
0
 10
151.62814807099551
 20
63.331017236148369
 30
0.0
  0
VERTEX
  5
29E0
  8
0
 10
151.6521957794931
 20
62.48381499448967
 30
0.0
  0
VERTEX
  5
29E1
  8
0
 10
151.7004988377488
 20
61.638730730180569
 30
0.0
  0
VERTEX
  5
29E2
  8
0
 10
151.73385343807811
 20
61.217573953594041
 30
0.0
  0
VERTEX
  5
29E3
  8
0
 10
151.77342021241739
 20
60.797656072100722
 30
0.0
  0
VERTEX
  5
29E4
  8
0
 10
151.87098724838151
 20
59.96619357800401
 30
0.0
  0
VERTEX
  5
29E5
  8
0
 10
151.99206284330441
 20
59.15501974193505
 30
0.0
  0
VERTEX
  5
29E6
  8
0
 10
152.13621533837119
 20
58.365872786547982
 30
0.0
  0
VERTEX
  5
29E7
  8
0
 10
152.30314018245051
 20
57.600075370646131
 30
0.0
  0
VERTEX
  5
29E8
  8
0
 10
152.4925897113387
 20
56.858952335275291
 30
0.0
  0
VERTEX
  5
29E9
  8
0
 10
152.59569350090791
 20
56.49805766100387
 30
0.0
  0
VERTEX
  5
29EA
  8
0
 10
152.7043495288969
 20
56.143827975106191
 30
0.0
  0
VERTEX
  5
29EB
  8
0
 10
152.9382187860318
 20
55.456022762078959
 30
0.0
  0
VERTEX
  5
29EC
  8
0
 10
153.19399458981971
 20
54.796849871614683
 30
0.0
  0
VERTEX
  5
29ED
  8
0
 10
153.47144420131411
 20
54.167647655715882
 30
0.0
  0
VERTEX
  5
29EE
  8
0
 10
153.7695195284104
 20
53.571222301528422
 30
0.0
  0
VERTEX
  5
29EF
  8
0
 10
154.08734411819611
 20
53.009339575704431
 30
0.0
  0
VERTEX
  5
29F0
  8
0
 10
154.25350206010151
 20
52.741614683916879
 30
0.0
  0
VERTEX
  5
29F1
  8
0
 10
154.4244022308215
 20
52.4828415396804
 30
0.0
  0
VERTEX
  5
29F2
  8
0
 10
154.78015848736459
 20
51.992575545787602
 30
0.0
  0
VERTEX
  5
29F3
  8
0
 10
155.15406670007229
 20
51.539400268895498
 30
0.0
  0
VERTEX
  5
29F4
  8
0
 10
155.34765755386621
 20
51.326995913343289
 30
0.0
  0
SEQEND
  5
29F5
  8
0
  0
POLYLINE
  5
1E0A
  8
0
 66
     1
 10
0.0
 20
0.0
 30
0.0
  0
VERTEX
  5
29F6
  8
0
 10
155.34765755386621
 20
51.326995913343289
 30
0.0
  0
VERTEX
  5
29F7
  8
0
 10
155.54171482495849
 20
51.125999205866101
 30
0.0
  0
VERTEX
  5
29F8
  8
0
 10
155.9465541218359
 20
50.73748525349616
 30
0.0
  0
VERTEX
  5
29F9
  8
0
 10
156.37297653634431
 20
50.372973984313703
 30
0.0
  0
VERTEX
  5
29FA
  8
0
 10
156.59400805230209
 20
50.201981943144588
 30
0.0
  0
VERTEX
  5
29FB
  8
0
 10
156.63134207307471
 20
50.174306089040137
 30
0.0
  0
VERTEX
  5
29FC
  8
0
 10
156.70643006207939
 20
50.119697243057182
 30
0.0
  0
VERTEX
  5
29FD
  8
0
 10
156.7820757890737
 20
50.066105751088998
 30
0.0
  0
VERTEX
  5
29FE
  8
0
 10
156.8201076808885
 20
50.039701120935661
 30
0.0
  0
VERTEX
  5
29FF
  8
0
 10
156.85827821247591
 20
50.01356282671707
 30
0.0
  0
VERTEX
  5
2A00
  8
0
 10
156.93503285017511
 20
49.962102132182629
 30
0.0
  0
VERTEX
  5
2A01
  8
0
 10
157.01233494860469
 20
49.911757413069459
 30
0.0
  0
VERTEX
  5
2A02
  8
0
 10
157.0901796492189
 20
49.862562363242233
 30
0.0
  0
VERTEX
  5
2A03
  8
0
 10
157.1685619853844
 20
49.814550610872303
 30
0.0
  0
VERTEX
  5
2A04
  8
0
 10
157.2474768802565
 20
49.76775570322534
 30
0.0
  0
VERTEX
  5
2A05
  8
0
 10
157.28713242030571
 20
49.744825023548898
 30
0.0
  0
VERTEX
  5
2A06
  8
0
 10
157.32691914587281
 20
49.722211090217307
 30
0.0
  0
VERTEX
  5
2A07
  8
0
 10
157.40688348370941
 20
49.677950106772343
 30
0.0
  0
VERTEX
  5
2A08
  8
0
 10
157.48736448697031
 20
49.635005954052069
 30
0.0
  0
VERTEX
  5
2A09
  8
0
 10
157.5683566448956
 20
49.593411679666119
 30
0.0
  0
VERTEX
  5
2A0A
  8
0
 10
157.64985434938359
 20
49.55320015702101
 30
0.0
  0
VERTEX
  5
2A0B
  8
0
 10
157.73185190422981
 20
49.514404064018429
 30
0.0
  0
VERTEX
  5
2A0C
  8
0
 10
157.7730363243092
 20
49.495546956685672
 30
0.0
  0
VERTEX
  5
2A0D
  8
0
 10
157.81434353728011
 20
49.477055861372662
 30
0.0
  0
VERTEX
  5
2A0E
  8
0
 10
157.89732341578059
 20
49.441187770881783
 30
0.0
  0
VERTEX
  5
2A0F
  8
0
 10
157.9807856651822
 20
49.406831754054139
 30
0.0
  0
VERTEX
  5
2A10
  8
0
 10
158.06472439161041
 20
49.374019491560887
 30
0.0
  0
VERTEX
  5
2A11
  8
0
 10
158.14913371916111
 20
49.342782360096479
 30
0.0
  0
VERTEX
  5
2A12
  8
0
 10
158.2340078920713
 20
49.31315139194426
 30
0.0
  0
VERTEX
  5
2A13
  8
0
 10
158.27661746516759
 20
49.298947844923681
 30
0.0
  0
VERTEX
  5
2A14
  8
0
 10
158.31934101218471
 20
49.285157363327173
 30
0.0
  0
VERTEX
  5
2A15
  8
0
 10
158.40512685354309
 20
49.25883082670331
 30
0.0
  0
VERTEX
  5
2A16
  8
0
 10
158.49135886836061
 20
49.234202066527779
 30
0.0
  0
VERTEX
  5
2A17
  8
0
 10
158.5780302025909
 20
49.211301052894747
 30
0.0
  0
VERTEX
  5
2A18
  8
0
 10
158.66513371805041
 20
49.190157395254658
 30
0.0
  0
VERTEX
  5
2A19
  8
0
 10
158.75266202145031
 20
49.1708002971924
 30
0.0
  0
VERTEX
  5
2A1A
  8
0
 10
158.79658309721671
 20
49.161800712483
 30
0.0
  0
VERTEX
  5
2A1B
  8
0
 10
158.84060750053561
 20
49.153258513361038
 30
0.0
  0
VERTEX
  5
2A1C
  8
0
 10
158.92896236734421
 20
49.137560309750398
 30
0.0
  0
VERTEX
  5
2A1D
  8
0
 10
159.0177187083776
 20
49.123733428520552
 30
0.0
  0
VERTEX
  5
2A1E
  8
0
 10
159.10686854124509
 20
49.111805058639639
 30
0.0
  0
VERTEX
  5
2A1F
  8
0
 10
159.196403877085
 20
49.101801813527132
 30
0.0
  0
VERTEX
  5
2A20
  8
0
 10
159.28631678781349
 20
49.093749716811189
 30
0.0
  0
VERTEX
  5
2A21
  8
0
 10
159.3314123902455
 20
49.09046331874449
 30
0.0
  0
VERTEX
  5
2A22
  8
0
 10
159.3765994770082
 20
49.087674197163729
 30
0.0
  0
VERTEX
  5
2A23
  8
0
 10
159.4672443530047
 20
49.083600092973938
 30
0.0
  0
VERTEX
  5
2A24
  8
0
 10
159.5582441026045
 20
49.081551667371059
 30
0.0
  0
VERTEX
  5
2A25
  8
0
 10
159.6038748636864
 20
49.081294515051532
 30
0.0
  0
VERTEX
  5
2A26
  8
0
 10
159.64950609676191
 20
49.081551667371038
 30
0.0
  0
VERTEX
  5
2A27
  8
0
 10
159.74050960627861
 20
49.083600092973938
 30
0.0
  0
VERTEX
  5
2A28
  8
0
 10
159.83116196092669
 20
49.087674197163729
 30
0.0
  0
VERTEX
  5
2A29
  8
0
 10
159.87635416799341
 20
49.09046331874449
 30
0.0
  0
VERTEX
  5
2A2A
  8
0
 10
159.92145580409249
 20
49.093749716811189
 30
0.0
  0
VERTEX
  5
2A2B
  8
0
 10
160.0113835001672
 20
49.101801813527132
 30
0.0
  0
VERTEX
  5
2A2C
  8
0
 10
160.10093720820339
 20
49.111805058639661
 30
0.0
  0
VERTEX
  5
2A2D
  8
0
 10
160.19010895497991
 20
49.123733428520531
 30
0.0
  0
VERTEX
  5
2A2E
  8
0
 10
160.2788907058698
 20
49.137560309750377
 30
0.0
  0
VERTEX
  5
2A2F
  8
0
 10
160.3672744320906
 20
49.153258513361038
 30
0.0
  0
VERTEX
  5
2A30
  8
0
 10
160.41131454403421
 20
49.161800712483021
 30
0.0
  0
VERTEX
  5
2A31
  8
0
 10
160.45525217314221
 20
49.1708002971924
 30
0.0
  0
VERTEX
  5
2A32
  8
0
 10
160.54281609347791
 20
49.190157395254658
 30
0.0
  0
VERTEX
  5
2A33
  8
0
 10
160.62995853271599
 20
49.211301052894747
 30
0.0
  0
VERTEX
  5
2A34
  8
0
 10
160.71667204894479
 20
49.2342020665278
 30
0.0
  0
VERTEX
  5
2A35
  8
0
 10
160.80294945491579
 20
49.25883082670331
 30
0.0
  0
VERTEX
  5
2A36
  8
0
 10
160.8887838471336
 20
49.285157363327158
 30
0.0
  0
VERTEX
  5
2A37
  8
0
 10
160.93153283892681
 20
49.298947844923681
 30
0.0
  0
VERTEX
  5
2A38
  8
0
 10
160.9741686280384
 20
49.31315139194426
 30
0.0
  0
VERTEX
  5
2A39
  8
0
 10
161.05909752163461
 20
49.342782360096479
 30
0.0
  0
VERTEX
  5
2A3A
  8
0
 10
161.1435645795209
 20
49.374019491560887
 30
0.0
  0
VERTEX
  5
2A3B
  8
0
 10
161.22756399539841
 20
49.406831754054117
 30
0.0
  0
VERTEX
  5
2A3C
  8
0
 10
161.3110898423482
 20
49.441187770881783
 30
0.0
  0
VERTEX
  5
2A3D
  8
0
 10
161.39413617505161
 20
49.477055861372662
 30
0.0
  0
VERTEX
  5
2A3E
  8
0
 10
161.43547767018021
 20
49.495546956685672
 30
0.0
  0
VERTEX
  5
2A3F
  8
0
 10
161.47669706710411
 20
49.514404064018422
 30
0.0
  0
VERTEX
  5
2A40
  8
0
 10
161.5587666335008
 20
49.553200157021031
 30
0.0
  0
VERTEX
  5
2A41
  8
0
 10
161.6403390494545
 20
49.593411679666119
 30
0.0
  0
VERTEX
  5
2A42
  8
0
 10
161.72140856576431
 20
49.635005954052069
 30
0.0
  0
VERTEX
  5
2A43
  8
0
 10
161.80196952098609
 20
49.677950106772343
 30
0.0
  0
VERTEX
  5
2A44
  8
0
 10
161.88201635068819
 20
49.7222110902173
 30
0.0
  0
VERTEX
  5
2A45
  8
0
 10
161.92184525779379
 20
49.744825023548913
 30
0.0
  0
VERTEX
  5
2A46
  8
0
 10
161.9615435940905
 20
49.76775570322534
 30
0.0
  0
VERTEX
  5
2A47
  8
0
 10
162.04054589838859
 20
49.814550610872303
 30
0.0
  0
VERTEX
  5
2A48
  8
0
 10
162.11901802105709
 20
49.862562363242247
 30
0.0
  0
VERTEX
  5
2A49
  8
0
 10
162.1969548304198
 20
49.911757413069452
 30
0.0
  0
VERTEX
  5
2A4A
  8
0
 10
162.27435130475271
 20
49.96210213218265
 30
0.0
  0
VERTEX
  5
2A4B
  8
0
 10
162.3512025301726
 20
50.01356282671707
 30
0.0
  0
VERTEX
  5
2A4C
  8
0
 10
162.3894221676926
 20
50.039701120935682
 30
0.0
  0
VERTEX
  5
2A4D
  8
0
 10
162.42750369753421
 20
50.066105751088998
 30
0.0
  0
VERTEX
  5
2A4E
  8
0
 10
162.50325026914501
 20
50.119697243057189
 30
0.0
  0
VERTEX
  5
2A4F
  8
0
 10
162.57844115228289
 20
50.174306089040137
 30
0.0
  0
VERTEX
  5
2A50
  8
0
 10
162.61582737205589
 20
50.201981943144567
 30
0.0
  0
VERTEX
  5
2A51
  8
0
 10
162.83718217037199
 20
50.372973984313703
 30
0.0
  0
VERTEX
  5
2A52
  8
0
 10
163.2642982043196
 20
50.737485253496139
 30
0.0
  0
VERTEX
  5
2A53
  8
0
 10
163.66988348566369
 20
51.125999205866101
 30
0.0
  0
VERTEX
  5
2A54
  8
0
 10
163.8643293998077
 20
51.326995913343289
 30
0.0
  0
SEQEND
  5
2A55
  8
0
  0
POLYLINE
  5
1E0B
  8
0
 66
     1
 10
0.0
 20
0.0
 30
0.0
  0
VERTEX
  5
2A56
  8
0
 10
163.8643293998077
 20
51.326995913343289
 30
0.0
  0
VERTEX
  5
2A57
  8
0
 10
163.90212300847861
 20
51.367259379468628
 30
0.0
  0
VERTEX
  5
2A58
  8
0
 10
163.9769271458533
 20
51.448529536888458
 30
0.0
  0
VERTEX
  5
2A59
  8
0
 10
164.0506920173043
 20
51.530765839563088
 30
0.0
  0
VERTEX
  5
2A5A
  8
0
 10
164.08718650821089
 20
51.572237012442123
 30
0.0
  0
VERTEX
  5
2A5B
  8
0
 10
164.12342330093651
 20
51.613938592804693
 30
0.0
  0
VERTEX
  5
2A5C
  8
0
 10
164.19512653872351
 20
51.698018178731282
 30
0.0
  0
VERTEX
  5
2A5D
  8
0
 10
164.26580715184039
 20
51.782975028695908
 30
0.0
  0
VERTEX
  5
2A5E
  8
0
 10
164.50521211814311
 20
52.086805896113511
 30
0.0
  0
VERTEX
  5
2A5F
  8
0
 10
164.88725927472291
 20
52.628161694405577
 30
0.0
  0
VERTEX
  5
2A60
  8
0
 10
165.0654810383181
 20
52.9074376689994
 30
0.0
  0
VERTEX
  5
2A61
  8
0
 10
165.2358283145569
 20
53.192278941359803
 30
0.0
  0
VERTEX
  5
2A62
  8
0
 10
165.5535950461751
 20
53.776557093621889
 30
0.0
  0
VERTEX
  5
2A63
  8
0
 10
165.84188704104969
 20
54.3767899473944
 30
0.0
  0
VERTEX
  5
2A64
  8
0
 10
166.10561903957429
 20
54.997862423928183
 30
0.0
  0
VERTEX
  5
2A65
  8
0
 10
166.348782586418
 20
55.646846126616289
 30
0.0
  0
VERTEX
  5
2A66
  8
0
 10
166.57116767145371
 20
56.322530235624939
 30
0.0
  0
VERTEX
  5
2A67
  8
0
 10
166.67450606513421
 20
56.670003742871778
 30
0.0
  0
VERTEX
  5
2A68
  8
0
 10
166.77257575824379
 20
57.023693966434472
 30
0.0
  0
VERTEX
  5
2A69
  8
0
 10
166.9528090871971
 20
57.749109953983329
 30
0.0
  0
VERTEX
  5
2A6A
  8
0
 10
167.1116561845871
 20
58.497547480131203
 30
0.0
  0
VERTEX
  5
2A6B
  8
0
 10
167.24887398948491
 20
59.267775426282199
 30
0.0
  0
VERTEX
  5
2A6C
  8
0
 10
167.36416676558721
 20
60.058564692585691
 30
0.0
  0
VERTEX
  5
2A6D
  8
0
 10
167.45715811598231
 20
60.86865290763987
 30
0.0
  0
VERTEX
  5
2A6E
  8
0
 10
167.4949757123577
 20
61.278527378425977
 30
0.0
  0
VERTEX
  5
2A6F
  8
0
 10
167.5268657286685
 20
61.689579720406257
 30
0.0
  0
VERTEX
  5
2A70
  8
0
 10
167.57306579461621
 20
62.514339296419898
 30
0.0
  0
VERTEX
  5
2A71
  8
0
 10
167.5960763463512
 20
63.341174527322757
 30
0.0
  0
VERTEX
  5
2A72
  8
0
 10
167.59894735061729
 20
63.754821359943357
 30
0.0
  0
SEQEND
  5
2A73
  8
0
  0
POLYLINE
  5
1E0C
  8
0
 66
     1
 10
0.0
 20
0.0
 30
0.0
  0
VERTEX
  5
2A74
  8
0
 10
167.59894735061729
 20
63.754821359943357
 30
0.0
  0
VERTEX
  5
2A75
  8
0
 10
167.5956636348144
 20
64.197191981827615
 30
0.0
  0
VERTEX
  5
2A76
  8
0
 10
167.5693828630983
 20
65.08037626410632
 30
0.0
  0
VERTEX
  5
2A77
  8
0
 10
167.51656702516851
 20
65.961502911348703
 30
0.0
  0
VERTEX
  5
2A78
  8
0
 10
167.48001400754649
 20
66.401261938483799
 30
0.0
  0
VERTEX
  5
2A79
  8
0
 10
167.43657877098039
 20
66.840084298849177
 30
0.0
  0
VERTEX
  5
2A7A
  8
0
 10
167.32863758637609
 20
67.713719439495492
 30
0.0
  0
VERTEX
  5
2A7B
  8
0
 10
167.1917724211325
 20
68.580011159641202
 30
0.0
  0
VERTEX
  5
2A7C
  8
0
 10
167.02480038187451
 20
69.436547207820439
 30
0.0
  0
VERTEX
  5
2A7D
  8
0
 10
166.82869460124999
 20
70.271532110841264
 30
0.0
  0
VERTEX
  5
2A7E
  8
0
 10
166.60532682768411
 20
71.074882307189938
 30
0.0
  0
VERTEX
  5
2A7F
  8
0
 10
166.483521783692
 20
71.464200040381044
 30
0.0
  0
VERTEX
  5
2A80
  8
0
 10
166.3550197177305
 20
71.845015782131071
 30
0.0
  0
VERTEX
  5
2A81
  8
0
 10
166.07807077641789
 20
72.580350689402508
 30
0.0
  0
VERTEX
  5
2A82
  8
0
 10
165.77477235630721
 20
73.279308103392992
 30
0.0
  0
VERTEX
  5
2A83
  8
0
 10
165.44542239392601
 20
73.9403130721671
 30
0.0
  0
VERTEX
  5
2A84
  8
0
 10
165.09054432801119
 20
74.561433244582474
 30
0.0
  0
VERTEX
  5
2A85
  8
0
 10
164.71258663565609
 20
75.13816677523468
 30
0.0
  0
VERTEX
  5
2A86
  8
0
 10
164.5153933511985
 20
75.409342302079864
 30
0.0
  0
VERTEX
  5
2A87
  8
0
 10
164.31287470133699
 20
75.668922971190568
 30
0.0
  0
VERTEX
  5
2A88
  8
0
 10
164.07002319911041
 20
75.956975006225534
 30
0.0
  0
VERTEX
  5
2A89
  8
0
 10
163.9993590097331
 20
76.036327710091584
 30
0.0
  0
VERTEX
  5
2A8A
  8
0
 10
163.92813438279049
 20
76.114362916584497
 30
0.0
  0
VERTEX
  5
2A8B
  8
0
 10
163.89231318849659
 20
76.152885184812504
 30
0.0
  0
VERTEX
  5
2A8C
  8
0
 10
163.85635342180851
 20
76.191076543206549
 30
0.0
  0
VERTEX
  5
2A8D
  8
0
 10
163.78402020614249
 20
76.266464447447817
 30
0.0
  0
VERTEX
  5
2A8E
  8
0
 10
163.71113878832051
 20
76.340522420868183
 30
0.0
  0
VERTEX
  5
2A8F
  8
0
 10
163.63771319150939
 20
76.413246182730177
 30
0.0
  0
VERTEX
  5
2A90
  8
0
 10
163.5637474071487
 20
76.484631373165854
 30
0.0
  0
VERTEX
  5
2A91
  8
0
 10
163.48924539280381
 20
76.554673545861903
 30
0.0
  0
VERTEX
  5
2A92
  8
0
 10
163.4517945263955
 20
76.589189585535792
 30
0.0
  0
VERTEX
  5
2A93
  8
0
 10
163.41421107028859
 20
76.623368160250664
 30
0.0
  0
VERTEX
  5
2A94
  8
0
 10
163.33864832411899
 20
76.690710573198004
 30
0.0
  0
VERTEX
  5
2A95
  8
0
 10
163.2625610003559
 20
76.756696030182013
 30
0.0
  0
VERTEX
  5
2A96
  8
0
 10
163.224321813073
 20
76.789178381656271
 30
0.0
  0
SEQEND
  5
2A97
  8
0
  0
POLYLINE
  5
1E0D
  8
0
 66
     1
 10
0.0
 20
0.0
 30
0.0
  0
VERTEX
  5
2A98
  8
0
 10
180.96833451444849
 20
76.789178381656271
 30
0.0
  0
VERTEX
  5
2A99
  8
0
 10
180.95195402531479
 20
76.812351981124493
 30
0.0
  0
VERTEX
  5
2A9A
  8
0
 10
180.91914736016699
 20
76.858172258870454
 30
0.0
  0
VERTEX
  5
2A9B
  8
0
 10
180.88628672602911
 20
76.903285101129867
 30
0.0
  0
VERTEX
  5
2A9C
  8
0
 10
180.8698387771968
 20
76.925574412948833
 30
0.0
  0
VERTEX
  5
2A9D
  8
0
 10
180.8533804645684
 20
76.947684684052504
 30
0.0
  0
VERTEX
  5
2A9E
  8
0
 10
180.82043692063141
 20
76.991365209807071
 30
0.0
  0
VERTEX
  5
2A9F
  8
0
 10
180.78746443898959
 20
77.034320903484058
 30
0.0
  0
VERTEX
  5
2AA0
  8
0
 10
180.75447136125069
 20
77.076546009462788
 30
0.0
  0
VERTEX
  5
2AA1
  8
0
 10
180.7214660229551
 20
77.118034787229647
 30
0.0
  0
VERTEX
  5
2AA2
  8
0
 10
180.688456750884
 20
77.158781506636018
 30
0.0
  0
VERTEX
  5
2AA3
  8
0
 10
180.67195323879571
 20
77.178874805321257
 30
0.0
  0
VERTEX
  5
2AA4
  8
0
 10
180.65545186059711
 20
77.198780442585985
 30
0.0
  0
VERTEX
  5
2AA5
  8
0
 10
180.62245965422451
 20
77.238025869146284
 30
0.0
  0
VERTEX
  5
2AA6
  8
0
 10
180.589488418532
 20
77.276512053073361
 30
0.0
  0
VERTEX
  5
2AA7
  8
0
 10
180.5565464232821
 20
77.314233246754043
 30
0.0
  0
VERTEX
  5
2AA8
  8
0
 10
180.52364191990631
 20
77.35118368055997
 30
0.0
  0
VERTEX
  5
2AA9
  8
0
 10
180.49078314050939
 20
77.387357554618035
 30
0.0
  0
VERTEX
  5
2AAA
  8
0
 10
180.47437346438369
 20
77.405151458855329
 30
0.0
  0
VERTEX
  5
2AAB
  8
0
 10
180.45797829721911
 20
77.422749030002194
 30
0.0
  0
VERTEX
  5
2AAC
  8
0
 10
180.42523558189851
 20
77.457352219355357
 30
0.0
  0
VERTEX
  5
2AAD
  8
0
 10
180.392563166228
 20
77.491161176953085
 30
0.0
  0
VERTEX
  5
2AAE
  8
0
 10
180.37625586899989
 20
77.507765942276933
 30
0.0
  0
VERTEX
  5
2AAF
  8
0
 10
180.35996920217201
 20
77.524169888224463
 30
0.0
  0
VERTEX
  5
2AB0
  8
0
 10
180.3274618228339
 20
77.556372258748794
 30
0.0
  0
VERTEX
  5
2AB1
  8
0
 10
180.29505304922881
 20
77.58775836389556
 30
0.0
  0
VERTEX
  5
2AB2
  8
0
 10
180.2789016257004
 20
77.603130707094877
 30
0.0
  0
VERTEX
  5
2AB3
  8
0
 10
180.2627902828867
 20
77.618285427302681
 30
0.0
  0
VERTEX
  5
2AB4
  8
0
 10
180.23069201392209
 20
77.647940452991406
 30
0.0
  0
VERTEX
  5
2AB5
  8
0
 10
180.19876653312861
 20
77.67672035416463
 30
0.0
  0
VERTEX
  5
2AB6
  8
0
 10
180.16702203607201
 20
77.704622048108519
 30
0.0
  0
VERTEX
  5
2AB7
  8
0
 10
180.13546662037589
 20
77.731642450923289
 30
0.0
  0
VERTEX
  5
2AB8
  8
0
 10
180.1041082832796
 20
77.757778471807342
 30
0.0
  0
VERTEX
  5
2AB9
  8
0
 10
180.0885054903566
 20
77.770513869758446
 30
0.0
  0
VERTEX
  5
2ABA
  8
0
 10
180.07295491947471
 20
77.783027006910103
 30
0.0
  0
VERTEX
  5
2ABB
  8
0
 10
180.0420143192292
 20
77.807384932770901
 30
0.0
  0
VERTEX
  5
2ABC
  8
0
 10
180.0112941668047
 20
77.83084909936359
 30
0.0
  0
VERTEX
  5
2ABD
  8
0
 10
179.980802039168
 20
77.853416322769505
 30
0.0
  0
VERTEX
  5
2ABE
  8
0
 10
179.95054540499859
 20
77.875083377502534
 30
0.0
  0
VERTEX
  5
2ABF
  8
0
 10
179.9205316239912
 20
77.895846988513512
 30
0.0
  0
VERTEX
  5
2AC0
  8
0
 10
179.90561807342101
 20
77.905888963583891
 30
0.0
  0
VERTEX
  5
2AC1
  8
0
 10
179.89076794644751
 20
77.915703822902373
 30
0.0
  0
VERTEX
  5
2AC2
  8
0
 10
179.86126151315199
 20
77.93465048136882
 30
0.0
  0
VERTEX
  5
2AC3
  8
0
 10
179.8320193555229
 20
77.952683489434406
 30
0.0
  0
VERTEX
  5
2AC4
  8
0
 10
179.80304839602681
 20
77.969799288470284
 30
0.0
  0
VERTEX
  5
2AC5
  8
0
 10
179.77435544884301
 20
77.985994226566874
 30
0.0
  0
VERTEX
  5
2AC6
  8
0
 10
179.74594722076239
 20
78.001264549283079
 30
0.0
  0
VERTEX
  5
2AC7
  8
0
 10
179.73185194316409
 20
78.00855177627912
 30
0.0
  0
VERTEX
  5
2AC8
  8
0
 10
179.71783031230169
 20
78.015606390313934
 30
0.0
  0
VERTEX
  5
2AC9
  8
0
 10
179.690011219013
 20
78.029015762116984
 30
0.0
  0
VERTEX
  5
2ACA
  8
0
 10
179.6624963329661
 20
78.041488546538375
 30
0.0
  0
VERTEX
  5
2ACB
  8
0
 10
179.6353086975798
 20
78.053013634621792
 30
0.0
  0
VERTEX
  5
2ACC
  8
0
 10
179.60848292469501
 20
78.063577398190603
 30
0.0
  0
VERTEX
  5
2ACD
  8
0
 10
179.58202439762479
 20
78.073179804040265
 30
0.0
  0
VERTEX
  5
2ACE
  8
0
 10
179.5689343247106
 20
78.077620541988324
 30
0.0
  0
VERTEX
  5
2ACF
  8
0
 10
179.5559378110423
 20
78.081820985270525
 30
0.0
  0
VERTEX
  5
2AD0
  8
0
 10
179.53022769688391
 20
78.089501008491467
 30
0.0
  0
VERTEX
  5
2AD1
  8
0
 10
179.5048984242116
 20
78.096219871885566
 30
0.0
  0
VERTEX
  5
2AD2
  8
0
 10
179.4799541991315
 20
78.101977503337821
 30
0.0
  0
VERTEX
  5
2AD3
  8
0
 10
179.45539906475869
 20
78.106773758648018
 30
0.0
  0
VERTEX
  5
2AD4
  8
0
 10
179.43123690122241
 20
78.110608419837845
 30
0.0
  0
VERTEX
  5
2AD5
  8
0
 10
179.41930435149979
 20
78.112165063952929
 30
0.0
  0
VERTEX
  5
2AD6
  8
0
 10
179.4074714256999
 20
78.113481193564411
 30
0.0
  0
VERTEX
  5
2AD7
  8
0
 10
179.38410619247259
 20
78.115391709650297
 30
0.0
  0
VERTEX
  5
2AD8
  8
0
 10
179.3611445929948
 20
78.116339519739327
 30
0.0
  0
VERTEX
  5
2AD9
  8
0
 10
179.34981617123671
 20
78.11645224824575
 30
0.0
  0
VERTEX
  5
2ADA
  8
0
 10
179.338589855968
 20
78.116324096085123
 30
0.0
  0
VERTEX
  5
2ADB
  8
0
 10
179.3164450474122
 20
78.115344830478875
 30
0.0
  0
VERTEX
  5
2ADC
  8
0
 10
179.29471307072819
 20
78.113401033320486
 30
0.0
  0
VERTEX
  5
2ADD
  8
0
 10
179.2840027571965
 20
78.112067197458231
 30
0.0
  0
VERTEX
  5
2ADE
  8
0
 10
179.27339666674379
 20
78.110491932836339
 30
0.0
  0
VERTEX
  5
2ADF
  8
0
 10
179.25249841373761
 20
78.106616674445036
 30
0.0
  0
VERTEX
  5
2AE0
  8
0
 10
179.23202072743749
 20
78.101774320271133
 30
0.0
  0
VERTEX
  5
2AE1
  8
0
 10
179.2119658609854
 20
78.095963848805198
 30
0.0
  0
VERTEX
  5
2AE2
  8
0
 10
179.19234018004099
 20
78.089185754209268
 30
0.0
  0
VERTEX
  5
2AE3
  8
0
 10
179.1731688256491
 20
78.081449677005111
 30
0.0
  0
VERTEX
  5
2AE4
  8
0
 10
179.1637547768035
 20
78.077223922866693
 30
0.0
  0
VERTEX
  5
2AE5
  8
0
 10
179.15445502477741
 20
78.072760244270782
 30
0.0
  0
VERTEX
  5
2AE6
  8
0
 10
179.13619799697321
 20
78.063120724847863
 30
0.0
  0
VERTEX
  5
2AE7
  8
0
 10
179.11839683415209
 20
78.052534266970525
 30
0.0
  0
VERTEX
  5
2AE8
  8
0
 10
179.10105050103309
 20
78.041003905434536
 30
0.0
  0
VERTEX
  5
2AE9
  8
0
 10
179.0841578353693
 20
78.028532568863696
 30
0.0
  0
VERTEX
  5
2AEA
  8
0
 10
179.06771754799649
 20
78.015123087039569
 30
0.0
  0
VERTEX
  5
2AEB
  8
0
 10
179.05966660857621
 20
78.008067400748246
 30
0.0
  0
VERTEX
  5
2AEC
  8
0
 10
179.05172822271871
 20
78.000778198261415
 30
0.0
  0
VERTEX
  5
2AED
  8
0
 10
179.03618831605351
 20
77.985500556702078
 30
0.0
  0
VERTEX
  5
2AEE
  8
0
 10
179.0210961568593
 20
77.969292739726839
 30
0.0
  0
VERTEX
  5
2AEF
  8
0
 10
179.0064499458642
 20
77.952157255141884
 30
0.0
  0
VERTEX
  5
2AF0
  8
0
 10
178.99224775512181
 20
77.934096548340193
 30
0.0
  0
VERTEX
  5
2AF1
  8
0
 10
178.97848752741439
 20
77.915113009312847
 30
0.0
  0
VERTEX
  5
2AF2
  8
0
 10
178.9717724713162
 20
77.905275911126466
 30
0.0
  0
VERTEX
  5
2AF3
  8
0
 10
178.96516707562441
 20
77.895208979495123
 30
0.0
  0
VERTEX
  5
2AF4
  8
0
 10
178.95228408209761
 20
77.874386758417486
 30
0.0
  0
VERTEX
  5
2AF5
  8
0
 10
178.93983609801671
 20
77.852648610132704
 30
0.0
  0
VERTEX
  5
2AF6
  8
0
 10
178.9278205428071
 20
77.829996769391897
 30
0.0
  0
VERTEX
  5
2AF7
  8
0
 10
178.91623470359329
 20
77.806433447543483
 30
0.0
  0
VERTEX
  5
2AF8
  8
0
 10
178.9050757347236
 20
77.781960838130715
 30
0.0
  0
VERTEX
  5
2AF9
  8
0
 10
178.89965540099811
 20
77.769384232506042
 30
0.0
  0
VERTEX
  5
2AFA
  8
0
 10
178.89434065738189
 20
77.756581122164931
 30
0.0
  0
VERTEX
  5
2AFB
  8
0
 10
178.88403547454271
 20
77.73032058991717
 30
0.0
  0
VERTEX
  5
2AFC
  8
0
 10
178.87416526293421
 20
77.703210790527663
 30
0.0
  0
VERTEX
  5
2AFD
  8
0
 10
178.86472397638391
 20
77.675257833454864
 30
0.0
  0
VERTEX
  5
2AFE
  8
0
 10
178.85570554766429
 20
77.646467675994359
 30
0.0
  0
VERTEX
  5
2AFF
  8
0
 10
178.84710389474009
 20
77.61684615342989
 30
0.0
  0
VERTEX
  5
2B00
  8
0
 10
178.8429574542738
 20
77.601725423451441
 30
0.0
  0
VERTEX
  5
2B01
  8
0
 10
178.83891291977389
 20
77.586398991413105
 30
0.0
  0
VERTEX
  5
2B02
  8
0
 10
178.83112650802809
 20
77.555131817963726
 30
0.0
  0
VERTEX
  5
2B03
  8
0
 10
178.82373852669721
 20
77.523050175056653
 30
0.0
  0
VERTEX
  5
2B04
  8
0
 10
178.8201920256993
 20
77.506705638647531
 30
0.0
  0
VERTEX
  5
2B05
  8
0
 10
178.81674282370429
 20
77.490159529764952
 30
0.0
  0
VERTEX
  5
2B06
  8
0
 10
178.81013322649139
 20
77.456465284931909
 30
0.0
  0
VERTEX
  5
2B07
  8
0
 10
178.8039035408309
 20
77.421972789348942
 30
0.0
  0
VERTEX
  5
2B08
  8
0
 10
178.80092922292999
 20
77.40442885663262
 30
0.0
  0
VERTEX
  5
2B09
  8
0
 10
178.7980475496872
 20
77.386687347418743
 30
0.0
  0
VERTEX
  5
2B0A
  8
0
 10
178.7925590121481
 20
77.350614228287299
 30
0.0
  0
VERTEX
  5
2B0B
  8
0
 10
178.78743166244959
 20
77.313758674431227
 30
0.0
  0
VERTEX
  5
2B0C
  8
0
 10
178.78265920911181
 20
77.276125909690592
 30
0.0
  0
VERTEX
  5
2B0D
  8
0
 10
178.77823533420229
 20
77.237721146739375
 30
0.0
  0
VERTEX
  5
2B0E
  8
0
 10
178.77415369274129
 20
77.198549593990236
 30
0.0
  0
VERTEX
  5
2B0F
  8
0
 10
178.77223921923971
 20
77.178677899476369
 30
0.0
  0
VERTEX
  5
2B10
  8
0
 10
178.77040791225889
 20
77.1586164619317
 30
0.0
  0
VERTEX
  5
2B11
  8
0
 10
178.76699159251689
 20
77.117926968899127
 30
0.0
  0
VERTEX
  5
2B12
  8
0
 10
178.7638983053979
 20
77.07648634628346
 30
0.0
  0
VERTEX
  5
2B13
  8
0
 10
178.76112159497211
 20
77.034299843183391
 30
0.0
  0
VERTEX
  5
2B14
  8
0
 10
178.75865497774149
 20
76.991372730509624
 30
0.0
  0
VERTEX
  5
2B15
  8
0
 10
178.75649194306479
 20
76.94771030455108
 30
0.0
  0
VERTEX
  5
2B16
  8
0
 10
178.75552222733191
 20
76.925605011878304
 30
0.0
  0
VERTEX
  5
2B17
  8
0
 10
178.75462595376209
 20
76.903317890014733
 30
0.0
  0
VERTEX
  5
2B18
  8
0
 10
178.7530504468991
 20
76.858200842553146
 30
0.0
  0
VERTEX
  5
2B19
  8
0
 10
178.75175883474679
 20
76.812364550794058
 30
0.0
  0
VERTEX
  5
2B1A
  8
0
 10
178.7512174240166
 20
76.789178381656271
 30
0.0
  0
SEQEND
  5
2B1B
  8
0
  0
POLYLINE
  5
1E0E
  8
0
 66
     1
 10
0.0
 20
0.0
 30
0.0
  0
VERTEX
  5
2B1C
  8
0
 10
178.7512174240166
 20
76.789178381656285
 30
0.0
  0
VERTEX
  5
2B1D
  8
0
 10
178.7506192871775
 20
76.759012043712374
 30
0.0
  0
VERTEX
  5
2B1E
  8
0
 10
178.7497578867889
 20
76.698016838753006
 30
0.0
  0
VERTEX
  5
2B1F
  8
0
 10
178.74933291946411
 20
76.636155696805133
 30
0.0
  0
VERTEX
  5
2B20
  8
0
 10
178.74928035597179
 20
76.604906910752391
 30
0.0
  0
SEQEND
  5
2B21
  8
0
  0
POLYLINE
  5
1E0F
  8
0
 66
     1
 10
0.0
 20
0.0
 30
0.0
  0
VERTEX
  5
2B22
  8
0
 10
178.74928035597179
 20
76.604906910752391
 30
0.0
  0
VERTEX
  5
2B23
  8
0
 10
178.7493607048641
 20
76.565776677639661
 30
0.0
  0
VERTEX
  5
2B24
  8
0
 10
178.74999503743319
 20
76.486568929200672
 30
0.0
  0
VERTEX
  5
2B25
  8
0
 10
178.7512422404568
 20
76.406131153008218
 30
0.0
  0
VERTEX
  5
2B26
  8
0
 10
178.75208874511421
 20
76.365463357761939
 30
0.0
  0
VERTEX
  5
2B27
  8
0
 10
178.75308019457981
 20
76.324502869023163
 30
0.0
  0
VERTEX
  5
2B28
  8
0
 10
178.7554870584373
 20
76.241723526534983
 30
0.0
  0
VERTEX
  5
2B29
  8
0
 10
178.75844125930479
 20
76.157832545358374
 30
0.0
  0
VERTEX
  5
2B2A
  8
0
 10
178.76192148534631
 20
76.072869351805565
 30
0.0
  0
VERTEX
  5
2B2B
  8
0
 10
178.76590667942989
 20
75.986873409779264
 30
0.0
  0
VERTEX
  5
2B2C
  8
0
 10
178.7703760344674
 20
75.899884247331158
 30
0.0
  0
VERTEX
  5
2B2D
  8
0
 10
178.77278583768231
 20
75.856029584089868
 30
0.0
  0
VERTEX
  5
2B2E
  8
0
 10
178.77530899020741
 20
75.811941479024725
 30
0.0
  0
VERTEX
  5
2B2F
  8
0
 10
178.78068523140641
 20
75.723084824430501
 30
0.0
  0
VERTEX
  5
2B30
  8
0
 10
178.78648468728591
 20
75.633354123065502
 30
0.0
  0
VERTEX
  5
2B31
  8
0
 10
178.80984554604399
 20
75.312814525011362
 30
0.0
  0
VERTEX
  5
2B32
  8
0
 10
178.83328855822319
 20
75.029995378957651
 30
0.0
  0
VERTEX
  5
2B33
  8
0
 10
178.85944025072999
 20
74.740299996540926
 30
0.0
  0
VERTEX
  5
2B34
  8
0
 10
178.9182425697947
 20
74.14303462857626
 30
0.0
  0
VERTEX
  5
2B35
  8
0
 10
178.98321216733669
 20
73.526404785682246
 30
0.0
  0
VERTEX
  5
2B36
  8
0
 10
179.0529591420412
 20
72.883609550326824
 30
0.0
  0
VERTEX
  5
2B37
  8
0
 10
179.12622806456599
 20
72.20911196482939
 30
0.0
  0
VERTEX
  5
2B38
  8
0
 10
179.20109149461479
 20
71.504067084696615
 30
0.0
  0
VERTEX
  5
2B39
  8
0
 10
179.23852515406429
 20
71.140442538291268
 30
0.0
  0
VERTEX
  5
2B3A
  8
0
 10
179.27564585379159
 20
70.769602533139974
 30
0.0
  0
VERTEX
  5
2B3B
  8
0
 10
179.34801931293751
 20
70.006829474576222
 30
0.0
  0
VERTEX
  5
2B3C
  8
0
 10
179.41638246132561
 20
69.216850571246397
 30
0.0
  0
VERTEX
  5
2B3D
  8
0
 10
179.47896138816759
 20
68.400766390036395
 30
0.0
  0
VERTEX
  5
2B3E
  8
0
 10
179.53364900362601
 20
67.566461140167874
 30
0.0
  0
VERTEX
  5
2B3F
  8
0
 10
179.57861126284701
 20
66.725216464356151
 30
0.0
  0
VERTEX
  5
2B40
  8
0
 10
179.59717302174781
 20
66.302649967103179
 30
0.0
  0
VERTEX
  5
2B41
  8
0
 10
179.613007042307
 20
65.879124082383555
 30
0.0
  0
VERTEX
  5
2B42
  8
0
 10
179.6362351124136
 20
65.030204811129977
 30
0.0
  0
VERTEX
  5
2B43
  8
0
 10
179.6479285707494
 20
64.180300440492289
 30
0.0
  0
VERTEX
  5
2B44
  8
0
 10
179.6493957201327
 20
63.754821359943357
 30
0.0
  0
SEQEND
  5
2B45
  8
0
  0
POLYLINE
  5
1E10
  8
0
 66
     1
 10
0.0
 20
0.0
 30
0.0
  0
VERTEX
  5
2B46
  8
0
 10
179.6493957201327
 20
63.754821359943357
 30
0.0
  0
VERTEX
  5
2B47
  8
0
 10
179.64796113809629
 20
63.334092080575971
 30
0.0
  0
VERTEX
  5
2B48
  8
0
 10
179.63650870644651
 20
62.492789144614882
 30
0.0
  0
VERTEX
  5
2B49
  8
0
 10
179.6137774852063
 20
61.653245952421109
 30
0.0
  0
VERTEX
  5
2B4A
  8
0
 10
179.59829481022851
 20
61.234716125090841
 30
0.0
  0
VERTEX
  5
2B4B
  8
0
 10
179.58015434402989
 20
60.817324444641478
 30
0.0
  0
VERTEX
  5
2B4C
  8
0
 10
179.53626084476221
 20
59.98721086427571
 30
0.0
  0
VERTEX
  5
2B4D
  8
0
 10
179.48356101915121
 20
59.173763741475639
 30
0.0
  0
VERTEX
  5
2B4E
  8
0
 10
179.4236781293078
 20
58.382508606756772
 30
0.0
  0
VERTEX
  5
2B4F
  8
0
 10
179.35813799514241
 20
57.614750715949903
 30
0.0
  0
VERTEX
  5
2B50
  8
0
 10
179.28854869236099
 20
56.871797914473198
 30
0.0
  0
VERTEX
  5
2B51
  8
0
 10
179.25275646198941
 20
56.510032237491423
 30
0.0
  0
VERTEX
  5
2B52
  8
0
 10
179.21658369518451
 20
56.154958170281191
 30
0.0
  0
VERTEX
  5
2B53
  8
0
 10
179.14396541874399
 20
55.46553656951847
 30
0.0
  0
VERTEX
  5
2B54
  8
0
 10
179.072449308063
 20
54.804832158979018
 30
0.0
  0
VERTEX
  5
2B55
  8
0
 10
179.00380994254141
 20
54.17414590185377
 30
0.0
  0
VERTEX
  5
2B56
  8
0
 10
178.9399743592634
 20
53.576185331545062
 30
0.0
  0
VERTEX
  5
2B57
  8
0
 10
178.88275158101609
 20
53.012923842326607
 30
0.0
  0
VERTEX
  5
2B58
  8
0
 10
178.85713168761939
 20
52.7445684247554
 30
0.0
  0
VERTEX
  5
2B59
  8
0
 10
178.8337714875625
 20
52.4852041014625
 30
0.0
  0
VERTEX
  5
2B5A
  8
0
 10
178.79460231442471
 20
51.993874142360987
 30
0.0
  0
VERTEX
  5
2B5B
  8
0
 10
178.76674772856879
 20
51.539793366013512
 30
0.0
  0
VERTEX
  5
2B5C
  8
0
 10
178.7575158251062
 20
51.326995913343289
 30
0.0
  0
SEQEND
  5
2B5D
  8
0
  0
POLYLINE
  5
1E11
  8
0
 66
     1
 10
0.0
 20
0.0
 30
0.0
  0
VERTEX
  5
2B5E
  8
0
 10
178.7575158251062
 20
51.326995913343289
 30
0.0
  0
VERTEX
  5
2B5F
  8
0
 10
178.7550469076246
 20
51.25375876578093
 30
0.0
  0
VERTEX
  5
2B60
  8
0
 10
178.751390313873
 20
51.108750914107873
 30
0.0
  0
VERTEX
  5
2B61
  8
0
 10
178.74951854633389
 20
50.965984396038657
 30
0.0
  0
VERTEX
  5
2B62
  8
0
 10
178.74928035597179
 20
50.895549018988568
 30
0.0
  0
SEQEND
  5
2B63
  8
0
  0
POLYLINE
  5
1E12
  8
0
 66
     1
 10
0.0
 20
0.0
 30
0.0
  0
VERTEX
  5
2B64
  8
0
 10
178.74928035597179
 20
50.895549018988568
 30
0.0
  0
VERTEX
  5
2B65
  8
0
 10
178.7509278700615
 20
50.716165620711031
 30
0.0
  0
VERTEX
  5
2B66
  8
0
 10
178.7646819315743
 20
50.374314664915019
 30
0.0
  0
VERTEX
  5
2B67
  8
0
 10
178.77962639497031
 20
50.187243589703712
 30
0.0
  0
VERTEX
  5
2B68
  8
0
 10
178.78488649102249
 20
50.135683741178177
 30
0.0
  0
VERTEX
  5
2B69
  8
0
 10
178.7905989637772
 20
50.08501400060559
 30
0.0
  0
VERTEX
  5
2B6A
  8
0
 10
178.7936270033494
 20
50.060020809647412
 30
0.0
  0
VERTEX
  5
2B6B
  8
0
 10
178.7967707034137
 20
50.035259892696033
 30
0.0
  0
VERTEX
  5
2B6C
  8
0
 10
178.80340838012569
 20
49.986448895338611
 30
0.0
  0
VERTEX
  5
2B6D
  8
0
 10
178.8105185500869
 20
49.938609019431901
 30
0.0
  0
VERTEX
  5
2B6E
  8
0
 10
178.81425285367521
 20
49.915061995996808
 30
0.0
  0
VERTEX
  5
2B6F
  8
0
 10
178.81810771384249
 20
49.891768240424888
 30
0.0
  0
VERTEX
  5
2B70
  8
0
 10
178.82618231462641
 20
49.845954488536599
 30
0.0
  0
VERTEX
  5
2B71
  8
0
 10
178.83474873667359
 20
49.801195638128391
 30
0.0
  0
VERTEX
  5
2B72
  8
0
 10
178.8392183592037
 20
49.779220493635741
 30
0.0
  0
VERTEX
  5
2B73
  8
0
 10
178.84381330356771
 20
49.757519496223267
 30
0.0
  0
VERTEX
  5
2B74
  8
0
 10
178.8533822766729
 20
49.714953790182193
 30
0.0
  0
VERTEX
  5
2B75
  8
0
 10
178.86346185371181
 20
49.673526154566296
 30
0.0
  0
VERTEX
  5
2B76
  8
0
 10
178.8740581675531
 20
49.633264117235633
 30
0.0
  0
VERTEX
  5
2B77
  8
0
 10
178.8851772852955
 20
49.594195084760877
 30
0.0
  0
VERTEX
  5
2B78
  8
0
 10
178.8968252077303
 20
49.556346327254197
 30
0.0
  0
VERTEX
  5
2B79
  8
0
 10
178.9028493277992
 20
49.53788803237552
 30
0.0
  0
VERTEX
  5
2B7A
  8
0
 10
178.90900786928921
 20
49.51974496275767
 30
0.0
  0
VERTEX
  5
2B7B
  8
0
 10
178.92173113858451
 20
49.484417941364647
 30
0.0
  0
VERTEX
  5
2B7C
  8
0
 10
178.93500081966141
 20
49.450392029287748
 30
0.0
  0
VERTEX
  5
2B7D
  8
0
 10
178.9488226540895
 20
49.417693793128443
 30
0.0
  0
VERTEX
  5
2B7E
  8
0
 10
178.9632023240228
 20
49.386349584645359
 30
0.0
  0
VERTEX
  5
2B7F
  8
0
 10
178.97814545642049
 20
49.356385526251017
 30
0.0
  0
VERTEX
  5
2B80
  8
0
 10
178.98583006796559
 20
49.341929146401391
 30
0.0
  0
VERTEX
  5
2B81
  8
0
 10
178.99365763873811
 20
49.327827479732619
 30
0.0
  0
VERTEX
  5
2B82
  8
0
 10
179.00974441329819
 20
49.300701062443707
 30
0.0
  0
VERTEX
  5
2B83
  8
0
 10
179.02641122540089
 20
49.275031723900639
 30
0.0
  0
VERTEX
  5
2B84
  8
0
 10
179.0436634118966
 20
49.250844724825271
 30
0.0
  0
VERTEX
  5
2B85
  8
0
 10
179.06150619647059
 20
49.228165103447061
 30
0.0
  0
VERTEX
  5
2B86
  8
0
 10
179.07994468619779
 20
49.207017641475034
 30
0.0
  0
VERTEX
  5
2B87
  8
0
 10
179.0893888840618
 20
49.197026136081227
 30
0.0
  0
VERTEX
  5
2B88
  8
0
 10
179.0989838696253
 20
49.18742683032518
 30
0.0
  0
VERTEX
  5
2B89
  8
0
 10
179.11862861663889
 20
49.16941683826213
 30
0.0
  0
VERTEX
  5
2B8A
  8
0
 10
179.13888368035609
 20
49.153011479178247
 30
0.0
  0
VERTEX
  5
2B8B
  8
0
 10
179.15975370126731
 20
49.138234183779929
 30
0.0
  0
VERTEX
  5
2B8C
  8
0
 10
179.18124321381461
 20
49.12510797398005
 30
0.0
  0
VERTEX
  5
2B8D
  8
0
 10
179.2033566555537
 20
49.113655441298299
 30
0.0
  0
VERTEX
  5
2B8E
  8
0
 10
179.21464871297121
 20
49.108563741793311
 30
0.0
  0
VERTEX
  5
2B8F
  8
0
 10
179.22609837898969
 20
49.103898730048023
 30
0.0
  0
VERTEX
  5
2B90
  8
0
 10
179.2494726661163
 20
49.095859526033848
 30
0.0
  0
VERTEX
  5
2B91
  8
0
 10
179.27348374561529
 20
49.089559051398709
 30
0.0
  0
VERTEX
  5
2B92
  8
0
 10
179.29813581259671
 20
49.085018066142311
 30
0.0
  0
VERTEX
  5
2B93
  8
0
 10
179.32343305067991
 20
49.082256876686429
 30
0.0
  0
VERTEX
  5
2B94
  8
0
 10
179.34937965614
 20
49.08129535169158
 30
0.0
  0
VERTEX
  5
2B95
  8
0
 10
179.36257714467939
 20
49.081494893616892
 30
0.0
  0
VERTEX
  5
2B96
  8
0
 10
179.37589091666331
 20
49.082147096765858
 30
0.0
  0
VERTEX
  5
2B97
  8
0
 10
179.4028631911132
 20
49.084799697556491
 30
0.0
  0
VERTEX
  5
2B98
  8
0
 10
179.4302885742504
 20
49.089233311462401
 30
0.0
  0
VERTEX
  5
2B99
  8
0
 10
179.44416869887891
 20
49.092111678585432
 30
0.0
  0
VERTEX
  5
2B9A
  8
0
 10
179.45815910444239
 20
49.095427659136249
 30
0.0
  0
VERTEX
  5
2B9B
  8
0
 10
179.4864666870584
 20
49.103362008404403
 30
0.0
  0
VERTEX
  5
2B9C
  8
0
 10
179.5152031053388
 20
49.113015165265793
 30
0.0
  0
VERTEX
  5
2B9D
  8
0
 10
179.52972952983379
 20
49.118479546521613
 30
0.0
  0
VERTEX
  5
2B9E
  8
0
 10
179.54436003317511
 20
49.124365471955201
 30
0.0
  0
VERTEX
  5
2B9F
  8
0
 10
179.5739290493803
 20
49.137390811705039
 30
0.0
  0
VERTEX
  5
2BA0
  8
0
 10
179.6039016530234
 20
49.152068619692038
 30
0.0
  0
VERTEX
  5
2BA1
  8
0
 10
179.63426927940881
 20
49.168375899536052
 30
0.0
  0
VERTEX
  5
2BA2
  8
0
 10
179.66502331630099
 20
49.186289244631133
 30
0.0
  0
VERTEX
  5
2BA3
  8
0
 10
179.69615512002761
 20
49.205784863532891
 30
0.0
  0
VERTEX
  5
2BA4
  8
0
 10
179.71185997857589
 20
49.216118492600451
 30
0.0
  0
VERTEX
  5
2BA5
  8
0
 10
179.72765603113149
 20
49.226838608600531
 30
0.0
  0
VERTEX
  5
2BA6
  8
0
 10
179.75951738929189
 20
49.2494260070942
 30
0.0
  0
VERTEX
  5
2BA7
  8
0
 10
179.7917305472765
 20
49.27352229395504
 30
0.0
  0
VERTEX
  5
2BA8
  8
0
 10
179.82428688374691
 20
49.299102445541919
 30
0.0
  0
VERTEX
  5
2BA9
  8
0
 10
179.857177814777
 20
49.326141213661323
 30
0.0
  0
VERTEX
  5
2BAA
  8
0
 10
179.89039480400149
 20
49.354613159300548
 30
0.0
  0
VERTEX
  5
2BAB
  8
0
 10
179.9071229176642
 20
49.369378579644632
 30
0.0
  0
VERTEX
  5
2BAC
  8
0
 10
179.9239293611152
 20
49.384492676270369
 30
0.0
  0
VERTEX
  5
2BAD
  8
0
 10
179.95777294127171
 20
49.415753919859952
 30
0.0
  0
VERTEX
  5
2BAE
  8
0
 10
179.99191691328619
 20
49.44837078213618
 30
0.0
  0
VERTEX
  5
2BAF
  8
0
 10
180.02635259083689
 20
49.482316924844049
 30
0.0
  0
VERTEX
  5
2BB0
  8
0
 10
180.06107123990461
 20
49.517565793985192
 30
0.0
  0
VERTEX
  5
2BB1
  8
0
 10
180.09606408544269
 20
49.55409063500889
 30
0.0
  0
VERTEX
  5
2BB2
  8
0
 10
180.1136605799839
 20
49.572823133201297
 30
0.0
  0
VERTEX
  5
2BB3
  8
0
 10
180.13132231748921
 20
49.591864508521098
 30
0.0
  0
VERTEX
  5
2BB4
  8
0
 10
180.16683709667819
 20
49.630860306211872
 30
0.0
  0
VERTEX
  5
2BB5
  8
0
 10
180.20259955912371
 20
49.671050766743861
 30
0.0
  0
VERTEX
  5
2BB6
  8
0
 10
180.23860082067199
 20
49.712408491385297
 30
0.0
  0
VERTEX
  5
2BB7
  8
0
 10
180.27483198052531
 20
49.754905959210433
 30
0.0
  0
VERTEX
  5
2BB8
  8
0
 10
180.31128412425991
 20
49.79851554172626
 30
0.0
  0
VERTEX
  5
2BB9
  8
0
 10
180.32959027620981
 20
49.820728716123369
 30
0.0
  0
VERTEX
  5
2BBA
  8
0
 10
180.34794832626071
 20
49.843209516817872
 30
0.0
  0
VERTEX
  5
2BBB
  8
0
 10
180.38481565161189
 20
49.888960081934421
 30
0.0
  0
VERTEX
  5
2BBC
  8
0
 10
180.42187715747951
 20
49.935739366463039
 30
0.0
  0
VERTEX
  5
2BBD
  8
0
 10
180.45912389402929
 20
49.983519443261102
 30
0.0
  0
VERTEX
  5
2BBE
  8
0
 10
180.4965469049225
 20
50.032272339335819
 30
0.0
  0
VERTEX
  5
2BBF
  8
0
 10
180.53413722743619
 20
50.081970045675412
 30
0.0
  0
VERTEX
  5
2BC0
  8
0
 10
180.5529923290793
 20
50.10716444383219
 30
0.0
  0
VERTEX
  5
2BC1
  8
0
 10
180.57188622533221
 20
50.132584975911882
 30
0.0
  0
VERTEX
  5
2BC2
  8
0
 10
180.60978676366111
 20
50.184091611992571
 30
0.0
  0
VERTEX
  5
2BC3
  8
0
 10
180.64783029365719
 20
50.236462603542151
 30
0.0
  0
VERTEX
  5
2BC4
  8
0
 10
180.66690292206491
 20
50.262963572462702
 30
0.0
  0
VERTEX
  5
2BC5
  8
0
 10
180.7819809206467
 20
50.426167491372631
 30
0.0
  0
VERTEX
  5
2BC6
  8
0
 10
181.0146739206736
 20
50.771789439527609
 30
0.0
  0
VERTEX
  5
2BC7
  8
0
 10
181.24911266546891
 20
51.138024336042761
 30
0.0
  0
VERTEX
  5
2BC8
  8
0
 10
181.36636129068381
 20
51.326995913343289
 30
0.0
  0
SEQEND
  5
2BC9
  8
0
  0
POLYLINE
  5
1E13
  8
0
 66
     1
 10
0.0
 20
0.0
 30
0.0
  0
VERTEX
  5
2BCA
  8
0
 10
181.36636129068381
 20
51.326995913343289
 30
0.0
  0
VERTEX
  5
2BCB
  8
0
 10
181.462579400034
 20
51.485936846968229
 30
0.0
  0
VERTEX
  5
2BCC
  8
0
 10
181.65289230707529
 20
51.81470279265244
 30
0.0
  0
VERTEX
  5
2BCD
  8
0
 10
181.8397397079666
 20
52.156611428821329
 30
0.0
  0
VERTEX
  5
2BCE
  8
0
 10
181.9316344742077
 20
52.33198384835827
 30
0.0
  0
VERTEX
  5
2BCF
  8
0
 10
182.0223924773922
 20
52.51002943608475
 30
0.0
  0
VERTEX
  5
2BD0
  8
0
 10
182.20016197427421
 20
52.87331949129009
 30
0.0
  0
VERTEX
  5
2BD1
  8
0
 10
182.37244486242679
 20
53.244916040066869
 30
0.0
  0
VERTEX
  5
2BD2
  8
0
 10
182.53941522854851
 20
53.624946545407113
 30
0.0
  0
VERTEX
  5
2BD3
  8
0
 10
182.70095279607071
 20
54.013042102831491
 30
0.0
  0
VERTEX
  5
2BD4
  8
0
 10
182.8567085324525
 20
54.40831617492077
 30
0.0
  0
VERTEX
  5
2BD5
  8
0
 10
182.93231591773511
 20
54.608369336738463
 30
0.0
  0
VERTEX
  5
2BD6
  8
0
 10
183.00635838972309
 20
54.809886093730249
 30
0.0
  0
VERTEX
  5
2BD7
  8
0
 10
183.14960546180981
 20
55.21686756893385
 30
0.0
  0
VERTEX
  5
2BD8
  8
0
 10
183.28618256990981
 20
55.628371565753383
 30
0.0
  0
VERTEX
  5
2BD9
  8
0
 10
183.4160298023121
 20
56.044080459425757
 30
0.0
  0
VERTEX
  5
2BDA
  8
0
 10
183.5404059126254
 20
56.468347738674026
 30
0.0
  0
VERTEX
  5
2BDB
  8
0
 10
183.65929018131851
 20
56.902031969715381
 30
0.0
  0
VERTEX
  5
2BDC
  8
0
 10
183.7165530613614
 20
57.122318022997121
 30
0.0
  0
VERTEX
  5
2BDD
  8
0
 10
183.7722998446425
 20
57.344853576385418
 30
0.0
  0
VERTEX
  5
2BDE
  8
0
 10
183.8790573230653
 20
57.796534253679432
 30
0.0
  0
VERTEX
  5
2BDF
  8
0
 10
183.97919041099721
 20
58.256796808725049
 30
0.0
  0
VERTEX
  5
2BE0
  8
0
 10
184.02665799798291
 20
58.490059935405512
 30
0.0
  0
SEQEND
  5
2BE1
  8
0
  0
POLYLINE
  5
1E14
  8
0
 66
     1
 10
0.0
 20
0.0
 30
0.0
  0
VERTEX
  5
2BE2
  8
0
 10
184.02665799798291
 20
58.490059935405512
 30
0.0
  0
VERTEX
  5
2BE3
  8
0
 10
184.05346610486259
 20
58.626785050243242
 30
0.0
  0
VERTEX
  5
2BE4
  8
0
 10
184.10522400254331
 20
58.902283825421208
 30
0.0
  0
VERTEX
  5
2BE5
  8
0
 10
184.15444539396631
 20
59.180468801566491
 30
0.0
  0
VERTEX
  5
2BE6
  8
0
 10
184.17808301863329
 20
59.320551683283298
 30
0.0
  0
VERTEX
  5
2BE7
  8
0
 10
184.20106033932299
 20
59.461285804382328
 30
0.0
  0
VERTEX
  5
2BE8
  8
0
 10
184.24499953742119
 20
59.744680712875493
 30
0.0
  0
VERTEX
  5
2BE9
  8
0
 10
184.2861943193958
 20
60.03059944419347
 30
0.0
  0
VERTEX
  5
2BEA
  8
0
 10
184.32457663996641
 20
60.318987936450021
 30
0.0
  0
VERTEX
  5
2BEB
  8
0
 10
184.36007906624539
 20
60.609792129204209
 30
0.0
  0
VERTEX
  5
2BEC
  8
0
 10
184.39263476410531
 20
60.902957941243692
 30
0.0
  0
VERTEX
  5
2BED
  8
0
 10
184.40778686403331
 20
61.050409542284477
 30
0.0
  0
VERTEX
  5
2BEE
  8
0
 10
184.42217748211669
 20
61.198431245304043
 30
0.0
  0
VERTEX
  5
2BEF
  8
0
 10
184.44864153307691
 20
61.496157839335183
 30
0.0
  0
VERTEX
  5
2BF0
  8
0
 10
184.47194450451141
 20
61.795844185340833
 30
0.0
  0
VERTEX
  5
2BF1
  8
0
 10
184.49195769557599
 20
62.096254434934501
 30
0.0
  0
VERTEX
  5
2BF2
  8
0
 10
184.5086553252205
 20
62.397147168598593
 30
0.0
  0
VERTEX
  5
2BF3
  8
0
 10
184.5220266118443
 20
62.69843609425812
 30
0.0
  0
VERTEX
  5
2BF4
  8
0
 10
184.52746207742001
 20
62.84920216078681
 30
0.0
  0
VERTEX
  5
2BF5
  8
0
 10
184.53206286024471
 20
63.000034912490797
 30
0.0
  0
VERTEX
  5
2BF6
  8
0
 10
184.53875747373721
 20
63.301857318053003
 30
0.0
  0
VERTEX
  5
2BF7
  8
0
 10
184.54210596311111
 20
63.60381700491422
 30
0.0
  0
VERTEX
  5
2BF8
  8
0
 10
184.54252458609119
 20
63.754821359943357
 30
0.0
  0
SEQEND
  5
2BF9
  8
0
  0
POLYLINE
  5
1E15
  8
0
 66
     1
 10
0.0
 20
0.0
 30
0.0
  0
VERTEX
  5
2BFA
  8
0
 10
184.54252458609119
 20
63.754821359943357
 30
0.0
  0
VERTEX
  5
2BFB
  8
0
 10
184.54212342424691
 20
63.902642942095362
 30
0.0
  0
VERTEX
  5
2BFC
  8
0
 10
184.5389144020082
 20
64.19825126781123
 30
0.0
  0
VERTEX
  5
2BFD
  8
0
 10
184.53249806537531
 20
64.493745681054364
 30
0.0
  0
VERTEX
  5
2BFE
  8
0
 10
184.5280882152604
 20
64.641424870824295
 30
0.0
  0
VERTEX
  5
2BFF
  8
0
 10
184.52287805196789
 20
64.789045222649634
 30
0.0
  0
VERTEX
  5
2C00
  8
0
 10
184.51005993410749
 20
65.084068933539527
 30
0.0
  0
VERTEX
  5
2C01
  8
0
 10
184.49405121058419
 20
65.378735859625152
 30
0.0
  0
VERTEX
  5
2C02
  8
0
 10
184.47486129562509
 20
65.67296505323722
 30
0.0
  0
VERTEX
  5
2C03
  8
0
 10
184.45250150522571
 20
65.966675570925347
 30
0.0
  0
VERTEX
  5
2C04
  8
0
 10
184.42697399502279
 20
66.259905847782036
 30
0.0
  0
VERTEX
  5
2C05
  8
0
 10
184.4130146731618
 20
66.406428669341565
 30
0.0
  0
VERTEX
  5
2C06
  8
0
 10
184.39825842393239
 20
66.552879115024496
 30
0.0
  0
VERTEX
  5
2C07
  8
0
 10
184.3663577881369
 20
66.845513768456442
 30
0.0
  0
VERTEX
  5
2C08
  8
0
 10
184.33127891923061
 20
67.137711609796071
 30
0.0
  0
VERTEX
  5
2C09
  8
0
 10
184.29303108271321
 20
67.429374508839487
 30
0.0
  0
VERTEX
  5
2C0A
  8
0
 10
184.25162592631881
 20
67.720404435824832
 30
0.0
  0
VERTEX
  5
2C0B
  8
0
 10
184.20707742381069
 20
68.010703474549757
 30
0.0
  0
VERTEX
  5
2C0C
  8
0
 10
184.18362940594699
 20
68.155548341703678
 30
0.0
  0
VERTEX
  5
2C0D
  8
0
 10
184.15940181526281
 20
68.300173815104785
 30
0.0
  0
VERTEX
  5
2C0E
  8
0
 10
184.108617544917
 20
68.588717724865532
 30
0.0
  0
VERTEX
  5
2C0F
  8
0
 10
184.05474519778301
 20
68.876237496143602
 30
0.0
  0
VERTEX
  5
2C10
  8
0
 10
184.02665799798311
 20
69.019582784480519
 30
0.0
  0
SEQEND
  5
2C11
  8
0
  0
POLYLINE
  5
1E16
  8
0
 66
     1
 10
0.0
 20
0.0
 30
0.0
  0
VERTEX
  5
2C12
  8
0
 10
184.02665799798311
 20
69.019582784480519
 30
0.0
  0
VERTEX
  5
2C13
  8
0
 10
183.97126192420691
 20
69.29078822850866
 30
0.0
  0
VERTEX
  5
2C14
  8
0
 10
183.8523123129379
 20
69.829701643124679
 30
0.0
  0
VERTEX
  5
2C15
  8
0
 10
183.7226645219767
 20
70.363331950347344
 30
0.0
  0
VERTEX
  5
2C16
  8
0
 10
183.6542858504792
 20
70.626488571134246
 30
0.0
  0
VERTEX
  5
2C17
  8
0
 10
183.5839061050568
 20
70.886061491087915
 30
0.0
  0
VERTEX
  5
2C18
  8
0
 10
183.43748459380271
 20
71.394313504347934
 30
0.0
  0
VERTEX
  5
2C19
  8
0
 10
183.28407798510989
 20
71.887802798094825
 30
0.0
  0
VERTEX
  5
2C1A
  8
0
 10
183.12435699274991
 20
72.366243541233644
 30
0.0
  0
VERTEX
  5
2C1B
  8
0
 10
182.9589846757184
 20
72.829347606315707
 30
0.0
  0
VERTEX
  5
2C1C
  8
0
 10
182.78861605340461
 20
73.276822593738785
 30
0.0
  0
VERTEX
  5
2C1D
  8
0
 10
182.70176053871779
 20
73.494606048944874
 30
0.0
  0
VERTEX
  5
2C1E
  8
0
 10
182.6138977732206
 20
73.708369376585736
 30
0.0
  0
VERTEX
  5
2C1F
  8
0
 10
182.43546792421071
 20
74.12367897135195
 30
0.0
  0
VERTEX
  5
2C20
  8
0
 10
182.25395612474239
 20
74.522428503530193
 30
0.0
  0
VERTEX
  5
2C21
  8
0
 10
182.06854569452079
 20
74.907177611434179
 30
0.0
  0
VERTEX
  5
2C22
  8
0
 10
181.87731045403831
 20
75.281918175543041
 30
0.0
  0
VERTEX
  5
2C23
  8
0
 10
181.68105220828789
 20
75.644642340775334
 30
0.0
  0
VERTEX
  5
2C24
  8
0
 10
181.58132537361169
 20
75.820839026985595
 30
0.0
  0
VERTEX
  5
2C25
  8
0
 10
181.480692523909
 20
75.993242960154362
 30
0.0
  0
VERTEX
  5
2C26
  8
0
 10
181.27720336951839
 20
76.325626662770006
 30
0.0
  0
VERTEX
  5
2C27
  8
0
 10
181.07160009371771
 20
76.639688679551114
 30
0.0
  0
VERTEX
  5
2C28
  8
0
 10
180.9683345144486
 20
76.789178381656271
 30
0.0
  0
SEQEND
  5
2C29
  8
0
  0
LINE
  5
1E1B
  8
1
 10
159.5449230256913
 20
19.634821359943299
 30
0.0
 11
159.5449230256913
 21
89.634821359943345
 31
0.0
  0
CIRCLE
  5
1E1C
  8
0
 10
159.54492302569119
 20
156.14181669790949
 30
0.0
 40
12.5
  0
LINE
  5
1E1D
  8
0
 10
139.1999009907575
 20
170.67041189490169
 30
0.0
 11
152.1495799490618
 21
180.02295780923311
 31
0.0
  0
LINE
  5
1E1E
  8
0
 10
167.07548060067819
 20
179.98066529866631
 30
0.0
 11
179.97195120626861
 21
170.55488436964049
 31
0.0
  0
LINE
  5
1E1F
  8
0
 10
184.54408559620461
 20
156.3464401888474
 30
0.0
 11
179.56486380706889
 21
141.16844128986841
 31
0.0
  0
LINE
  5
1E20
  8
0
 10
167.46469760956529
 20
132.4294323694489
 30
0.0
 11
151.49089870076531
 21
132.47469409769661
 31
0.0
  0
LINE
  5
1E21
  8
0
 10
139.44045033124971
 20
141.2821337376825
 30
0.0
 11
134.54732146529119
 21
156.488105923109
 31
0.0
  0
LINE
  5
1E22
  8
0
 10
172.04492302569119
 20
83.329415707738306
 30
0.0
 11
147.04492302569119
 21
83.329415707738306
 31
0.0
  0
LINE
  5
1E23
  8
0
 10
172.6457831429241
 20
83.174339308755847
 30
0.0
 11
172.04492302569119
 21
83.329415707738306
 31
0.0
  0
LINE
  5
1E24
  8
0
 10
86.577445636537618
 20
143.04095658067669
 30
0.0
 11
86.732522035520105
 21
143.64181669790969
 31
0.0
  0
LINE
  5
1E25
  8
0
 10
86.732522035520105
 20
143.64181669790969
 30
0.0
 11
86.732522035520105
 21
168.6418166979096
 31
0.0
  0
ARC
  5
1E26
  8
0
 10
27.53792768772524
 20
156.1418166979096
 30
0.0
 40
60.499999999999901
 50
348.07614487177182
 51
11.923855128227389
  0
LINE
  5
1E27
  8
0
 10
86.732522035520105
 20
168.64181669790949
 30
0.0
 11
86.576097934247727
 21
169.24402451743231
 31
0.0
  0
TEXT
  5
1F3D
  8
0
 62
     3
 10
0.0
 20
0.0
 30
0.0
 40
10.0
  1
EBG50A-SOFT-TC
  7
STANDARD1
  0
ENDSEC
  0
EOF
