  0
SECTION
  2
HEADER
  9
$ACADVER
  1
AC1009
  9
$INSBASE
 10
0.0
 20
0.0
 30
0.0
  9
$EXTMIN
 10
0.0
 20
-2.960436562073669
 30
-0.0000000000000741
  9
$EXTMAX
 10
204.0005000000001
 20
155.9999999999998
 30
0.0000000000000841
  9
$LIMMIN
 10
0.0
 20
0.0
  9
$LIMMAX
 10
375.0
 20
270.0
  9
$ORTHOMODE
 70
     1
  9
$REGENMODE
 70
     1
  9
$FILLMODE
 70
     1
  9
$QTEXTMODE
 70
     0
  9
$MIRRTEXT
 70
     0
  9
$DRAGMODE
 70
     2
  9
$LTSCALE
 40
10.0
  9
$OSMODE
 70
    37
  9
$ATTMODE
 70
     1
  9
$TEXTSIZE
 40
0.2
  9
$TRACEWID
 40
0.05
  9
$TEXTSTYLE
  7
STANDARD
  9
$CLAYER
  8
0
  9
$CELTYPE
  6
BYLAYER
  9
$CECOLOR
 62
   256
  9
$DIMSCALE
 40
1.0
  9
$DIMASZ
 40
3.0
  9
$DIMEXO
 40
0.0625
  9
$DIMDLI
 40
0.38
  9
$DIMRND
 40
0.0
  9
$DIMDLE
 40
0.0
  9
$DIMEXE
 40
0.18
  9
$DIMTP
 40
0.0
  9
$DIMTM
 40
0.0
  9
$DIMTXT
 40
3.0
  9
$DIMCEN
 40
0.09
  9
$DIMTSZ
 40
0.0
  9
$DIMTOL
 70
     0
  9
$DIMLIM
 70
     0
  9
$DIMTIH
 70
     1
  9
$DIMTOH
 70
     1
  9
$DIMSE1
 70
     0
  9
$DIMSE2
 70
     0
  9
$DIMTAD
 70
     0
  9
$DIMZIN
 70
     0
  9
$DIMBLK
  1

  9
$DIMASO
 70
     1
  9
$DIMSHO
 70
     1
  9
$DIMPOST
  1

  9
$DIMAPOST
  1

  9
$DIMALT
 70
     0
  9
$DIMALTD
 70
     2
  9
$DIMALTF
 40
25.399999999999999
  9
$DIMLFAC
 40
1.0
  9
$DIMTOFL
 70
     0
  9
$DIMTVP
 40
0.0
  9
$DIMTIX
 70
     0
  9
$DIMSOXD
 70
     0
  9
$DIMSAH
 70
     0
  9
$DIMBLK1
  1

  9
$DIMBLK2
  1

  9
$DIMSTYLE
  2
STANDARD
  9
$DIMCLRD
 70
     0
  9
$DIMCLRE
 70
     0
  9
$DIMCLRT
 70
     0
  9
$DIMTFAC
 40
1.0
  9
$DIMGAP
 40
0.09
  9
$LUNITS
 70
     2
  9
$LUPREC
 70
     1
  9
$SKETCHINC
 40
0.1
  9
$FILLETRAD
 40
2.0
  9
$AUNITS
 70
     0
  9
$AUPREC
 70
     0
  9
$MENU
  1
E:\r13\win\SUPPORT\ACAD
  9
$ELEVATION
 40
0.0
  9
$PELEVATION
 40
0.0
  9
$THICKNESS
 40
0.0
  9
$LIMCHECK
 70
     0
  9
$BLIPMODE
 70
     0
  9
$CHAMFERA
 40
0.0
  9
$CHAMFERB
 40
0.0
  9
$SKPOLY
 70
     0
  9
$TDCREATE
 40
2450382.6899885419
  9
$TDUPDATE
 40
2457178.4170841202
  9
$TDINDWG
 40
0.0747339005
  9
$TDUSRTIMER
 40
0.0747339005
  9
$USRTIMER
 70
     1
  9
$ANGBASE
 50
0.0
  9
$ANGDIR
 70
     0
  9
$PDMODE
 70
     0
  9
$PDSIZE
 40
0.0
  9
$PLINEWID
 40
0.0
  9
$COORDS
 70
     1
  9
$SPLFRAME
 70
     0
  9
$SPLINETYPE
 70
     6
  9
$SPLINESEGS
 70
     8
  9
$ATTDIA
 70
     0
  9
$ATTREQ
 70
     1
  9
$HANDLING
 70
     1
  9
$HANDSEED
  5
CBF
  9
$SURFTAB1
 70
     6
  9
$SURFTAB2
 70
     6
  9
$SURFTYPE
 70
     6
  9
$SURFU
 70
     6
  9
$SURFV
 70
     6
  9
$UCSNAME
  2

  9
$UCSORG
 10
0.0
 20
0.0
 30
0.0
  9
$UCSXDIR
 10
1.0
 20
0.0
 30
0.0
  9
$UCSYDIR
 10
0.0
 20
1.0
 30
0.0
  9
$PUCSNAME
  2

  9
$PUCSORG
 10
0.0
 20
0.0
 30
0.0
  9
$PUCSXDIR
 10
1.0
 20
0.0
 30
0.0
  9
$PUCSYDIR
 10
0.0
 20
1.0
 30
0.0
  9
$USERI1
 70
     3
  9
$USERI2
 70
     1
  9
$USERI3
 70
     1
  9
$USERI4
 70
     0
  9
$USERI5
 70
     0
  9
$USERR1
 40
1.0
  9
$USERR2
 40
3.0
  9
$USERR3
 40
3.0
  9
$USERR4
 40
3.0
  9
$USERR5
 40
10.0
  9
$WORLDVIEW
 70
     1
  9
$SHADEDGE
 70
     3
  9
$SHADEDIF
 70
    70
  9
$TILEMODE
 70
     1
  9
$MAXACTVP
 70
    16
  9
$PLIMCHECK
 70
     0
  9
$PEXTMIN
 10
1.0000000000000000E+020
 20
1.0000000000000000E+020
 30
1.0000000000000000E+020
  9
$PEXTMAX
 10
-1.0000000000000000E+020
 20
-1.0000000000000000E+020
 30
-1.0000000000000000E+020
  9
$PLIMMIN
 10
0.0
 20
0.0
  9
$PLIMMAX
 10
12.0
 20
9.0
  9
$UNITMODE
 70
     0
  9
$VISRETAIN
 70
     0
  9
$PLINEGEN
 70
     0
  9
$PSLTSCALE
 70
     0
  0
ENDSEC
  0
SECTION
  2
TABLES
  0
TABLE
  2
VPORT
 70
     1
  0
VPORT
  2
*ACTIVE
 70
     0
 10
0.0
 20
0.0
 11
1.0
 21
1.0
 12
245.19230769230771
 22
135.0
 13
0.0
 23
0.0
 14
5.0
 24
5.0
 15
0.0
 25
0.0
 16
0.0
 26
0.0
 36
1.0
 17
0.0
 27
0.0
 37
0.0
 40
270.0
 41
1.816239316239316
 42
50.0
 43
0.0
 44
0.0
 50
0.0
 51
0.0
 71
     0
 72
  2000
 73
     1
 74
     0
 75
     0
 76
     0
 77
     0
 78
     0
  0
ENDTAB
  0
TABLE
  2
LTYPE
 70
     4
  0
LTYPE
  2
CONTINUOUS
 70
     0
  3
Solid Line
 72
    65
 73
     0
 40
0.0
  0
LTYPE
  2
CENTER
 70
     0
  3
____ _ ____ _ ____ _ ____ _ ____ _ ____ _ ____
 72
    65
 73
     4
 40
2.0
 49
1.25
 49
-0.25
 49
0.25
 49
-0.25
  0
LTYPE
  2
HIDDEN
 70
     0
  3
_ _ _ _ _ _ _ _ _ _ _ _ _ _ _ _ _ _ _ _ _ _ _
 72
    65
 73
     2
 40
0.375
 49
0.25
 49
-0.125
  0
LTYPE
  2
PHANTOM2
 70
     0
  3
___ _ _ ___ _ _ ___ _ _ ___ _ _
 72
    65
 73
     6
 40
1.25
 49
0.625
 49
-0.125
 49
0.125
 49
-0.125
 49
0.125
 49
-0.125
  0
ENDTAB
  0
TABLE
  2
LAYER
 70
     5
  0
LAYER
  2
0
 70
     0
 62
     7
  6
CONTINUOUS
  0
LAYER
  2
1
 70
     0
 62
     1
  6
CENTER
  0
LAYER
  2
2
 70
     0
 62
     2
  6
HIDDEN
  0
LAYER
  2
3
 70
     0
 62
     3
  6
CONTINUOUS
  0
LAYER
  2
DEFPOINTS
 70
     0
 62
     7
  6
CONTINUOUS
  0
ENDTAB
  0
TABLE
  2
STYLE
 70
     2
  0
STYLE
  2
STANDARD
 70
     0
 40
0.0
 41
1.0
 50
0.0
 71
     0
 42
0.2
  3
SIMPLEX
  4
BIGFONT
  0
STYLE
  2
STANDARD1
 70
     0
 40
0.0
 41
1.0
 50
0.0
 71
     0
 42
3.0
  3
txt
  4

  0
ENDTAB
  0
TABLE
  2
VIEW
 70
     0
  0
ENDTAB
  0
TABLE
  2
UCS
 70
     0
  0
ENDTAB
  0
TABLE
  2
APPID
 70
     8
  0
APPID
  2
ACAD
 70
     0
  0
APPID
  2
ASM_BASE
 70
     0
  0
APPID
  2
ASM_EXPLO_VER_2_00
 70
     0
  0
APPID
  2
ACAD_MLEADERVER
 70
     0
  0
APPID
  2
ACAD_EXEMPT_FROM_CAD_STANDARDS
 70
     0
  0
APPID
  2
ACAD_NAV_VCDISPLAY
 70
     0
  0
APPID
  2
ACAD_DSTYLE_DIMJAG
 70
     0
  0
APPID
  2
ACAD_DSTYLE_DIMTALN
 70
     0
  0
ENDTAB
  0
TABLE
  2
DIMSTYLE
 70
     1
  0
DIMSTYLE
  2
STANDARD
 70
     0
  3

  4

  5

  6

  7

 40
1.0
 41
0.18
 42
0.0625
 43
0.38
 44
0.18
 45
0.0
 46
0.0
 47
0.0
 48
0.0
140
0.18
141
0.09
142
0.0
143
25.399999999999999
144
1.0
145
0.0
146
1.0
147
0.09
 71
     0
 72
     0
 73
     1
 74
     1
 75
     0
 76
     0
 77
     0
 78
     0
170
     0
171
     2
172
     0
173
     0
174
     0
175
     0
176
     0
177
     0
178
     0
  0
ENDTAB
  0
ENDSEC
  0
SECTION
  2
BLOCKS
  0
BLOCK
  8
0
  2
$MODEL_SPACE
 70
     0
 10
0.0
 20
0.0
 30
0.0
  3
$MODEL_SPACE
  1

  0
ENDBLK
  5
19D
  8
0
  0
BLOCK
 67
     1
  8
0
  2
$PAPER_SPACE
 70
     0
 10
0.0
 20
0.0
 30
0.0
  3
$PAPER_SPACE
  1

  0
ENDBLK
  5
19B
 67
     1
  8
0
  0
ENDSEC
  0
SECTION
  2
ENTITIES
  0
CIRCLE
  5
3D9
  8
2
 10
132.0005000000001
 20
134.9999999999998
 30
0.0
 40
3.0
  0
CIRCLE
  5
3DC
  8
0
 10
132.0005000000001
 20
134.9999999999998
 30
0.0
 40
1.14110089704485
  0
CIRCLE
  5
3DD
  8
0
 10
136.0005000000001
 20
134.9999999999998
 30
0.0
 40
1.14110089704485
  0
CIRCLE
  5
3DE
  8
0
 10
140.0005000000001
 20
134.9999999999998
 30
0.0
 40
1.14110089704485
  0
CIRCLE
  5
3DF
  8
0
 10
128.0005000000001
 20
134.9999999999998
 30
0.0
 40
1.14110089704485
  0
CIRCLE
  5
3E0
  8
0
 10
124.0005000000001
 20
134.9999999999998
 30
0.0
 40
1.14110089704485
  0
TEXT
  5
578
  8
0
 62
     3
 10
0.0
 20
0.0
 30
0.0
 40
10.0
  1
ECL32-YE
  7
STANDARD1
  0
ARC
  5
8BB
  8
2
 10
121.0005
 20
66.202163876148447
 30
-0.0000000000000741
 40
1.0
 50
0.0
 51
90.000000000022794
1001
ACAD
1000
ASC_BOUNDS
1002
{
1070
    19
1002
}
  0
ARC
  5
8BC
  8
0
 10
189.42209969104999
 20
74.999999999999844
 30
0.0
 40
10.0
 50
19.202593445342071
 51
168.14961666488011
1001
ACAD
1000
ASC_BOUNDS
1002
{
1070
    19
1002
}
  0
ARC
  5
8BD
  8
0
 10
138.50016207439441
 20
271.1828604669065
 30
0.0
 40
205.6626513622378
 50
273.1746589893703
 51
286.38125828404571
1001
ACAD
1000
ASC_BOUNDS
1002
{
1070
    19
1002
}
  0
LINE
  5
8BE
  8
2
 10
139.50049999999999
 20
50.299999999999777
 30
0.0
 11
139.5005000000001
 21
63.934936353183701
 31
0.0
1001
ACAD
1000
ASC_BOUNDS
1002
{
1070
    19
1002
}
  0
LINE
  5
8BF
  8
1
 10
132.0005000000001
 20
44.999999999999879
 30
0.0
 11
132.0005000000001
 21
79.000000098984103
 31
0.0
  0
LINE
  5
8C0
  8
1
 10
144.0005000000001
 20
47.300000000000431
 30
0.0
 11
144.0005000000001
 21
70.202163876148902
 31
0.0
  0
LINE
  5
8C1
  8
2
 10
122.0005000000001
 20
50.299999999999862
 30
0.0
 11
122.0005
 21
66.202163876148447
 31
0.0
1001
ACAD
1000
ASC_BOUNDS
1002
{
1070
    19
1002
}
  0
LINE
  5
8C2
  8
2
 10
124.5005
 20
50.299999999999841
 30
0.0
 11
124.5005000000001
 21
63.934936353183701
 31
0.0
1001
ACAD
1000
ASC_BOUNDS
1002
{
1070
    19
1002
}
  0
LINE
  5
8C3
  8
2
 10
118.0005000000001
 20
50.299999999999862
 30
0.0
 11
118.0005000000001
 21
59.999999999999922
 31
0.0
1001
ACAD
1000
ASC_BOUNDS
1002
{
1070
    19
1002
}
  0
LINE
  5
8C4
  8
1
 10
120.0005000000001
 20
47.300000000000317
 30
0.0
 11
120.0005000000001
 21
70.202163876148362
 31
0.0
  0
LINE
  5
8C5
  8
0
 10
139.50049999999999
 20
49.999999999999893
 30
0.0
 11
124.5005
 21
49.999999999999893
 31
0.0
  0
LINE
  5
8C6
  8
0
 10
116.0
 20
50.299999999999862
 30
0.0
 11
148.0005000000001
 21
50.299999999999763
 31
0.0
1001
ACAD
1000
ASC_BOUNDS
1002
{
1070
    19
1002
}
  0
LINE
  5
8C7
  8
0
 10
116.0
 20
50.299999999999862
 30
0.0
 11
117.8489312187243
 21
50.299999999999862
 31
0.0
  0
LINE
  5
8C8
  8
0
 10
124.5005
 20
49.999999999999893
 30
0.0
 11
124.5005
 21
50.299999999999841
 31
0.0
  0
LINE
  5
8C9
  8
0
 10
139.50049999999999
 20
49.999999999999893
 30
0.0
 11
139.50049999999999
 21
50.299999999999777
 31
0.0
  0
ARC
  5
8CA
  8
0
 10
132.0116175148936
 20
20.572033062636489
 30
0.0
 40
53.427968094052858
 50
77.858063358601314
 51
102.166351572972
  0
LINE
  5
8CB
  8
2
 10
126.5005000000001
 20
64.434936353183716
 30
0.0
 11
125.0005000000001
 21
64.434936353183716
 31
0.0
1001
ACAD
1000
ASC_BOUNDS
1002
{
1070
    19
1002
}
  0
LINE
  5
8CC
  8
2
 10
140.0005000000001
 20
67.999999999999844
 30
0.0
 11
124.0005000000001
 21
67.999999999999844
 31
0.0
1001
ACAD
1000
ASC_BOUNDS
1002
{
1070
    19
1005
0
1002
}
  0
ARC
  5
8CD
  8
0
 10
119.62036216149249
 20
69.179999999999993
 30
0.0
 40
3.6200000000000001
 50
90.0
 51
180.49999999999969
1001
ACAD
1000
ASC_BOUNDS
1002
{
1070
    19
1002
}
  0
LINE
  5
8CE
  8
2
 10
118.0005000000001
 20
59.999999999999893
 30
0.0
 11
118.5005000000001
 21
60.000000000000078
 31
0.0000000000000012
1001
ACAD
1000
ASC_BOUNDS
1002
{
1070
    19
1002
}
  0
ARC
  5
8CF
  8
2
 10
121.0005000000001
 20
64.202163876148333
 30
0.0000000000000841
 40
3.0
 50
90.000000000019526
 51
146.4426902380784
1001
ACAD
1000
ASC_BOUNDS
1002
{
1070
    19
1002
}
  0
LINE
  5
8D0
  8
2
 10
124.5005000000001
 20
63.934936353183701
 30
0.0
 11
125.0005000000001
 21
64.434936353183716
 31
0.0
1001
ACAD
1000
ASC_BOUNDS
1002
{
1070
    19
1002
}
  0
LINE
  5
8D1
  8
2
 10
143.2505000000001
 20
70.999999999999844
 30
0.0
 11
120.7505000000001
 21
70.999999999999844
 31
0.0
  0
ARC
  5
8D2
  8
0
 10
138.50955144124919
 20
271.09960993314178
 30
0.0
 40
198.356214582207
 50
271.36887570172769
 51
281.96607159016031
1001
ACAD
1000
ASC_BOUNDS
1002
{
1070
    19
1002
}
  0
LINE
  5
8D3
  8
0
 10
119.62036216149249
 20
72.799999999999997
 30
0.0
 11
143.24934526564411
 21
72.799999999999997
 31
0.0
  0
LINE
  5
8D4
  8
2
 10
126.5005000000001
 20
65.999999999999844
 30
0.0
 11
137.5005000000001
 21
65.999999999999844
 31
0.0
1001
ACAD
1000
ASC_BOUNDS
1002
{
1070
    19
1002
}
  0
LINE
  5
8D5
  8
2
 10
126.5005000000001
 20
65.999999999999844
 30
0.0
 11
126.5005000000001
 21
64.434936353183716
 31
0.0
1001
ACAD
1000
ASC_BOUNDS
1002
{
1070
    19
1002
}
  0
LINE
  5
8D6
  8
2
 10
137.5005000000001
 20
64.434936353183716
 30
0.0
 11
139.0005000000001
 21
64.434936353183716
 31
0.0
1001
ACAD
1000
ASC_BOUNDS
1002
{
1070
    19
1002
}
  0
LINE
  5
8D7
  8
2
 10
137.50049999999999
 20
65.999999999999844
 30
0.0
 11
137.5005000000001
 21
64.434936353183716
 31
0.0
1001
ACAD
1000
ASC_BOUNDS
1002
{
1070
    19
1002
}
  0
LINE
  5
8D8
  8
2
 10
139.5005000000001
 20
63.934936353183701
 30
0.0
 11
139.0005000000001
 21
64.434936353183716
 31
0.0
1001
ACAD
1000
ASC_BOUNDS
1002
{
1070
    19
1002
}
  0
ARC
  5
8D9
  8
3
 10
184.40683193150309
 20
116.1611154228205
 30
0.0
 40
39.397569904188778
 50
263.04359098077288
 51
271.45440975877068
  0
ARC
  5
8DA
  8
3
 10
186.829247181493
 20
73.046561338129791
 30
0.0
 40
3.5704210500799101
 50
41.593055915734617
 51
74.810249200238331
  0
ARC
  5
8DB
  8
3
 10
185.6150442485004
 20
68.574390453610093
 30
0.0
 40
8.2044906635873378
 50
74.810249200238331
 51
91.45440975877068
  0
LINE
  5
8DC
  8
2
 10
79.25
 20
59.300000000000061
 30
0.0
 11
79.25
 21
69.800000000000139
 31
0.0
1001
ACAD
1000
ASC_BOUNDS
1002
{
1070
    19
1002
}
  0
LINE
  5
8DD
  8
2
 10
76.75
 20
59.300000000000061
 30
0.0
 11
76.75
 21
69.800000000000139
 31
0.0
1001
ACAD
1000
ASC_BOUNDS
1002
{
1070
    19
1002
}
  0
LINE
  5
8DE
  8
1
 10
78.0
 20
47.300000000000118
 30
0.0
 11
78.0
 21
72.800000000000168
 31
0.0
  0
LINE
  5
8DF
  8
1
 10
66.0
 20
45.0
 30
0.0
 11
66.000000000000114
 21
89.999999999999844
 31
0.0
  0
LINE
  5
8E0
  8
2
 10
52.750000000000107
 20
59.300000000000061
 30
0.0
 11
52.750000000000107
 21
69.800000000000139
 31
0.0
1001
ACAD
1000
ASC_BOUNDS
1002
{
1070
    19
1002
}
  0
LINE
  5
8E1
  8
2
 10
55.250000000000107
 20
59.300000000000061
 30
0.0
 11
55.25
 21
69.800000000000082
 31
0.0
1001
ACAD
1000
ASC_BOUNDS
1002
{
1070
    19
1002
}
  0
LINE
  5
8E2
  8
1
 10
54.0
 20
47.300000000000033
 30
0.0
 11
54.0
 21
72.799999999999613
 31
0.0
  0
LINE
  5
8E3
  8
0
 10
50.0
 20
50.300000000000011
 30
0.0
 11
82.000000000000682
 21
50.300000000000153
 31
0.0
1001
ACAD
1000
ASC_BOUNDS
1002
{
1070
    19
1002
}
  0
LINE
  5
8E4
  8
2
 10
56.0
 20
50.300000000000118
 30
0.0
 11
56.0
 21
59.300000000000132
 31
0.0
1001
ACAD
1000
ASC_BOUNDS
1002
{
1070
    19
1002
}
  0
LINE
  5
8E5
  8
2
 10
52.0
 20
50.300000000000118
 30
0.0
 11
52.0
 21
59.300000000000132
 31
0.0
1001
ACAD
1000
ASC_BOUNDS
1002
{
1070
    19
1002
}
  0
LINE
  5
8E6
  8
2
 10
52.0
 20
59.300000000000132
 30
0.0
 11
56.0
 21
59.300000000000061
 31
0.0
1001
ACAD
1000
ASC_BOUNDS
1002
{
1070
    19
1002
}
  0
LINE
  5
8E7
  8
2
 10
80.0
 20
50.300000000000118
 30
0.0
 11
80.0
 21
59.300000000000132
 31
0.0
1001
ACAD
1000
ASC_BOUNDS
1002
{
1070
    19
1002
}
  0
LINE
  5
8E8
  8
2
 10
76.0
 20
50.300000000000118
 30
0.0
 11
76.0
 21
59.300000000000061
 31
0.0
1001
ACAD
1000
ASC_BOUNDS
1002
{
1070
    19
1002
}
  0
LINE
  5
8E9
  8
2
 10
76.0
 20
59.300000000000061
 30
0.0
 11
80.0
 21
59.300000000000132
 31
0.0
1001
ACAD
1000
ASC_BOUNDS
1002
{
1070
    19
1002
}
  0
ARC
  5
8EA
  8
0
 10
65.999989288835877
 20
20.67634967213332
 30
0.0
 40
53.323650327867611
 50
77.821714572635216
 51
102.1782854273648
  0
ARC
  5
8EB
  8
0
 10
66.0
 20
74.839635800259757
 30
0.0
 40
10.16036419974008
 50
10.19317734609397
 51
169.80682265390601
  0
ARC
  5
8EC
  8
3
 10
75.268979855754864
 20
74.666625610269563
 30
0.0
 40
3.028990004689005
 50
88.683164597488229
 51
109.5907416420319
  0
ARC
  5
8ED
  8
3
 10
66.000000000000114
 20
95.823051950432784
 30
0.0
 40
20.0775924007444
 50
245.72772637527979
 51
270.0
  0
LINE
  5
8EE
  8
0
 10
78.38013783850829
 20
72.800000000000026
 30
0.0
 11
53.619862161492392
 21
72.799999999999969
 31
0.0
1001
ACAD
1000
ASC_BOUNDS
1002
{
1070
    19
1005
0
1005
0
1002
}
  0
LINE
  5
8EF
  8
0
 10
56.0
 20
76.637690491130584
 30
0.0
 11
55.999999999999943
 21
73.053939331374607
 31
0.0
  0
ARC
  5
8F0
  8
0
 10
195.3805000000001
 20
77.310482812969738
 30
0.0
 40
3.6200000000000001
 50
288.05948757402132
 51
15.684176213752121
1001
ACAD
1000
ASC_BOUNDS
1002
{
1070
    19
1002
}
  0
ARC
  5
8F1
  8
0
 10
139.11667286556059
 20
249.8629438330926
 30
0.0
 40
185.1137190315826
 50
288.05948757402132
 51
288.05948757402132
  0
LINE
  5
8F2
  8
2
 10
52.750000000000107
 20
69.800000000000139
 30
0.0
 11
55.25
 21
69.800000000000139
 31
0.0
1001
ACAD
1000
ASC_BOUNDS
1002
{
1070
    19
1002
}
  0
ARC
  5
8F3
  8
3
 10
56.730820757420581
 20
74.663586635724954
 30
0.0
 40
3.0319200261843231
 50
70.424964496264181
 51
91.312324231275326
  0
LINE
  5
8F4
  8
3
 10
56.279650355755912
 20
77.548284475077466
 30
0.0
 11
56.188972757999579
 21
77.480988697561727
 31
0.0
  0
ARC
  5
8F5
  8
3
 10
56.704858395777308
 20
77.010572999239614
 30
0.0
 40
0.6855184232
 50
93.636158090918315
 51
128.33601676531109
  0
LINE
  5
8F6
  8
3
 10
58.409270842084076
 20
77.235675926324561
 30
0.0
 11
58.409270842084076
 21
73.456958590095255
 31
0.0
  0
LINE
  5
8F7
  8
3
 10
73.590729157916371
 20
77.235675926324561
 30
0.0
 11
73.590729157916485
 21
73.456955509207987
 31
0.0
  0
ARC
  5
8F8
  8
3
 10
66.000000000000341
 20
95.823051950432784
 30
0.0
 40
20.0775924007444
 50
270.0
 51
294.27227362472013
  0
LINE
  5
8F9
  8
0
 10
76.0
 20
76.637690491131664
 30
0.0
 11
76.0
 21
73.053935241394697
 31
0.0
  0
LINE
  5
8FA
  8
2
 10
76.75
 20
69.800000000000139
 30
0.0
 11
79.25
 21
69.800000000000196
 31
0.0
1001
ACAD
1000
ASC_BOUNDS
1002
{
1070
    19
1002
}
  0
LINE
  5
8FB
  8
3
 10
75.720321577092022
 20
77.548388725350549
 30
0.0
 11
75.810999174848916
 21
77.481092947834412
 31
0.0
  0
ARC
  5
8FC
  8
3
 10
75.295113537070847
 20
77.010677249512696
 30
0.0
 40
0.6855184232
 50
51.663983234688857
 51
86.363841909081671
  0
ARC
  5
8FD
  8
0
 10
148.61307186289761
 20
154.9999999999998
 30
0.0
 40
10.0
 50
229.86829364964231
 51
270.0
  0
ARC
  5
8FE
  8
0
 10
148.61307186289781
 20
114.9999999999998
 30
0.0
 40
10.0
 50
90.0
 51
130.1317063503576
  0
CIRCLE
  5
8FF
  8
2
 10
132.0005000000001
 20
122.9999999999998
 30
0.0
 40
2.0
  0
CIRCLE
  5
900
  8
2
 10
132.0005000000001
 20
146.9999999999998
 30
0.0
 40
2.0
  0
LINE
  5
901
  8
0
 10
188.9965829099005
 20
144.9999999999998
 30
0.0
 11
148.61307186289761
 21
144.9999999999998
 31
0.0
  0
LINE
  5
902
  8
0
 10
188.9965829099005
 20
124.9999999999998
 30
0.0
 11
148.61307186289781
 21
124.9999999999998
 31
0.0
  0
CIRCLE
  5
903
  8
0
 10
189.0005000000001
 20
134.9999999999998
 30
0.0
 40
10.0
  0
ARC
  5
905
  8
0
 10
132.0005000000001
 20
134.9999999999998
 30
0.0
 40
16.0
 50
50.024938116731413
 51
309.97506188322581
  0
LINE
  5
906
  8
0
 10
116.0005000000001
 20
69.211590058492121
 30
0.0
 11
116.0005000000001
 21
50.299999999999862
 31
0.0
  0
LINE
  5
907
  8
0
 10
148.0005000000001
 20
63.838897452809618
 30
0.0
 11
148.0005000000001
 21
50.299999999999777
 31
0.0
  0
CIRCLE
  5
908
  8
0
 10
132.0005000000001
 20
134.9999999999998
 30
0.0
 40
11.25
  0
LINE
  5
909
  8
2
 10
143.2505000000001
 20
70.999999999999844
 30
0.0
 11
143.25049999999999
 21
72.800060588858557
 31
0.0
  0
LINE
  5
90A
  8
2
 10
120.7505000000001
 20
70.999999999999844
 30
0.0
 11
120.7505
 21
72.799999999999997
 31
0.0
  0
ARC
  5
90B
  8
0
 10
150.0005000000001
 20
63.838897452809618
 30
0.0
 40
2.0
 50
93.1746589893703
 51
180.0
1001
ACAD
1000
ASC_BOUNDS
1002
{
1070
    19
1002
}
  0
LINE
  5
90C
  8
2
 10
135.0005000000001
 20
49.999999999999851
 30
0.0
 11
135.00049999999999
 21
65.999999999999844
 31
0.0
  0
LINE
  5
90D
  8
2
 10
129.0005000000001
 20
49.999999999999851
 30
0.0
 11
129.00049999999999
 21
65.999999999999844
 31
0.0
  0
LINE
  5
90E
  8
2
 10
140.00049999999999
 20
67.999999999999844
 30
0.0
 11
140.00049999999999
 21
70.999999999999844
 31
0.0
  0
LINE
  5
90F
  8
2
 10
124.0005000000001
 20
67.999999999999844
 30
0.0
 11
124.0005000000001
 21
70.999999999999844
 31
0.0
  0
LINE
  5
910
  8
2
 10
137.00049999999999
 20
65.999999999999844
 30
0.0
 11
137.00049999999999
 21
67.999999999999844
 31
0.0
  0
LINE
  5
911
  8
2
 10
127.0005000000001
 20
65.999999999999844
 30
0.0
 11
127.0005000000001
 21
67.999999999999844
 31
0.0
  0
LINE
  5
912
  8
2
 10
54.750000000000171
 20
71.000000000000014
 30
0.0
 11
54.750000000000121
 21
72.800000000000139
 31
0.0
  0
LINE
  5
913
  8
2
 10
69.000000000000227
 20
50.0
 30
0.0
 11
69.000000000000114
 21
66.000000000000014
 31
0.0
  0
LINE
  5
914
  8
2
 10
63.000000000000171
 20
50.0
 30
0.0
 11
63.000000000000107
 21
66.000000000000014
 31
0.0
  0
LINE
  5
915
  8
2
 10
58.500000000000121
 20
50.299999999999983
 30
0.0
 11
58.500000000000171
 21
63.934936353183872
 31
0.0
1001
ACAD
1000
ASC_BOUNDS
1002
{
1070
    19
1002
}
  0
LINE
  5
916
  8
2
 10
73.500000000000114
 20
50.299999999999933
 30
0.0
 11
73.500000000000171
 21
63.934936353183872
 31
0.0
1001
ACAD
1000
ASC_BOUNDS
1002
{
1070
    19
1002
}
  0
LINE
  5
917
  8
0
 10
73.500000000000114
 20
50.0
 30
0.0
 11
58.500000000000121
 21
50.0
 31
0.0
  0
LINE
  5
918
  8
0
 10
58.500000000000121
 20
50.0
 30
0.0
 11
58.500000000000121
 21
50.299999999999947
 31
0.0
  0
LINE
  5
919
  8
0
 10
73.500000000000114
 20
50.0
 30
0.0
 11
73.500000000000114
 21
50.299999999999898
 31
0.0
  0
LINE
  5
91A
  8
2
 10
74.000000000000171
 20
68.000000000000014
 30
0.0
 11
58.000000000000171
 21
67.999999999999986
 31
0.0
1001
ACAD
1000
ASC_BOUNDS
1002
{
1070
    19
1005
0
1002
}
  0
LINE
  5
91B
  8
2
 10
60.50000000000022
 20
66.000000000000014
 30
0.0
 11
71.500000000000171
 21
66.000000000000014
 31
0.0
1001
ACAD
1000
ASC_BOUNDS
1002
{
1070
    19
1002
}
  0
LINE
  5
91C
  8
2
 10
58.500000000000171
 20
63.934936353183872
 30
0.0
 11
59.000000000000171
 21
64.434936353183858
 31
0.0
1001
ACAD
1000
ASC_BOUNDS
1002
{
1070
    19
1002
}
  0
LINE
  5
91D
  8
2
 10
58.000000000000171
 20
67.999999999999986
 30
0.0
 11
58.000000000000171
 21
71.000000000000014
 31
0.0
  0
LINE
  5
91E
  8
2
 10
61.000000000000171
 20
66.000000000000014
 30
0.0
 11
61.000000000000171
 21
67.999999999999986
 31
0.0
  0
LINE
  5
91F
  8
2
 10
60.500000000000171
 20
66.000000000000014
 30
0.0
 11
60.500000000000171
 21
64.434936353183858
 31
0.0
1001
ACAD
1000
ASC_BOUNDS
1002
{
1070
    19
1002
}
  0
LINE
  5
920
  8
2
 10
60.500000000000171
 20
64.434936353183858
 30
0.0
 11
59.000000000000171
 21
64.434936353183858
 31
0.0
1001
ACAD
1000
ASC_BOUNDS
1002
{
1070
    19
1002
}
  0
LINE
  5
921
  8
2
 10
73.500000000000171
 20
63.934936353183872
 30
0.0
 11
73.000000000000171
 21
64.434936353183858
 31
0.0
1001
ACAD
1000
ASC_BOUNDS
1002
{
1070
    19
1002
}
  0
LINE
  5
922
  8
2
 10
71.000000000000114
 20
65.999999999999986
 30
0.0
 11
71.000000000000057
 21
68.000000000000014
 31
0.0
  0
LINE
  5
923
  8
2
 10
71.500000000000114
 20
66.000000000000014
 30
0.0
 11
71.500000000000171
 21
64.434936353183858
 31
0.0
1001
ACAD
1000
ASC_BOUNDS
1002
{
1070
    19
1002
}
  0
LINE
  5
924
  8
2
 10
71.500000000000171
 20
64.434936353183858
 30
0.0
 11
73.000000000000171
 21
64.434936353183858
 31
0.0
1001
ACAD
1000
ASC_BOUNDS
1002
{
1070
    19
1002
}
  0
LINE
  5
925
  8
2
 10
74.000000000000057
 20
68.000000000000014
 30
0.0
 11
74.000000000000114
 21
71.000000000000014
 31
0.0
  0
LINE
  5
926
  8
2
 10
77.250000000000213
 20
71.000000000000014
 30
0.0
 11
54.75000000000022
 21
71.000000000000014
 31
0.0
  0
LINE
  5
927
  8
2
 10
77.250000000000171
 20
71.000000000000014
 30
0.0
 11
77.250000000000057
 21
72.800060588858699
 31
0.0
  0
ARC
  5
928
  8
0
 10
53.619862161492392
 20
69.180000000000135
 30
0.0
 40
3.6200000000000001
 50
90.0
 51
180.49999999999969
1001
ACAD
1000
ASC_BOUNDS
1002
{
1070
    19
1002
}
  0
LINE
  5
929
  8
0
 10
50.0
 20
69.211590058492291
 30
0.0
 11
50.0
 21
50.300000000000011
 31
0.0
  0
ARC
  5
92A
  8
0
 10
78.38013783850829
 20
69.180000000000135
 30
0.0
 40
3.6200000000000001
 50
359.50000000000028
 51
90.0
1001
ACAD
1000
ASC_BOUNDS
1002
{
1070
    19
1002
}
  0
LINE
  5
92B
  8
0
 10
82.000000000000682
 20
69.211590058492291
 30
0.0
 11
82.000000000000682
 21
50.300000000000011
 31
0.0
  0
LINE
  5
92C
  8
1
 10
132.0005000000001
 20
155.9999999999998
 30
0.0
 11
132.0005000000001
 21
113.9999999999998
 31
0.0
  0
LINE
  5
92D
  8
1
 10
204.0005000000001
 20
134.9999999999998
 30
0.0
 11
111.0005000000001
 21
134.9999999999998
 31
0.0
  0
ARC
  5
92F
  8
2
 10
132.0005000000001
 20
134.9999999999998
 30
0.0
 40
14.0
 50
297.5000000000008
 51
62.499999999999282
  0
ARC
  5
930
  8
2
 10
137.5414833588205
 20
145.64412999813851
 30
0.0
 40
2.0
 50
62.499999999999282
 51
242.49999999999929
  0
ARC
  5
931
  8
2
 10
137.5414833588205
 20
124.35587000186111
 30
0.0
 40
1.999999999999998
 50
117.5000000000007
 51
297.5000000000008
  0
ARC
  5
932
  8
2
 10
132.0005000000001
 20
134.9999999999998
 30
0.0
 40
14.0
 50
117.50000085377231
 51
242.49999999999929
  0
ARC
  5
933
  8
2
 10
126.4595166411796
 20
124.35587000186111
 30
0.0
 40
2.0
 50
242.49999999999929
 51
62.499996921675539
  0
ARC
  5
934
  8
2
 10
126.4595166411796
 20
145.64412999813851
 30
0.0
 40
2.0000000000000031
 50
297.5000000000008
 51
117.5000059764164
  0
ARC
  5
935
  8
2
 10
132.0005000000001
 20
134.9999999999998
 30
0.0
 40
9.9999999999999964
 50
117.5000000000007
 51
242.50000061566479
  0
ARC
  5
936
  8
2
 10
132.0005000000001
 20
134.9999999999998
 30
0.0
 40
9.9999999999999982
 50
297.5000000000008
 51
62.499999999999282
  0
LINE
  5
937
  8
2
 10
118.5005000000001
 20
60.000000000000078
 30
0.0000000000000012
 11
118.5005000000001
 21
65.860476271326021
 31
0.0000000000000012
1001
ACAD
1000
ASC_BOUNDS
1002
{
1070
    19
1002
}
  0
ARC
  5
938
  8
2
 10
143.0005000000003
 20
66.202163876148276
 30
-0.0000000000000741
 40
1.0
 50
89.999999999977206
 51
179.9999999999992
1001
ACAD
1000
ASC_BOUNDS
1002
{
1070
    19
1002
}
  0
LINE
  5
939
  8
2
 10
142.00049999999999
 20
50.299999999999699
 30
0.0
 11
142.0005000000003
 21
66.202163876148305
 31
0.0
1001
ACAD
1000
ASC_BOUNDS
1002
{
1070
    19
1002
}
  0
LINE
  5
93A
  8
2
 10
146.00049999999999
 20
50.299999999999642
 30
0.0
 11
146.0005000000001
 21
59.99999999999968
 31
0.0
1001
ACAD
1000
ASC_BOUNDS
1002
{
1070
    19
1002
}
  0
LINE
  5
93B
  8
2
 10
146.0005000000001
 20
59.999999999999659
 30
0.0
 11
145.5005000000001
 21
59.999999999999851
 31
0.0000000000000012
1001
ACAD
1000
ASC_BOUNDS
1002
{
1070
    19
1002
}
  0
ARC
  5
93C
  8
2
 10
143.00050000000019
 20
64.202163876148134
 30
0.0000000000000841
 40
3.0
 50
33.557309761921587
 51
89.99999999998046
1001
ACAD
1000
ASC_BOUNDS
1002
{
1070
    19
1002
}
  0
LINE
  5
93D
  8
2
 10
145.5005000000001
 20
59.999999999999851
 30
0.0000000000000012
 11
145.50050000000019
 21
65.860476271325822
 31
0.0000000000000012
1001
ACAD
1000
ASC_BOUNDS
1002
{
1070
    19
1002
}
  0
ENDSEC
  0
EOF
