  0
SECTION
  2
HEADER
  9
$ACADVER
  1
AC1009
  9
$INSBASE
 10
0.0
 20
0.0
 30
0.0
  9
$EXTMIN
 10
0.0
 20
-2.960436562073669
 30
0.0
  9
$EXTMAX
 10
268.22348699999998
 20
212.79776899999999
 30
0.0
  9
$LIMMIN
 10
0.0
 20
0.0
  9
$LIMMAX
 10
390.0
 20
270.0
  9
$ORTHOMODE
 70
     1
  9
$REGENMODE
 70
     1
  9
$FILLMODE
 70
     1
  9
$QTEXTMODE
 70
     0
  9
$MIRRTEXT
 70
     0
  9
$DRAGMODE
 70
     2
  9
$LTSCALE
 40
10.0
  9
$OSMODE
 70
  3071
  9
$ATTMODE
 70
     1
  9
$TEXTSIZE
 40
0.2
  9
$TRACEWID
 40
0.05
  9
$TEXTSTYLE
  7
STANDARD
  9
$CLAYER
  8
0
  9
$CELTYPE
  6
BYLAYER
  9
$CECOLOR
 62
   256
  9
$DIMSCALE
 40
1.0
  9
$DIMASZ
 40
3.0
  9
$DIMEXO
 40
1.0
  9
$DIMDLI
 40
6.0
  9
$DIMRND
 40
0.0
  9
$DIMDLE
 40
0.0
  9
$DIMEXE
 40
1.0
  9
$DIMTP
 40
495.0
  9
$DIMTM
 40
0.0
  9
$DIMTXT
 40
3.0
  9
$DIMCEN
 40
0.0
  9
$DIMTSZ
 40
0.0
  9
$DIMTOL
 70
     0
  9
$DIMLIM
 70
     0
  9
$DIMTIH
 70
     0
  9
$DIMTOH
 70
     0
  9
$DIMSE1
 70
     0
  9
$DIMSE2
 70
     0
  9
$DIMTAD
 70
     1
  9
$DIMZIN
 70
     0
  9
$DIMBLK
  1

  9
$DIMASO
 70
     0
  9
$DIMSHO
 70
     0
  9
$DIMPOST
  1

  9
$DIMAPOST
  1

  9
$DIMALT
 70
     0
  9
$DIMALTD
 70
     2
  9
$DIMALTF
 40
25.399999999999999
  9
$DIMLFAC
 40
1.0
  9
$DIMTOFL
 70
     1
  9
$DIMTVP
 40
0.0
  9
$DIMTIX
 70
     1
  9
$DIMSOXD
 70
     0
  9
$DIMSAH
 70
     0
  9
$DIMBLK1
  1

  9
$DIMBLK2
  1

  9
$DIMSTYLE
  2
STANDARD
  9
$DIMCLRD
 70
     0
  9
$DIMCLRE
 70
     0
  9
$DIMCLRT
 70
     0
  9
$DIMTFAC
 40
1.0
  9
$DIMGAP
 40
0.09
  9
$LUNITS
 70
     2
  9
$LUPREC
 70
     2
  9
$SKETCHINC
 40
0.1
  9
$FILLETRAD
 40
0.0
  9
$AUNITS
 70
     0
  9
$AUPREC
 70
     2
  9
$MENU
  1
E:\r13\win\SUPPORT\ACAD
  9
$ELEVATION
 40
0.0
  9
$PELEVATION
 40
0.0
  9
$THICKNESS
 40
0.0
  9
$LIMCHECK
 70
     0
  9
$BLIPMODE
 70
     0
  9
$CHAMFERA
 40
0.0
  9
$CHAMFERB
 40
0.0
  9
$SKPOLY
 70
     0
  9
$TDCREATE
 40
2449840.6555787041
  9
$TDUPDATE
 40
2456598.643119317
  9
$TDINDWG
 40
0.0001317593
  9
$TDUSRTIMER
 40
0.0001317593
  9
$USRTIMER
 70
     1
  9
$ANGBASE
 50
0.0
  9
$ANGDIR
 70
     0
  9
$PDMODE
 70
     0
  9
$PDSIZE
 40
0.0
  9
$PLINEWID
 40
0.0
  9
$COORDS
 70
     1
  9
$SPLFRAME
 70
     0
  9
$SPLINETYPE
 70
     6
  9
$SPLINESEGS
 70
     8
  9
$ATTDIA
 70
     0
  9
$ATTREQ
 70
     1
  9
$HANDLING
 70
     1
  9
$HANDSEED
  5
25E
  9
$SURFTAB1
 70
     6
  9
$SURFTAB2
 70
     6
  9
$SURFTYPE
 70
     6
  9
$SURFU
 70
     6
  9
$SURFV
 70
     6
  9
$UCSNAME
  2

  9
$UCSORG
 10
0.0
 20
0.0
 30
0.0
  9
$UCSXDIR
 10
1.0
 20
0.0
 30
0.0
  9
$UCSYDIR
 10
0.0
 20
1.0
 30
0.0
  9
$PUCSNAME
  2

  9
$PUCSORG
 10
0.0
 20
0.0
 30
0.0
  9
$PUCSXDIR
 10
1.0
 20
0.0
 30
0.0
  9
$PUCSYDIR
 10
0.0
 20
1.0
 30
0.0
  9
$USERI1
 70
     3
  9
$USERI2
 70
     1
  9
$USERI3
 70
     0
  9
$USERI4
 70
     1
  9
$USERI5
 70
     0
  9
$USERR1
 40
1.0
  9
$USERR2
 40
3.0
  9
$USERR3
 40
3.0
  9
$USERR4
 40
3.0
  9
$USERR5
 40
10.0
  9
$WORLDVIEW
 70
     1
  9
$SHADEDGE
 70
     3
  9
$SHADEDIF
 70
    70
  9
$TILEMODE
 70
     1
  9
$MAXACTVP
 70
    16
  9
$PLIMCHECK
 70
     0
  9
$PEXTMIN
 10
1.0000000000000000E+020
 20
1.0000000000000000E+020
 30
1.0000000000000000E+020
  9
$PEXTMAX
 10
-1.0000000000000000E+020
 20
-1.0000000000000000E+020
 30
-1.0000000000000000E+020
  9
$PLIMMIN
 10
0.0
 20
0.0
  9
$PLIMMAX
 10
12.0
 20
9.0
  9
$UNITMODE
 70
     0
  9
$VISRETAIN
 70
     0
  9
$PLINEGEN
 70
     0
  9
$PSLTSCALE
 70
     0
  0
ENDSEC
  0
SECTION
  2
TABLES
  0
TABLE
  2
VPORT
 70
     1
  0
VPORT
  2
*ACTIVE
 70
     0
 10
0.0
 20
0.0
 11
1.0
 21
1.0
 12
202.55787946771341
 22
133.5127261426681
 13
0.0
 23
0.0
 14
10.0
 24
10.0
 15
10.0
 25
10.0
 16
0.0
 26
0.0
 36
1.0
 17
0.0
 27
0.0
 37
0.0
 40
275.42274993631997
 41
1.831871345029239
 42
50.0
 43
0.0
 44
0.0
 50
0.0
 51
0.0
 71
     0
 72
   100
 73
     1
 74
     0
 75
     0
 76
     0
 77
     0
 78
     0
  0
ENDTAB
  0
TABLE
  2
LTYPE
 70
     3
  0
LTYPE
  2
CONTINUOUS
 70
     0
  3
Solid Line
 72
    65
 73
     0
 40
0.0
  0
LTYPE
  2
CENTER
 70
     0
  3
____ _ ____ _ ____ _ ____ _ ____ _ ____ _ ____
 72
    65
 73
     4
 40
2.0
 49
1.25
 49
-0.25
 49
0.25
 49
-0.25
  0
LTYPE
  2
PHANTOM2
 70
     0
  3
___ _ _ ___ _ _ ___ _ _ ___ _ _
 72
    65
 73
     6
 40
1.25
 49
0.625
 49
-0.125
 49
0.125
 49
-0.125
 49
0.125
 49
-0.125
  0
ENDTAB
  0
TABLE
  2
LAYER
 70
     4
  0
LAYER
  2
0
 70
     0
 62
     7
  6
CONTINUOUS
  0
LAYER
  2
1
 70
     0
 62
     1
  6
CENTER
  0
LAYER
  2
ITEM_HILFE
 70
     0
 62
     3
  6
CONTINUOUS
  0
LAYER
  2
3
 70
     0
 62
     3
  6
CONTINUOUS
  0
ENDTAB
  0
TABLE
  2
STYLE
 70
     2
  0
STYLE
  2
STANDARD
 70
     0
 40
0.0
 41
1.0
 50
0.0
 71
     0
 42
0.2
  3
TXT
  4
BIGFONT
  0
STYLE
  2
STANDARD1
 70
     0
 40
0.0
 41
1.0
 50
0.0
 71
     0
 42
3.0
  3
txt
  4

  0
ENDTAB
  0
TABLE
  2
VIEW
 70
     0
  0
ENDTAB
  0
TABLE
  2
UCS
 70
     0
  0
ENDTAB
  0
TABLE
  2
APPID
 70
     3
  0
APPID
  2
ACAD
 70
     0
  0
APPID
  2
ACAD_MLEADERVER
 70
     0
  0
APPID
  2
ACAD_NAV_VCDISPLAY
 70
     0
  0
ENDTAB
  0
TABLE
  2
DIMSTYLE
 70
     1
  0
DIMSTYLE
  2
STANDARD
 70
     0
  3

  4

  5

  6

  7

 40
1.0
 41
0.18
 42
0.0625
 43
0.38
 44
0.18
 45
0.0
 46
0.0
 47
0.0
 48
0.0
140
0.18
141
0.09
142
0.0
143
25.399999999999999
144
1.0
145
0.0
146
1.0
147
0.09
 71
     0
 72
     0
 73
     1
 74
     1
 75
     0
 76
     0
 77
     0
 78
     0
170
     0
171
     2
172
     0
173
     0
174
     0
175
     0
176
     0
177
     0
178
     0
  0
ENDTAB
  0
ENDSEC
  0
SECTION
  2
BLOCKS
  0
BLOCK
  8
0
  2
$MODEL_SPACE
 70
     0
 10
0.0
 20
0.0
 30
0.0
  3
$MODEL_SPACE
  1

  0
ENDBLK
  5
A6
  8
0
  0
BLOCK
 67
     1
  8
0
  2
$PAPER_SPACE
 70
     0
 10
0.0
 20
0.0
 30
0.0
  3
$PAPER_SPACE
  1

  0
ENDBLK
  5
A4
 67
     1
  8
0
  0
BLOCK
  8
0
  2
ACAD
 70
     0
 10
0.0
 20
0.0
 30
0.0
  3
ACAD
  1

  0
ENDBLK
  5
2D
  8
0
  0
BLOCK
  8
0
  2
37346B
 70
     0
 10
0.0
 20
0.0
 30
0.0
  3
37346B
  1

  0
ENDBLK
  5
2F
  8
0
  0
BLOCK
  8
0
  2
37390B
 70
     0
 10
0.0
 20
0.0
 30
0.0
  3
37390B
  1

  0
ENDBLK
  5
31
  8
0
  0
ENDSEC
  0
SECTION
  2
ENTITIES
  0
INSERT
  5
3A
  8
ITEM_HILFE
  2
ACAD
 10
69.305751999999984
 20
99.686901000000006
 30
0.0
  0
INSERT
  5
3B
  8
0
  2
ACAD
 10
265.86694799999998
 20
288.46792099999999
 30
0.0
  0
INSERT
  5
3C
  8
0
  2
37346B
 10
64.704256999999984
 20
-18.001024999999998
 30
0.0
  0
INSERT
  5
3D
  8
0
  2
37390B
 10
64.704256999999984
 20
-18.001024999999998
 30
0.0
  0
INSERT
  5
3E
  8
0
  2
37346B
 10
64.704256999999984
 20
-18.001024999999998
 30
0.0
  0
INSERT
  5
3F
  8
0
  2
37390B
 10
64.704256999999984
 20
-18.001024999999998
 30
0.0
  0
INSERT
  5
40
  8
0
  2
37346B
 10
83.488872000000001
 20
389.67589800000002
 30
0.0
  0
INSERT
  5
41
  8
0
  2
37390B
 10
83.488872000000001
 20
389.67589800000002
 30
0.0
  0
INSERT
  5
42
  8
0
  2
37346B
 10
83.488872000000001
 20
389.67589800000002
 30
0.0
  0
INSERT
  5
43
  8
0
  2
37390B
 10
83.488872000000001
 20
389.67589800000002
 30
0.0
  0
INSERT
  5
44
  8
0
  2
37390B
 10
578.10859600000003
 20
300.16179099999999
 30
0.0
  0
LINE
  5
45
  8
0
 10
205.198241
 20
81.232864000000006
 30
0.0
 11
125.198241
 21
81.232864000000006
 31
0.0
  0
LINE
  5
46
  8
0
 10
205.198241
 20
97.232864000000006
 30
0.0
 11
205.198241
 21
81.232864000000006
 31
0.0
  0
LINE
  5
47
  8
0
 10
125.198241
 20
97.232864000000006
 30
0.0
 11
205.198241
 21
97.232864000000006
 31
0.0
  0
LINE
  5
48
  8
0
 10
125.198241
 20
81.232864000000006
 30
0.0
 11
125.198241
 21
97.232864000000006
 31
0.0
  0
LINE
  5
49
  8
0
 10
268.22348699999998
 20
129.79776899999999
 30
0.0
 11
252.22348700000001
 21
129.79776899999999
 31
0.0
  0
LINE
  5
4A
  8
0
 10
268.22348699999998
 20
209.79776899999999
 30
0.0
 11
268.22348699999998
 21
129.79776899999999
 31
0.0
  0
LINE
  5
4B
  8
0
 10
252.22348700000001
 20
209.79776899999999
 30
0.0
 11
268.22348699999998
 21
209.79776899999999
 31
0.0
  0
LINE
  5
4C
  8
0
 10
252.22348700000001
 20
129.79776899999999
 30
0.0
 11
252.22348700000001
 21
209.79776899999999
 31
0.0
  0
CIRCLE
  5
4D
  8
0
 10
185.198241
 20
149.79776899999999
 30
0.0
 40
7.5
  0
CIRCLE
  5
4E
  8
0
 10
145.198241
 20
149.79776899999999
 30
0.0
 40
7.5
  0
LINE
  5
4F
  8
0
 10
126.198241
 20
129.79776899999999
 30
0.0
 11
125.198241
 21
130.79776899999999
 31
0.0
  0
LINE
  5
50
  8
0
 10
205.198241
 20
130.79776899999999
 30
0.0
 11
204.198241
 21
129.79776899999999
 31
0.0
  0
LINE
  5
51
  8
0
 10
125.198241
 20
130.79776899999999
 30
0.0
 11
125.198241
 21
208.79776899999999
 31
0.0
  0
LINE
  5
52
  8
0
 10
204.198241
 20
129.79776899999999
 30
0.0
 11
126.198241
 21
129.79776899999999
 31
0.0
  0
LINE
  5
53
  8
0
 10
205.198241
 20
208.79776899999999
 30
0.0
 11
205.198241
 21
130.79776899999999
 31
0.0
  0
LINE
  5
54
  8
1
 10
145.198241
 20
160.29776899999999
 30
0.0
 11
145.198241
 21
139.29776899999999
 31
0.0
  0
LINE
  5
55
  8
1
 10
155.698241
 20
149.79776899999999
 30
0.0
 11
134.698241
 21
149.79776899999999
 31
0.0
  0
LINE
  5
56
  8
1
 10
185.198241
 20
160.29776899999999
 30
0.0
 11
185.198241
 21
139.29776899999999
 31
0.0
  0
LINE
  5
57
  8
1
 10
195.698241
 20
149.79776899999999
 30
0.0
 11
174.698241
 21
149.79776899999999
 31
0.0
  0
LINE
  5
58
  8
1
 10
165.198241
 20
212.79776899999999
 30
0.0
 11
165.198241
 21
126.797769
 31
0.0
  0
LINE
  5
59
  8
1
 10
208.198241
 20
169.79776899999999
 30
0.0
 11
122.198241
 21
169.79776899999999
 31
0.0
  0
LINE
  5
63
  8
1
 10
195.698241
 20
189.79776899999999
 30
0.0
 11
174.698241
 21
189.79776899999999
 31
0.0
  0
LINE
  5
64
  8
1
 10
185.198241
 20
179.29776899999999
 30
0.0
 11
185.198241
 21
200.29776899999999
 31
0.0
  0
LINE
  5
65
  8
1
 10
155.698241
 20
189.79776899999999
 30
0.0
 11
134.698241
 21
189.79776899999999
 31
0.0
  0
LINE
  5
66
  8
1
 10
145.198241
 20
179.29776899999999
 30
0.0
 11
145.198241
 21
200.29776899999999
 31
0.0
  0
LINE
  5
67
  8
0
 10
204.198241
 20
209.79776899999999
 30
0.0
 11
126.198241
 21
209.79776899999999
 31
0.0
  0
LINE
  5
68
  8
0
 10
205.198241
 20
208.79776899999999
 30
0.0
 11
204.198241
 21
209.79776899999999
 31
0.0
  0
LINE
  5
69
  8
0
 10
126.198241
 20
209.79776899999999
 30
0.0
 11
125.198241
 21
208.79776899999999
 31
0.0
  0
CIRCLE
  5
6A
  8
0
 10
145.198241
 20
189.79776899999999
 30
0.0
 40
7.5
  0
CIRCLE
  5
6B
  8
0
 10
185.198241
 20
189.79776899999999
 30
0.0
 40
7.5
  0
CIRCLE
  5
6C
  8
3
 10
165.198241
 20
169.79776899999999
 30
0.0
 40
10.0
  0
CIRCLE
  5
6D
  8
0
 10
165.198241
 20
169.79776899999999
 30
0.0
 40
7.5
  0
CIRCLE
  5
6E
  8
0
 10
185.198241
 20
149.79776899999999
 30
0.0
 40
4.5
  0
CIRCLE
  5
6F
  8
0
 10
145.198241
 20
149.79776899999999
 30
0.0
 40
4.5
  0
CIRCLE
  5
70
  8
0
 10
145.198241
 20
189.79776899999999
 30
0.0
 40
4.5
  0
CIRCLE
  5
71
  8
0
 10
185.198241
 20
189.79776899999999
 30
0.0
 40
4.5
  0
TEXT
  5
1C7
  8
0
 62
     3
 10
0.0
 20
0.0
 30
0.0
 40
10.0
  1
ECN8080X16-M20
  7
STANDARD1
  0
ENDSEC
  0
EOF
