  0
SECTION
  2
HEADER
  9
$ACADVER
  1
AC1009
  9
$INSBASE
 10
0.0
 20
0.0
 30
0.0
  9
$EXTMIN
 10
0.0
 20
-2.960436562073669
 30
0.0
  9
$EXTMAX
 10
315.752498
 20
173.58122299999999
 30
0.0
  9
$LIMMIN
 10
0.0
 20
0.0
  9
$LIMMAX
 10
375.0
 20
270.0
  9
$ORTHOMODE
 70
     1
  9
$REGENMODE
 70
     1
  9
$FILLMODE
 70
     1
  9
$QTEXTMODE
 70
     0
  9
$MIRRTEXT
 70
     0
  9
$DRAGMODE
 70
     2
  9
$LTSCALE
 40
10.0
  9
$OSMODE
 70
  3071
  9
$ATTMODE
 70
     1
  9
$TEXTSIZE
 40
0.2
  9
$TRACEWID
 40
0.05
  9
$TEXTSTYLE
  7
STANDARD
  9
$CLAYER
  8
0
  9
$CELTYPE
  6
BYLAYER
  9
$CECOLOR
 62
   256
  9
$DIMSCALE
 40
0.5
  9
$DIMASZ
 40
3.0
  9
$DIMEXO
 40
1.0
  9
$DIMDLI
 40
6.0
  9
$DIMRND
 40
0.0
  9
$DIMDLE
 40
0.0
  9
$DIMEXE
 40
1.0
  9
$DIMTP
 40
495.0
  9
$DIMTM
 40
0.0
  9
$DIMTXT
 40
3.0
  9
$DIMCEN
 40
0.0
  9
$DIMTSZ
 40
0.0
  9
$DIMTOL
 70
     0
  9
$DIMLIM
 70
     0
  9
$DIMTIH
 70
     0
  9
$DIMTOH
 70
     0
  9
$DIMSE1
 70
     0
  9
$DIMSE2
 70
     0
  9
$DIMTAD
 70
     1
  9
$DIMZIN
 70
     0
  9
$DIMBLK
  1

  9
$DIMASO
 70
     0
  9
$DIMSHO
 70
     0
  9
$DIMPOST
  1

  9
$DIMAPOST
  1

  9
$DIMALT
 70
     0
  9
$DIMALTD
 70
     2
  9
$DIMALTF
 40
25.399999999999999
  9
$DIMLFAC
 40
1.0
  9
$DIMTOFL
 70
     1
  9
$DIMTVP
 40
0.0
  9
$DIMTIX
 70
     1
  9
$DIMSOXD
 70
     0
  9
$DIMSAH
 70
     0
  9
$DIMBLK1
  1

  9
$DIMBLK2
  1

  9
$DIMSTYLE
  2
STANDARD
  9
$DIMCLRD
 70
     0
  9
$DIMCLRE
 70
     0
  9
$DIMCLRT
 70
     0
  9
$DIMTFAC
 40
1.0
  9
$DIMGAP
 40
0.09
  9
$LUNITS
 70
     2
  9
$LUPREC
 70
     2
  9
$SKETCHINC
 40
0.1
  9
$FILLETRAD
 40
0.3
  9
$AUNITS
 70
     0
  9
$AUPREC
 70
     2
  9
$MENU
  1
E:\r13\win\SUPPORT\ACAD
  9
$ELEVATION
 40
0.0
  9
$PELEVATION
 40
0.0
  9
$THICKNESS
 40
0.0
  9
$LIMCHECK
 70
     0
  9
$BLIPMODE
 70
     0
  9
$CHAMFERA
 40
0.0
  9
$CHAMFERB
 40
0.0
  9
$SKPOLY
 70
     0
  9
$TDCREATE
 40
2449840.6551157408
  9
$TDUPDATE
 40
2456598.6431972459
  9
$TDINDWG
 40
0.0001193634
  9
$TDUSRTIMER
 40
0.0001193634
  9
$USRTIMER
 70
     1
  9
$ANGBASE
 50
0.0
  9
$ANGDIR
 70
     0
  9
$PDMODE
 70
     0
  9
$PDSIZE
 40
0.0
  9
$PLINEWID
 40
0.0
  9
$COORDS
 70
     1
  9
$SPLFRAME
 70
     0
  9
$SPLINETYPE
 70
     6
  9
$SPLINESEGS
 70
     8
  9
$ATTDIA
 70
     0
  9
$ATTREQ
 70
     1
  9
$HANDLING
 70
     1
  9
$HANDSEED
  5
2C5
  9
$SURFTAB1
 70
     6
  9
$SURFTAB2
 70
     6
  9
$SURFTYPE
 70
     6
  9
$SURFU
 70
     6
  9
$SURFV
 70
     6
  9
$UCSNAME
  2

  9
$UCSORG
 10
0.0
 20
0.0
 30
0.0
  9
$UCSXDIR
 10
1.0
 20
0.0
 30
0.0
  9
$UCSYDIR
 10
0.0
 20
1.0
 30
0.0
  9
$PUCSNAME
  2

  9
$PUCSORG
 10
0.0
 20
0.0
 30
0.0
  9
$PUCSXDIR
 10
1.0
 20
0.0
 30
0.0
  9
$PUCSYDIR
 10
0.0
 20
1.0
 30
0.0
  9
$USERI1
 70
     3
  9
$USERI2
 70
     1
  9
$USERI3
 70
     0
  9
$USERI4
 70
     1
  9
$USERI5
 70
     0
  9
$USERR1
 40
0.5
  9
$USERR2
 40
3.0
  9
$USERR3
 40
3.0
  9
$USERR4
 40
3.0
  9
$USERR5
 40
10.0
  9
$WORLDVIEW
 70
     1
  9
$SHADEDGE
 70
     3
  9
$SHADEDIF
 70
    70
  9
$TILEMODE
 70
     1
  9
$MAXACTVP
 70
    16
  9
$PLIMCHECK
 70
     0
  9
$PEXTMIN
 10
1.0000000000000000E+020
 20
1.0000000000000000E+020
 30
1.0000000000000000E+020
  9
$PEXTMAX
 10
-1.0000000000000000E+020
 20
-1.0000000000000000E+020
 30
-1.0000000000000000E+020
  9
$PLIMMIN
 10
0.0
 20
0.0
  9
$PLIMMAX
 10
12.0
 20
9.0
  9
$UNITMODE
 70
     0
  9
$VISRETAIN
 70
     0
  9
$PLINEGEN
 70
     0
  9
$PSLTSCALE
 70
     0
  0
ENDSEC
  0
SECTION
  2
TABLES
  0
TABLE
  2
VPORT
 70
     1
  0
VPORT
  2
*ACTIVE
 70
     0
 10
0.0
 20
0.0
 11
1.0
 21
1.0
 12
195.0581083320873
 22
133.5127261426681
 13
0.0
 23
0.0
 14
10.0
 24
10.0
 15
10.0
 25
10.0
 16
0.0
 26
0.0
 36
1.0
 17
0.0
 27
0.0
 37
0.0
 40
275.42274993631997
 41
1.831871345029239
 42
50.0
 43
0.0
 44
0.0
 50
0.0
 51
0.0
 71
     0
 72
   100
 73
     1
 74
     0
 75
     0
 76
     0
 77
     0
 78
     0
  0
ENDTAB
  0
TABLE
  2
LTYPE
 70
     4
  0
LTYPE
  2
CONTINUOUS
 70
     0
  3
Solid Line
 72
    65
 73
     0
 40
0.0
  0
LTYPE
  2
CENTER
 70
     0
  3
____ _ ____ _ ____ _ ____ _ ____ _ ____ _ ____
 72
    65
 73
     4
 40
2.0
 49
1.25
 49
-0.25
 49
0.25
 49
-0.25
  0
LTYPE
  2
AUSGEZOGEN
 70
     0
  3
Solid line
 72
    65
 73
     0
 40
0.0
  0
LTYPE
  2
PHANTOM2
 70
     0
  3
___ _ _ ___ _ _ ___ _ _ ___ _ _
 72
    65
 73
     6
 40
1.25
 49
0.625
 49
-0.125
 49
0.125
 49
-0.125
 49
0.125
 49
-0.125
  0
ENDTAB
  0
TABLE
  2
LAYER
 70
     5
  0
LAYER
  2
0
 70
     0
 62
     7
  6
CONTINUOUS
  0
LAYER
  2
1
 70
     0
 62
     1
  6
CENTER
  0
LAYER
  2
ITEM_HILFE
 70
     0
 62
     3
  6
CONTINUOUS
  0
LAYER
  2
ITEM_50
 70
     0
 62
     7
  6
AUSGEZOGEN
  0
LAYER
  2
4
 70
     0
 62
     4
  6
CONTINUOUS
  0
ENDTAB
  0
TABLE
  2
STYLE
 70
     2
  0
STYLE
  2
STANDARD
 70
     0
 40
0.0
 41
1.0
 50
0.0
 71
     0
 42
0.2
  3
txt
  4
bigfont
  0
STYLE
  2
STANDARD1
 70
     0
 40
0.0
 41
1.0
 50
0.0
 71
     0
 42
3.0
  3
txt
  4

  0
ENDTAB
  0
TABLE
  2
VIEW
 70
     0
  0
ENDTAB
  0
TABLE
  2
UCS
 70
     0
  0
ENDTAB
  0
TABLE
  2
APPID
 70
     3
  0
APPID
  2
ACAD
 70
     0
  0
APPID
  2
ACAD_MLEADERVER
 70
     0
  0
APPID
  2
ACAD_NAV_VCDISPLAY
 70
     0
  0
ENDTAB
  0
TABLE
  2
DIMSTYLE
 70
     1
  0
DIMSTYLE
  2
STANDARD
 70
     0
  3

  4

  5

  6

  7

 40
1.0
 41
0.18
 42
0.0625
 43
0.38
 44
0.18
 45
0.0
 46
0.0
 47
0.0
 48
0.0
140
0.18
141
0.09
142
0.0
143
25.399999999999999
144
1.0
145
0.0
146
1.0
147
0.09
 71
     0
 72
     0
 73
     1
 74
     1
 75
     0
 76
     0
 77
     0
 78
     0
170
     0
171
     2
172
     0
173
     0
174
     0
175
     0
176
     0
177
     0
178
     0
  0
ENDTAB
  0
ENDSEC
  0
SECTION
  2
BLOCKS
  0
BLOCK
  8
0
  2
$MODEL_SPACE
 70
     0
 10
0.0
 20
0.0
 30
0.0
  3
$MODEL_SPACE
  1

  0
ENDBLK
  5
10B
  8
0
  0
BLOCK
 67
     1
  8
0
  2
$PAPER_SPACE
 70
     0
 10
0.0
 20
0.0
 30
0.0
  3
$PAPER_SPACE
  1

  0
ENDBLK
  5
109
 67
     1
  8
0
  0
BLOCK
  8
0
  2
ACAD
 70
     0
 10
0.0
 20
0.0
 30
0.0
  3
ACAD
  1

  0
ENDBLK
  5
3B
  8
0
  0
BLOCK
  8
4
  2
STDGX5
 70
     0
 10
0.0
 20
0.0
 30
0.0
  3
STDGX5
  1

  0
ENDBLK
  5
3D
  8
4
  0
ENDSEC
  0
SECTION
  2
ENTITIES
  0
INSERT
  5
5C
  8
ITEM_HILFE
  2
ACAD
 10
-16.710243999999999
 20
-80.529075000000006
 30
0.0
  0
INSERT
  5
5D
  8
0
  2
ACAD
 10
179.85095200000001
 20
108.25194500000001
 30
0.0
  0
INSERT
  5
5F
  8
4
  2
STDGX5
 10
56.714658
 20
37.972836999999998
 30
0.0
 41
0.25
 42
0.25
 43
0.25
  0
INSERT
  5
60
  8
4
  2
STDGX5
 10
56.714658
 20
37.972836999999998
 30
0.0
 41
0.25
 42
0.25
 43
0.25
  0
INSERT
  5
61
  8
4
  2
STDGX5
 10
56.714658
 20
37.972836999999998
 30
0.0
 41
0.25
 42
0.25
 43
0.25
  0
INSERT
  5
62
  8
4
  2
STDGX5
 10
56.714658
 20
37.972836999999998
 30
0.0
 41
0.25
 42
0.25
 43
0.25
  0
LINE
  5
63
  8
0
 10
0.0
 20
0.0
 30
0.0
 11
0.0
 21
0.0
 31
0.0
  0
LINE
  5
64
  8
ITEM_50
 10
287.96829200000002
 20
120.622879
 30
0.0
 11
287.96829200000002
 21
122.622879
 31
0.0
  0
ARC
  5
65
  8
ITEM_50
 10
285.96829200000002
 20
122.622879
 30
0.0
 40
2.0
 50
0.0
 51
90.0
  0
LINE
  5
66
  8
ITEM_50
 10
285.96829200000002
 20
124.622879
 30
0.0
 11
129.96829199999999
 21
124.622879
 31
0.0
  0
ARC
  5
67
  8
ITEM_50
 10
129.96829199999999
 20
122.622879
 30
0.0
 40
2.0
 50
90.0
 51
180.0
  0
LINE
  5
68
  8
ITEM_50
 10
127.96829200000001
 20
122.622879
 30
0.0
 11
127.96829200000001
 21
120.622879
 31
0.0
  0
ARC
  5
69
  8
ITEM_50
 10
303.752498
 20
156.58122299999999
 30
0.0
 40
2.0
 50
180.0
 51
270.0
  0
LINE
  5
6A
  8
ITEM_50
 10
303.752498
 20
154.58122299999999
 30
0.0
 11
305.752498
 21
154.58122299999999
 31
0.0
  0
LINE
  5
6B
  8
ITEM_50
 10
305.752498
 20
154.58122299999999
 30
0.0
 11
305.752498
 21
170.58122299999999
 31
0.0
  0
LINE
  5
6C
  8
ITEM_50
 10
305.752498
 20
170.58122299999999
 30
0.0
 11
303.752498
 21
170.58122299999999
 31
0.0
  0
ARC
  5
6D
  8
ITEM_50
 10
303.752498
 20
168.58122299999999
 30
0.0
 40
2.0
 50
90.0
 51
180.0
  0
LINE
  5
6E
  8
ITEM_50
 10
301.752498
 20
168.58122299999999
 30
0.0
 11
301.752498
 21
156.58122299999999
 31
0.0
  0
LINE
  5
73
  8
ITEM_50
 10
287.96829200000002
 20
169.58122299999999
 30
0.0
 11
287.96829200000002
 21
155.58122299999999
 31
0.0
  0
LINE
  5
74
  8
ITEM_50
 10
286.96829200000002
 20
154.58122299999999
 30
0.0
 11
128.96829199999999
 21
154.58122299999999
 31
0.0
  0
LINE
  5
75
  8
ITEM_50
 10
127.96829200000001
 20
155.58122299999999
 30
0.0
 11
127.96829200000001
 21
169.58122299999999
 31
0.0
  0
LINE
  5
76
  8
ITEM_50
 10
128.96829199999999
 20
170.58122299999999
 30
0.0
 11
286.96829200000002
 21
170.58122299999999
 31
0.0
  0
ARC
  5
77
  8
ITEM_50
 10
128.96829199999999
 20
169.58122299999999
 30
0.0
 40
1.0
 50
90.0
 51
180.0
  0
ARC
  5
78
  8
ITEM_50
 10
128.96829199999999
 20
155.58122299999999
 30
0.0
 40
1.0
 50
180.0
 51
270.0
  0
ARC
  5
79
  8
ITEM_50
 10
286.96829200000002
 20
169.58122299999999
 30
0.0
 40
1.0
 50
0.0
 51
90.0
  0
ARC
  5
7A
  8
ITEM_50
 10
286.96829200000002
 20
155.58122299999999
 30
0.0
 40
1.0
 50
270.0
 51
0.0
  0
LINE
  5
82
  8
ITEM_50
 10
113.60038299999999
 20
168.58122299999999
 30
0.0
 11
113.60038299999999
 21
156.58122299999999
 31
0.0
  0
ARC
  5
83
  8
ITEM_50
 10
111.60038299999999
 20
168.58122299999999
 30
0.0
 40
2.0
 50
0.0
 51
90.0
  0
LINE
  5
84
  8
ITEM_50
 10
109.60038299999999
 20
170.58122299999999
 30
0.0
 11
111.60038299999999
 21
170.58122299999999
 31
0.0
  0
LINE
  5
85
  8
ITEM_50
 10
109.60038299999999
 20
154.58122299999999
 30
0.0
 11
109.60038299999999
 21
170.58122299999999
 31
0.0
  0
LINE
  5
86
  8
ITEM_50
 10
111.60038299999999
 20
154.58122299999999
 30
0.0
 11
109.60038299999999
 21
154.58122299999999
 31
0.0
  0
ARC
  5
87
  8
ITEM_50
 10
111.60038299999999
 20
156.58122299999999
 30
0.0
 40
2.0
 50
270.0
 51
0.0
  0
LINE
  5
88
  8
1
 10
99.600382999999994
 20
162.58122299999999
 30
0.0
 11
116.60038299999999
 21
162.58122299999999
 31
0.0
  0
LINE
  5
89
  8
1
 10
315.752498
 20
162.58122299999999
 30
0.0
 11
298.752498
 21
162.58122299999999
 31
0.0
  0
LINE
  5
8A
  8
1
 10
282.96829200000002
 20
110.622879
 30
0.0
 11
282.96829200000002
 21
127.622879
 31
0.0
  0
LINE
  5
94
  8
0
 10
311.752498
 20
168.08122299999999
 30
0.0
 11
305.752498
 21
168.08122299999999
 31
0.0
  0
LINE
  5
95
  8
0
 10
311.752498
 20
157.08122299999999
 30
0.0
 11
305.752498
 21
157.08122299999999
 31
0.0
  0
LINE
  5
96
  8
ITEM_50
 10
311.752498
 20
157.08122299999999
 30
0.0
 11
311.75249800000012
 21
168.08122299999999
 31
0.0
  0
LINE
  5
97
  8
0
 10
103.60038299999999
 20
168.08122299999999
 30
0.0
 11
109.60038299999999
 21
168.08122299999999
 31
0.0
  0
LINE
  5
98
  8
ITEM_50
 10
103.60038299999999
 20
157.08122299999999
 30
0.0
 11
103.60038299999989
 21
168.08122299999999
 31
0.0
  0
LINE
  5
99
  8
0
 10
103.60038299999999
 20
157.08122299999999
 30
0.0
 11
109.60038299999999
 21
157.08122299999999
 31
0.0
  0
LINE
  5
9A
  8
1
 10
207.96829199999999
 20
173.58122299999999
 30
0.0
 11
207.96829199999999
 21
151.58122299999999
 31
0.0
  0
LINE
  5
9B
  8
1
 10
253.96829199999999
 20
110.6228790000001
 30
0.0
 11
253.96829199999999
 21
127.6228790000001
 31
0.0
  0
LINE
  5
9C
  8
1
 10
213.9682920000001
 20
110.6228790000001
 30
0.0
 11
213.9682920000001
 21
127.6228790000001
 31
0.0
  0
LINE
  5
9D
  8
0
 10
133.46829199999999
 20
113.622879
 30
0.0
 11
132.46829199999999
 21
113.622879
 31
0.0
  0
LINE
  5
9E
  8
0
 10
133.768292
 20
113.92287899999999
 30
0.0
 11
133.768292
 21
120.622879
 31
0.0
  0
LINE
  5
9F
  8
0
 10
132.16829200000001
 20
113.92287899999999
 30
0.0
 11
132.16829200000001
 21
120.622879
 31
0.0
  0
LINE
  5
A0
  8
1
 10
201.96829199999999
 20
110.6228790000001
 30
0.0
 11
201.96829199999999
 21
127.6228790000001
 31
0.0
  0
LINE
  5
A1
  8
1
 10
161.96829199999999
 20
110.6228790000001
 30
0.0
 11
161.96829199999999
 21
127.6228790000001
 31
0.0
  0
LINE
  5
A2
  8
ITEM_50
 10
163.91829200000001
 20
112.622879
 30
0.0
 11
160.018292
 21
112.622879
 31
0.0
  0
LINE
  5
A3
  8
0
 10
164.21829199999999
 20
120.322879
 30
0.0
 11
164.21829199999999
 21
112.92287899999999
 31
0.0
  0
LINE
  5
A4
  8
0
 10
159.71829199999999
 20
120.322879
 30
0.0
 11
159.71829199999999
 21
112.92287899999999
 31
0.0
  0
LINE
  5
A5
  8
0
 10
161.96829199999999
 20
120.622879
 30
0.0
 11
161.96829199999999
 21
112.622879
 31
0.0
  0
LINE
  5
A6
  8
1
 10
132.96829199999999
 20
110.622879
 30
0.0
 11
132.96829199999999
 21
127.622879
 31
0.0
  0
LINE
  5
A7
  8
1
 10
207.96829199999999
 20
127.622879
 30
0.0
 11
207.96829199999999
 21
107.622879
 31
0.0
  0
LINE
  5
A8
  8
1
 10
124.96829199999991
 20
162.58122299999999
 30
0.0
 11
290.96829200000002
 21
162.58122299999999
 31
0.0
  0
LINE
  5
A9
  8
1
 10
132.96829199999999
 20
159.58122299999999
 30
0.0
 11
132.96829199999999
 21
165.58122299999999
 31
0.0
  0
LINE
  5
AA
  8
1
 10
161.96829199999999
 20
159.58122299999999
 30
0.0
 11
161.96829199999999
 21
165.58122299999999
 31
0.0
  0
LINE
  5
AB
  8
1
 10
201.96829199999999
 20
159.58122299999999
 30
0.0
 11
201.96829199999999
 21
165.58122299999999
 31
0.0
  0
LINE
  5
AC
  8
1
 10
213.9682920000001
 20
159.58122299999999
 30
0.0
 11
213.9682920000001
 21
165.58122299999999
 31
0.0
  0
LINE
  5
AD
  8
1
 10
253.96829199999999
 20
159.58122299999999
 30
0.0
 11
253.96829199999999
 21
165.58122299999999
 31
0.0
  0
LINE
  5
AE
  8
1
 10
282.96829200000002
 20
159.58122299999999
 30
0.0
 11
282.96829200000002
 21
165.58122299999999
 31
0.0
  0
ARC
  5
AF
  8
0
 10
132.46829199999999
 20
113.92287899999999
 30
0.0
 40
0.3
 50
180.0
 51
270.00000000000091
  0
ARC
  5
B0
  8
0
 10
133.46829199999999
 20
113.92287899999999
 30
0.0
 40
0.3
 50
270.00000000000063
 51
0.0
  0
ARC
  5
B1
  8
0
 10
160.018292
 20
112.92287899999999
 30
0.0
 40
0.3
 50
180.0
 51
269.99999999999989
  0
ARC
  5
B2
  8
0
 10
163.91829200000001
 20
112.92287899999999
 30
0.0
 40
0.3
 50
270.0
 51
0.0
  0
ARC
  5
B3
  8
0
 10
164.518292
 20
120.322879
 30
0.0
 40
0.3
 50
90.0
 51
179.99999999999989
  0
ARC
  5
B4
  8
0
 10
159.41829200000001
 20
120.322879
 30
0.0
 40
0.3
 50
0.0000000000000509
 51
90.0
  0
ARC
  5
B5
  8
0
 10
199.41829200000001
 20
120.322879
 30
0.0
 40
0.3
 50
0.0000000000000509
 51
90.0
  0
ARC
  5
B6
  8
0
 10
204.518292
 20
120.322879
 30
0.0
 40
0.3
 50
90.0
 51
179.99999999999989
  0
ARC
  5
B7
  8
0
 10
203.91829200000001
 20
112.92287899999999
 30
0.0
 40
0.3
 50
270.0
 51
0.0
  0
ARC
  5
B8
  8
0
 10
200.018292
 20
112.92287899999999
 30
0.0
 40
0.3
 50
180.0
 51
269.99999999999989
  0
LINE
  5
B9
  8
0
 10
201.96829199999999
 20
120.622879
 30
0.0
 11
201.96829199999999
 21
112.622879
 31
0.0
  0
LINE
  5
BA
  8
0
 10
199.71829199999999
 20
120.322879
 30
0.0
 11
199.71829199999999
 21
112.92287899999999
 31
0.0
  0
LINE
  5
BB
  8
0
 10
204.21829199999999
 20
120.322879
 30
0.0
 11
204.21829199999999
 21
112.92287899999999
 31
0.0
  0
LINE
  5
BC
  8
ITEM_50
 10
203.91829200000001
 20
112.622879
 30
0.0
 11
200.018292
 21
112.622879
 31
0.0
  0
LINE
  5
BD
  8
ITEM_50
 10
212.018292
 20
112.622879
 30
0.0
 11
215.91829200000001
 21
112.622879
 31
0.0
  0
LINE
  5
BE
  8
0
 10
211.71829199999999
 20
120.322879
 30
0.0
 11
211.71829199999999
 21
112.92287899999999
 31
0.0
  0
LINE
  5
BF
  8
0
 10
216.21829199999999
 20
120.322879
 30
0.0
 11
216.21829199999999
 21
112.92287899999999
 31
0.0
  0
LINE
  5
C0
  8
0
 10
213.9682920000001
 20
120.622879
 30
0.0
 11
213.96829199999999
 21
112.622879
 31
0.0
  0
ARC
  5
C1
  8
0
 10
215.91829200000001
 20
112.92287899999999
 30
0.0
 40
0.3
 50
270.00000000000011
 51
0.0000000000000254
  0
ARC
  5
C2
  8
0
 10
212.018292
 20
112.92287899999999
 30
0.0
 40
0.3
 50
180.0
 51
270.00000000000011
  0
ARC
  5
C3
  8
0
 10
211.41829200000001
 20
120.322879
 30
0.0
 40
0.3
 50
0.0000000000000763
 51
90.000000000000028
  0
ARC
  5
C4
  8
0
 10
216.518292
 20
120.322879
 30
0.0
 40
0.3
 50
90.000000000000028
 51
180.0
  0
ARC
  5
C5
  8
0
 10
256.51829199999997
 20
120.322879
 30
0.0
 40
0.3
 50
90.000000000000028
 51
180.0
  0
ARC
  5
C6
  8
0
 10
251.41829200000001
 20
120.322879
 30
0.0
 40
0.3
 50
0.0000000000000763
 51
90.000000000000028
  0
ARC
  5
C7
  8
0
 10
252.018292
 20
112.92287899999999
 30
0.0
 40
0.3
 50
180.0
 51
270.00000000000011
  0
ARC
  5
C8
  8
0
 10
255.91829200000001
 20
112.92287899999999
 30
0.0
 40
0.3
 50
270.00000000000011
 51
0.0000000000000254
  0
ARC
  5
C9
  8
0
 10
282.46829200000002
 20
113.92287899999999
 30
0.0
 40
0.3
 50
180.0
 51
269.99999999999937
  0
ARC
  5
CA
  8
0
 10
283.46829200000002
 20
113.92287899999999
 30
0.0
 40
0.3
 50
269.99999999999909
 51
0.0000000000000254
  0
LINE
  5
CB
  8
0
 10
253.9682920000001
 20
120.622879
 30
0.0
 11
253.96829199999999
 21
112.622879
 31
0.0
  0
LINE
  5
CC
  8
0
 10
256.21829200000002
 20
120.322879
 30
0.0
 11
256.21829200000002
 21
112.92287899999999
 31
0.0
  0
LINE
  5
CD
  8
0
 10
251.71829199999999
 20
120.322879
 30
0.0
 11
251.71829199999999
 21
112.92287899999999
 31
0.0
  0
LINE
  5
CE
  8
ITEM_50
 10
252.018292
 20
112.622879
 30
0.0
 11
255.91829200000001
 21
112.622879
 31
0.0
  0
LINE
  5
CF
  8
0
 10
283.76829199999997
 20
113.92287899999999
 30
0.0
 11
283.76829199999997
 21
120.622879
 31
0.0
  0
LINE
  5
D0
  8
0
 10
282.16829200000012
 20
113.92287899999999
 30
0.0
 11
282.16829200000001
 21
120.622879
 31
0.0
  0
LINE
  5
D1
  8
0
 10
282.46829200000002
 20
113.622879
 30
0.0
 11
283.46829200000002
 21
113.622879
 31
0.0
  0
LINE
  5
D2
  8
0
 10
127.96829200000001
 20
120.622879
 30
0.0
 11
287.96829200000002
 21
120.622879
 31
0.0
  0
TEXT
  5
22C
  8
0
 62
     3
 10
0.0
 20
0.0
 30
0.0
 40
10.0
  1
ECP16016
  7
STANDARD1
  0
ENDSEC
  0
EOF
