  0
SECTION
  2
HEADER
  9
$ACADVER
  1
AC1009
  9
$INSBASE
 10
0.0
 20
0.0
 30
0.0
  9
$EXTMIN
 10
0.0
 20
-2.960436562073669
 30
0.0
  9
$EXTMAX
 10
144.02805900000001
 20
105.686151
 30
0.0
  9
$LIMMIN
 10
0.0
 20
0.0
  9
$LIMMAX
 10
195.0
 20
135.0
  9
$ORTHOMODE
 70
     1
  9
$REGENMODE
 70
     1
  9
$FILLMODE
 70
     1
  9
$QTEXTMODE
 70
     0
  9
$MIRRTEXT
 70
     0
  9
$DRAGMODE
 70
     2
  9
$LTSCALE
 40
5.0
  9
$OSMODE
 70
  3071
  9
$ATTMODE
 70
     1
  9
$TEXTSIZE
 40
0.2
  9
$TRACEWID
 40
0.05
  9
$TEXTSTYLE
  7
STANDARD
  9
$CLAYER
  8
0
  9
$CELTYPE
  6
BYLAYER
  9
$CECOLOR
 62
   256
  9
$DIMSCALE
 40
0.5
  9
$DIMASZ
 40
3.0
  9
$DIMEXO
 40
1.0
  9
$DIMDLI
 40
6.0
  9
$DIMRND
 40
0.0
  9
$DIMDLE
 40
0.0
  9
$DIMEXE
 40
1.0
  9
$DIMTP
 40
495.0
  9
$DIMTM
 40
0.0
  9
$DIMTXT
 40
3.0
  9
$DIMCEN
 40
0.0
  9
$DIMTSZ
 40
0.0
  9
$DIMTOL
 70
     0
  9
$DIMLIM
 70
     0
  9
$DIMTIH
 70
     0
  9
$DIMTOH
 70
     0
  9
$DIMSE1
 70
     0
  9
$DIMSE2
 70
     0
  9
$DIMTAD
 70
     1
  9
$DIMZIN
 70
     0
  9
$DIMBLK
  1

  9
$DIMASO
 70
     0
  9
$DIMSHO
 70
     0
  9
$DIMPOST
  1

  9
$DIMAPOST
  1

  9
$DIMALT
 70
     0
  9
$DIMALTD
 70
     2
  9
$DIMALTF
 40
25.399999999999999
  9
$DIMLFAC
 40
1.0
  9
$DIMTOFL
 70
     1
  9
$DIMTVP
 40
0.0
  9
$DIMTIX
 70
     1
  9
$DIMSOXD
 70
     0
  9
$DIMSAH
 70
     0
  9
$DIMBLK1
  1

  9
$DIMBLK2
  1

  9
$DIMSTYLE
  2
STANDARD
  9
$DIMCLRD
 70
     0
  9
$DIMCLRE
 70
     0
  9
$DIMCLRT
 70
     0
  9
$DIMTFAC
 40
1.0
  9
$DIMGAP
 40
0.09
  9
$LUNITS
 70
     2
  9
$LUPREC
 70
     2
  9
$SKETCHINC
 40
0.1
  9
$FILLETRAD
 40
0.0
  9
$AUNITS
 70
     0
  9
$AUPREC
 70
     2
  9
$MENU
  1
E:\r13\win\SUPPORT\ACAD
  9
$ELEVATION
 40
0.0
  9
$PELEVATION
 40
0.0
  9
$THICKNESS
 40
0.0
  9
$LIMCHECK
 70
     0
  9
$BLIPMODE
 70
     0
  9
$CHAMFERA
 40
0.0
  9
$CHAMFERB
 40
0.0
  9
$SKPOLY
 70
     0
  9
$TDCREATE
 40
2449840.6550694439
  9
$TDUPDATE
 40
2456598.6433321298
  9
$TDINDWG
 40
0.000121713
  9
$TDUSRTIMER
 40
0.000121713
  9
$USRTIMER
 70
     1
  9
$ANGBASE
 50
0.0
  9
$ANGDIR
 70
     0
  9
$PDMODE
 70
     0
  9
$PDSIZE
 40
0.0
  9
$PLINEWID
 40
0.0
  9
$COORDS
 70
     1
  9
$SPLFRAME
 70
     0
  9
$SPLINETYPE
 70
     6
  9
$SPLINESEGS
 70
     8
  9
$ATTDIA
 70
     0
  9
$ATTREQ
 70
     1
  9
$HANDLING
 70
     1
  9
$HANDSEED
  5
299
  9
$SURFTAB1
 70
     6
  9
$SURFTAB2
 70
     6
  9
$SURFTYPE
 70
     6
  9
$SURFU
 70
     6
  9
$SURFV
 70
     6
  9
$UCSNAME
  2

  9
$UCSORG
 10
0.0
 20
0.0
 30
0.0
  9
$UCSXDIR
 10
1.0
 20
0.0
 30
0.0
  9
$UCSYDIR
 10
0.0
 20
1.0
 30
0.0
  9
$PUCSNAME
  2

  9
$PUCSORG
 10
0.0
 20
0.0
 30
0.0
  9
$PUCSXDIR
 10
1.0
 20
0.0
 30
0.0
  9
$PUCSYDIR
 10
0.0
 20
1.0
 30
0.0
  9
$USERI1
 70
     3
  9
$USERI2
 70
     1
  9
$USERI3
 70
     0
  9
$USERI4
 70
     1
  9
$USERI5
 70
     0
  9
$USERR1
 40
0.5
  9
$USERR2
 40
3.0
  9
$USERR3
 40
3.0
  9
$USERR4
 40
3.0
  9
$USERR5
 40
10.0
  9
$WORLDVIEW
 70
     1
  9
$SHADEDGE
 70
     3
  9
$SHADEDIF
 70
    70
  9
$TILEMODE
 70
     1
  9
$MAXACTVP
 70
    16
  9
$PLIMCHECK
 70
     0
  9
$PEXTMIN
 10
1.0000000000000000E+020
 20
1.0000000000000000E+020
 30
1.0000000000000000E+020
  9
$PEXTMAX
 10
-1.0000000000000000E+020
 20
-1.0000000000000000E+020
 30
-1.0000000000000000E+020
  9
$PLIMMIN
 10
0.0
 20
0.0
  9
$PLIMMAX
 10
12.0
 20
9.0
  9
$UNITMODE
 70
     0
  9
$VISRETAIN
 70
     0
  9
$PLINEGEN
 70
     0
  9
$PSLTSCALE
 70
     0
  0
ENDSEC
  0
SECTION
  2
TABLES
  0
TABLE
  2
VPORT
 70
     1
  0
VPORT
  2
*ACTIVE
 70
     0
 10
0.0
 20
0.0
 11
1.0
 21
1.0
 12
101.3200363378641
 22
66.014785922033241
 13
0.0
 23
0.0
 14
5.0
 24
5.0
 15
5.0
 25
5.0
 16
0.0
 26
0.0
 36
1.0
 17
0.0
 27
0.0
 37
0.0
 40
139.20783109903601
 41
1.831871345029239
 42
50.0
 43
0.0
 44
0.0
 50
0.0
 51
0.0
 71
     0
 72
   100
 73
     1
 74
     0
 75
     0
 76
     0
 77
     0
 78
     0
  0
ENDTAB
  0
TABLE
  2
LTYPE
 70
     4
  0
LTYPE
  2
CONTINUOUS
 70
     0
  3
Solid Line
 72
    65
 73
     0
 40
0.0
  0
LTYPE
  2
CENTER
 70
     0
  3
____ _ ____ _ ____ _ ____ _ ____ _ ____ _ ____
 72
    65
 73
     4
 40
2.0
 49
1.25
 49
-0.25
 49
0.25
 49
-0.25
  0
LTYPE
  2
AUSGEZOGEN
 70
     0
  3
Solid line
 72
    65
 73
     0
 40
0.0
  0
LTYPE
  2
PHANTOM2
 70
     0
  3
___ _ _ ___ _ _ ___ _ _ ___ _ _
 72
    65
 73
     6
 40
1.25
 49
0.625
 49
-0.125
 49
0.125
 49
-0.125
 49
0.125
 49
-0.125
  0
ENDTAB
  0
TABLE
  2
LAYER
 70
     5
  0
LAYER
  2
0
 70
     0
 62
     7
  6
CONTINUOUS
  0
LAYER
  2
1
 70
     0
 62
     1
  6
CENTER
  0
LAYER
  2
ITEM_HILFE
 70
     0
 62
     3
  6
CONTINUOUS
  0
LAYER
  2
ITEM_50
 70
     0
 62
     7
  6
AUSGEZOGEN
  0
LAYER
  2
4
 70
     0
 62
     4
  6
CONTINUOUS
  0
ENDTAB
  0
TABLE
  2
STYLE
 70
     2
  0
STYLE
  2
STANDARD
 70
     0
 40
0.0
 41
1.0
 50
0.0
 71
     0
 42
0.2
  3
TXT
  4
BIGFONT
  0
STYLE
  2
STANDARD1
 70
     0
 40
0.0
 41
1.0
 50
0.0
 71
     0
 42
3.0
  3
txt
  4

  0
ENDTAB
  0
TABLE
  2
VIEW
 70
     0
  0
ENDTAB
  0
TABLE
  2
UCS
 70
     0
  0
ENDTAB
  0
TABLE
  2
APPID
 70
     3
  0
APPID
  2
ACAD
 70
     0
  0
APPID
  2
ACAD_MLEADERVER
 70
     0
  0
APPID
  2
ACAD_NAV_VCDISPLAY
 70
     0
  0
ENDTAB
  0
TABLE
  2
DIMSTYLE
 70
     1
  0
DIMSTYLE
  2
STANDARD
 70
     0
  3

  4

  5

  6

  7

 40
1.0
 41
0.18
 42
0.0625
 43
0.38
 44
0.18
 45
0.0
 46
0.0
 47
0.0
 48
0.0
140
0.18
141
0.09
142
0.0
143
25.399999999999999
144
1.0
145
0.0
146
1.0
147
0.09
 71
     0
 72
     0
 73
     1
 74
     1
 75
     0
 76
     0
 77
     0
 78
     0
170
     0
171
     2
172
     0
173
     0
174
     0
175
     0
176
     0
177
     0
178
     0
  0
ENDTAB
  0
ENDSEC
  0
SECTION
  2
BLOCKS
  0
BLOCK
  8
0
  2
$MODEL_SPACE
 70
     0
 10
0.0
 20
0.0
 30
0.0
  3
$MODEL_SPACE
  1

  0
ENDBLK
  5
DF
  8
0
  0
BLOCK
 67
     1
  8
0
  2
$PAPER_SPACE
 70
     0
 10
0.0
 20
0.0
 30
0.0
  3
$PAPER_SPACE
  1

  0
ENDBLK
  5
DD
 67
     1
  8
0
  0
BLOCK
  8
0
  2
ACAD
 70
     0
 10
0.0
 20
0.0
 30
0.0
  3
ACAD
  1

  0
ENDBLK
  5
3C
  8
0
  0
BLOCK
  8
4
  2
STDGX5
 70
     0
 10
0.0
 20
0.0
 30
0.0
  3
STDGX5
  1

  0
ENDBLK
  5
3E
  8
4
  0
ENDSEC
  0
SECTION
  2
ENTITIES
  0
INSERT
  5
5D
  8
ITEM_HILFE
  2
ACAD
 10
-16.710243999999999
 20
-80.529075000000006
 30
0.0
  0
INSERT
  5
5E
  8
0
  2
ACAD
 10
179.85095200000001
 20
108.25194500000001
 30
0.0
  0
INSERT
  5
68
  8
4
  2
STDGX5
 10
56.714658
 20
37.972836999999998
 30
0.0
 41
0.25
 42
0.25
 43
0.25
  0
INSERT
  5
69
  8
4
  2
STDGX5
 10
56.714658
 20
37.972836999999998
 30
0.0
 41
0.25
 42
0.25
 43
0.25
  0
INSERT
  5
6A
  8
4
  2
STDGX5
 10
56.714658
 20
37.972836999999998
 30
0.0
 41
0.25
 42
0.25
 43
0.25
  0
INSERT
  5
6B
  8
4
  2
STDGX5
 10
56.714658
 20
37.972836999999998
 30
0.0
 41
0.25
 42
0.25
 43
0.25
  0
LINE
  5
6C
  8
ITEM_50
 10
76.318122999999986
 20
35.665736000000003
 30
0.0
 11
108.318123
 21
35.665736000000003
 31
0.0
  0
LINE
  5
6D
  8
ITEM_50
 10
108.318123
 20
35.665736000000003
 30
0.0
 11
108.318123
 21
37.665736000000003
 31
0.0
  0
ARC
  5
6E
  8
ITEM_50
 10
106.318123
 20
37.665736000000003
 30
0.0
 40
2.0
 50
0.0
 51
90.0
  0
LINE
  5
6F
  8
ITEM_50
 10
106.318123
 20
39.665736000000003
 30
0.0
 11
78.318123
 21
39.665736000000003
 31
0.0
  0
ARC
  5
70
  8
ITEM_50
 10
78.318123
 20
37.665736000000003
 30
0.0
 40
2.0
 50
90.0
 51
180.0
  0
LINE
  5
71
  8
ITEM_50
 10
76.318122999999986
 20
37.665736000000003
 30
0.0
 11
76.318122999999986
 21
35.665736000000003
 31
0.0
  0
ARC
  5
72
  8
ITEM_50
 10
50.859690999999991
 20
58.612793999999987
 30
0.0
 40
2.0
 50
270.0
 51
0.0
  0
LINE
  5
73
  8
ITEM_50
 10
50.859690999999991
 20
56.612793999999987
 30
0.0
 11
48.859690999999998
 21
56.612793999999987
 31
0.0
  0
LINE
  5
74
  8
ITEM_50
 10
48.859690999999998
 20
56.612793999999987
 30
0.0
 11
48.859690999999998
 21
74.612793999999994
 31
0.0
  0
LINE
  5
75
  8
ITEM_50
 10
48.859690999999998
 20
74.612793999999994
 30
0.0
 11
50.859690999999991
 21
74.612793999999994
 31
0.0
  0
ARC
  5
76
  8
ITEM_50
 10
50.859690999999991
 20
72.612793999999994
 30
0.0
 40
2.0
 50
0.0
 51
90.0
  0
LINE
  5
77
  8
ITEM_50
 10
52.859690999999998
 20
72.612793999999994
 30
0.0
 11
52.859690999999998
 21
58.612793999999987
 31
0.0
  0
LINE
  5
7C
  8
ITEM_50
 10
108.318123
 20
72.612793999999994
 30
0.0
 11
108.318123
 21
58.612793999999987
 31
0.0
  0
LINE
  5
7D
  8
ITEM_50
 10
106.318123
 20
56.612793999999987
 30
0.0
 11
78.318123
 21
56.612793999999987
 31
0.0
  0
LINE
  5
7E
  8
ITEM_50
 10
76.318122999999986
 20
58.612793999999987
 30
0.0
 11
76.318122999999986
 21
72.612793999999994
 31
0.0
  0
LINE
  5
7F
  8
ITEM_50
 10
78.318123
 20
74.612793999999994
 30
0.0
 11
106.318123
 21
74.612793999999994
 31
0.0
  0
ARC
  5
80
  8
ITEM_50
 10
78.318123
 20
72.612793999999994
 30
0.0
 40
2.0
 50
90.0
 51
180.0
  0
ARC
  5
81
  8
ITEM_50
 10
106.318123
 20
72.612793999999994
 30
0.0
 40
2.0
 50
0.0
 51
90.0
  0
ARC
  5
82
  8
ITEM_50
 10
106.318123
 20
58.612793999999987
 30
0.0
 40
2.0
 50
270.0
 51
0.0
  0
ARC
  5
83
  8
ITEM_50
 10
78.318123
 20
58.612793999999987
 30
0.0
 40
2.0
 50
180.0
 51
270.0
  0
LINE
  5
84
  8
ITEM_50
 10
130.02805900000001
 20
72.612793999999994
 30
0.0
 11
130.02805900000001
 21
58.612793999999987
 31
0.0
  0
ARC
  5
85
  8
ITEM_50
 10
132.02805900000001
 20
72.612793999999994
 30
0.0
 40
2.0
 50
90.0
 51
180.0
  0
LINE
  5
86
  8
ITEM_50
 10
134.02805900000001
 20
74.612793999999994
 30
0.0
 11
132.02805900000001
 21
74.612793999999994
 31
0.0
  0
LINE
  5
87
  8
ITEM_50
 10
134.02805900000001
 20
56.612793999999987
 30
0.0
 11
134.02805900000001
 21
74.612793999999994
 31
0.0
  0
LINE
  5
88
  8
ITEM_50
 10
132.02805900000001
 20
56.612793999999987
 30
0.0
 11
134.02805900000001
 21
56.612793999999987
 31
0.0
  0
ARC
  5
89
  8
ITEM_50
 10
132.02805900000001
 20
58.612793999999987
 30
0.0
 40
2.0
 50
180.0
 51
270.0
  0
LINE
  5
8A
  8
ITEM_50
 10
76.318122999999986
 20
93.686150999999995
 30
0.0
 11
76.318122999999986
 21
95.686150999999995
 31
0.0
  0
ARC
  5
8B
  8
ITEM_50
 10
78.318123
 20
93.686150999999995
 30
0.0
 40
2.0
 50
180.0
 51
270.0
  0
LINE
  5
8C
  8
ITEM_50
 10
106.318123
 20
91.686150999999995
 30
0.0
 11
78.318123
 21
91.686150999999995
 31
0.0
  0
ARC
  5
8D
  8
ITEM_50
 10
106.318123
 20
93.686150999999995
 30
0.0
 40
2.0
 50
270.0
 51
0.0
  0
LINE
  5
8E
  8
ITEM_50
 10
108.318123
 20
95.686150999999995
 30
0.0
 11
108.318123
 21
93.686150999999995
 31
0.0
  0
LINE
  5
8F
  8
ITEM_50
 10
76.318122999999986
 20
95.686150999999995
 30
0.0
 11
108.318123
 21
95.686150999999995
 31
0.0
  0
LINE
  5
90
  8
0
 10
48.859690999999998
 20
72.612793999999994
 30
0.0
 11
41.859690999999998
 21
72.612793999999994
 31
0.0
  0
LINE
  5
91
  8
0
 10
48.859690999999998
 20
58.612793999999987
 30
0.0
 11
41.859690999999998
 21
58.612793999999987
 31
0.0
  0
LINE
  5
92
  8
0
 10
0.0
 20
0.0
 30
0.0
 11
0.0
 21
0.0
 31
0.0
  0
LINE
  5
93
  8
0
 10
94.318123
 20
35.665736000000003
 30
0.0
 11
94.318123
 21
28.665735999999999
 31
0.0
  0
LINE
  5
94
  8
0
 10
90.318123
 20
35.665736000000003
 30
0.0
 11
90.318123
 21
28.665735999999999
 31
0.0
  0
LINE
  5
95
  8
0
 10
93.318123000000014
 20
35.665736000000003
 30
0.0
 11
93.318123000000014
 21
28.665735999999999
 31
0.0
  0
LINE
  5
96
  8
0
 10
91.318122999999986
 20
35.665736000000003
 30
0.0
 11
91.318122999999986
 21
28.665735999999999
 31
0.0
  0
LINE
  5
97
  8
ITEM_50
 10
90.318123
 20
28.665735999999999
 30
0.0
 11
94.318123
 21
28.665735999999999
 31
0.0
  0
LINE
  5
98
  8
ITEM_50
 10
41.859690999999998
 20
58.612793999999987
 30
0.0
 11
41.859690999999998
 21
72.612793999999994
 31
0.0
  0
LINE
  5
99
  8
ITEM_50
 10
90.318123
 20
102.686151
 30
0.0
 11
94.318123
 21
102.686151
 31
0.0
  0
LINE
  5
9A
  8
0
 10
91.318122999999986
 20
95.686150999999995
 30
0.0
 11
91.318122999999986
 21
102.686151
 31
0.0
  0
LINE
  5
9B
  8
0
 10
93.318123000000014
 20
95.686150999999995
 30
0.0
 11
93.318123000000014
 21
102.686151
 31
0.0
  0
LINE
  5
9C
  8
0
 10
90.318123
 20
95.686150999999995
 30
0.0
 11
90.318123
 21
102.686151
 31
0.0
  0
LINE
  5
9D
  8
0
 10
94.318123
 20
95.686150999999995
 30
0.0
 11
94.318123
 21
102.686151
 31
0.0
  0
LINE
  5
9E
  8
ITEM_50
 10
141.02805900000001
 20
58.612793999999987
 30
0.0
 11
141.02805900000001
 21
72.612793999999994
 31
0.0
  0
LINE
  5
9F
  8
0
 10
134.02805900000001
 20
58.612793999999987
 30
0.0
 11
141.02805900000001
 21
58.612793999999987
 31
0.0
  0
LINE
  5
A0
  8
0
 10
134.02805900000001
 20
72.612793999999994
 30
0.0
 11
141.02805900000001
 21
72.612793999999994
 31
0.0
  0
LINE
  5
A1
  8
1
 10
92.318122999999986
 20
25.665735999999999
 30
0.0
 11
92.318122999999986
 21
42.665736000000003
 31
0.0
  0
LINE
  5
A2
  8
1
 10
38.859690999999998
 20
65.612793999999994
 30
0.0
 11
55.859690999999998
 21
65.612793999999994
 31
0.0
  0
LINE
  5
A3
  8
1
 10
127.028059
 20
65.612793999999994
 30
0.0
 11
144.02805900000001
 21
65.612793999999994
 31
0.0
  0
LINE
  5
A4
  8
1
 10
92.318122999999986
 20
88.686150999999995
 30
0.0
 11
92.318122999999986
 21
105.686151
 31
0.0
  0
LINE
  5
A5
  8
1
 10
73.318123
 20
65.612793999999994
 30
0.0
 11
111.318123
 21
65.612793999999994
 31
0.0
  0
LINE
  5
A6
  8
1
 10
92.318122999999986
 20
53.612793999999987
 30
0.0
 11
92.318122999999986
 21
77.612793999999994
 31
0.0
  0
TEXT
  5
200
  8
0
 62
     3
 10
0.0
 20
0.0
 30
0.0
 40
10.0
  1
ECP3218
  7
STANDARD1
  0
ENDSEC
  0
EOF
