  0
SECTION
  2
HEADER
  9
$ACADVER
  1
AC1009
  9
$INSBASE
 10
0.0
 20
0.0
 30
0.0
  9
$EXTMIN
 10
0.0
 20
-2.960436562073669
 30
0.0
  9
$EXTMAX
 10
262.59822823104707
 20
204.01528776978409
 30
0.0
  9
$LIMMIN
 10
0.0
 20
0.0
  9
$LIMMAX
 10
375.0
 20
270.0
  9
$ORTHOMODE
 70
     1
  9
$REGENMODE
 70
     1
  9
$FILLMODE
 70
     1
  9
$QTEXTMODE
 70
     0
  9
$MIRRTEXT
 70
     0
  9
$DRAGMODE
 70
     2
  9
$LTSCALE
 40
10.0
  9
$OSMODE
 70
  3071
  9
$ATTMODE
 70
     1
  9
$TEXTSIZE
 40
4.000000000000048
  9
$TRACEWID
 40
0.05
  9
$TEXTSTYLE
  7
STANDARD
  9
$CLAYER
  8
4
  9
$CELTYPE
  6
BYLAYER
  9
$CECOLOR
 62
   256
  9
$DIMSCALE
 40
1.0
  9
$DIMASZ
 40
3.0
  9
$DIMEXO
 40
2.0
  9
$DIMDLI
 40
0.38
  9
$DIMRND
 40
0.0
  9
$DIMDLE
 40
0.0
  9
$DIMEXE
 40
2.0
  9
$DIMTP
 40
0.0
  9
$DIMTM
 40
0.0
  9
$DIMTXT
 40
3.2000000000000002
  9
$DIMCEN
 40
0.0
  9
$DIMTSZ
 40
0.0
  9
$DIMTOL
 70
     0
  9
$DIMLIM
 70
     0
  9
$DIMTIH
 70
     0
  9
$DIMTOH
 70
     0
  9
$DIMSE1
 70
     0
  9
$DIMSE2
 70
     0
  9
$DIMTAD
 70
     1
  9
$DIMZIN
 70
     0
  9
$DIMBLK
  1

  9
$DIMASO
 70
     0
  9
$DIMSHO
 70
     0
  9
$DIMPOST
  1

  9
$DIMAPOST
  1

  9
$DIMALT
 70
     0
  9
$DIMALTD
 70
     2
  9
$DIMALTF
 40
25.399999999999999
  9
$DIMLFAC
 40
1.0
  9
$DIMTOFL
 70
     1
  9
$DIMTVP
 40
1.6000000000000001
  9
$DIMTIX
 70
     1
  9
$DIMSOXD
 70
     0
  9
$DIMSAH
 70
     0
  9
$DIMBLK1
  1

  9
$DIMBLK2
  1

  9
$DIMSTYLE
  2
STANDARD
  9
$DIMCLRD
 70
     0
  9
$DIMCLRE
 70
     0
  9
$DIMCLRT
 70
     0
  9
$DIMTFAC
 40
1.0
  9
$DIMGAP
 40
0.09
  9
$LUNITS
 70
     2
  9
$LUPREC
 70
     4
  9
$SKETCHINC
 40
0.1
  9
$FILLETRAD
 40
0.0
  9
$AUNITS
 70
     0
  9
$AUPREC
 70
     4
  9
$MENU
  1
E:\r13\win\SUPPORT\ACAD
  9
$ELEVATION
 40
0.0
  9
$PELEVATION
 40
0.0
  9
$THICKNESS
 40
0.0
  9
$LIMCHECK
 70
     0
  9
$BLIPMODE
 70
     0
  9
$CHAMFERA
 40
0.0
  9
$CHAMFERB
 40
0.0
  9
$SKPOLY
 70
     0
  9
$TDCREATE
 40
2449840.6534259259
  9
$TDUPDATE
 40
2456598.6434059609
  9
$TDINDWG
 40
0.0001220139
  9
$TDUSRTIMER
 40
0.0001220139
  9
$USRTIMER
 70
     1
  9
$ANGBASE
 50
0.0
  9
$ANGDIR
 70
     0
  9
$PDMODE
 70
    35
  9
$PDSIZE
 40
0.0
  9
$PLINEWID
 40
0.0
  9
$COORDS
 70
     1
  9
$SPLFRAME
 70
     0
  9
$SPLINETYPE
 70
     6
  9
$SPLINESEGS
 70
     8
  9
$ATTDIA
 70
     0
  9
$ATTREQ
 70
     1
  9
$HANDLING
 70
     1
  9
$HANDSEED
  5
2B1
  9
$SURFTAB1
 70
     6
  9
$SURFTAB2
 70
     6
  9
$SURFTYPE
 70
     6
  9
$SURFU
 70
     6
  9
$SURFV
 70
     6
  9
$UCSNAME
  2

  9
$UCSORG
 10
0.0
 20
0.0
 30
0.0
  9
$UCSXDIR
 10
1.0
 20
0.0
 30
0.0
  9
$UCSYDIR
 10
0.0
 20
1.0
 30
0.0
  9
$PUCSNAME
  2

  9
$PUCSORG
 10
0.0
 20
0.0
 30
0.0
  9
$PUCSXDIR
 10
1.0
 20
0.0
 30
0.0
  9
$PUCSYDIR
 10
0.0
 20
1.0
 30
0.0
  9
$USERI1
 70
     0
  9
$USERI2
 70
     1
  9
$USERI3
 70
     0
  9
$USERI4
 70
     0
  9
$USERI5
 70
     0
  9
$USERR1
 40
0.0
  9
$USERR2
 40
0.0
  9
$USERR3
 40
0.0
  9
$USERR4
 40
0.0
  9
$USERR5
 40
0.0
  9
$WORLDVIEW
 70
     1
  9
$SHADEDGE
 70
     3
  9
$SHADEDIF
 70
    70
  9
$TILEMODE
 70
     1
  9
$MAXACTVP
 70
    16
  9
$PLIMCHECK
 70
     0
  9
$PEXTMIN
 10
1.0000000000000000E+020
 20
1.0000000000000000E+020
 30
1.0000000000000000E+020
  9
$PEXTMAX
 10
-1.0000000000000000E+020
 20
-1.0000000000000000E+020
 30
-1.0000000000000000E+020
  9
$PLIMMIN
 10
0.0
 20
0.0
  9
$PLIMMAX
 10
12.0
 20
9.0
  9
$UNITMODE
 70
     0
  9
$VISRETAIN
 70
     0
  9
$PLINEGEN
 70
     0
  9
$PSLTSCALE
 70
     0
  0
ENDSEC
  0
SECTION
  2
TABLES
  0
TABLE
  2
VPORT
 70
     1
  0
VPORT
  2
*ACTIVE
 70
     0
 10
0.0
 20
0.0
 11
1.0
 21
1.0
 12
195.0581083320873
 22
133.5127261426681
 13
0.0
 23
0.0
 14
5.0
 24
5.0
 15
10.0
 25
10.0
 16
0.0
 26
0.0
 36
1.0
 17
0.0
 27
0.0
 37
0.0
 40
275.42274993631997
 41
1.831871345029239
 42
50.0
 43
0.0
 44
0.0
 50
0.0
 51
0.0
 71
     0
 72
   500
 73
     1
 74
     0
 75
     0
 76
     0
 77
     0
 78
     2
  0
ENDTAB
  0
TABLE
  2
LTYPE
 70
     3
  0
LTYPE
  2
CONTINUOUS
 70
     0
  3
Solid Line
 72
    65
 73
     0
 40
0.0
  0
LTYPE
  2
CENTER
 70
     0
  3
____ _ ____ _ ____ _ ____ _ ____ _ ____ _ ____
 72
    65
 73
     4
 40
2.0
 49
1.25
 49
-0.25
 49
0.25
 49
-0.25
  0
LTYPE
  2
PHANTOM2
 70
     0
  3
___ _ _ ___ _ _ ___ _ _ ___ _ _
 72
    65
 73
     6
 40
1.25
 49
0.625
 49
-0.125
 49
0.125
 49
-0.125
 49
0.125
 49
-0.125
  0
ENDTAB
  0
TABLE
  2
LAYER
 70
     3
  0
LAYER
  2
0
 70
     0
 62
     7
  6
CONTINUOUS
  0
LAYER
  2
1
 70
     0
 62
     1
  6
CENTER
  0
LAYER
  2
4
 70
     0
 62
     4
  6
CONTINUOUS
  0
ENDTAB
  0
TABLE
  2
STYLE
 70
     2
  0
STYLE
  2
STANDARD
 70
     0
 40
0.0
 41
1.0
 50
0.0
 71
     0
 42
4.000000000000048
  3
TXT
  4
BIGFONT
  0
STYLE
  2
STANDARD1
 70
     0
 40
0.0
 41
1.0
 50
0.0
 71
     0
 42
3.0
  3
txt
  4

  0
ENDTAB
  0
TABLE
  2
VIEW
 70
     1
  0
VIEW
  2
ALL
 70
     0
 40
270.0
 10
220.99159663865549
 20
135.0
 41
0.0
 11
0.0
 21
0.0
 31
1.0
 12
0.0
 22
0.0
 32
0.0
 42
0.0
 43
0.0
 44
0.0
 50
0.0
 71
     0
  0
ENDTAB
  0
TABLE
  2
UCS
 70
     0
  0
ENDTAB
  0
TABLE
  2
APPID
 70
     3
  0
APPID
  2
ACAD
 70
     0
  0
APPID
  2
ACAD_MLEADERVER
 70
     0
  0
APPID
  2
ACAD_NAV_VCDISPLAY
 70
     0
  0
ENDTAB
  0
TABLE
  2
DIMSTYLE
 70
     1
  0
DIMSTYLE
  2
STANDARD
 70
     0
  3

  4

  5

  6

  7

 40
1.0
 41
0.18
 42
0.0625
 43
0.38
 44
0.18
 45
0.0
 46
0.0
 47
0.0
 48
0.0
140
0.18
141
0.09
142
0.0
143
25.399999999999999
144
1.0
145
0.0
146
1.0
147
0.09
 71
     0
 72
     0
 73
     1
 74
     1
 75
     0
 76
     0
 77
     0
 78
     0
170
     0
171
     2
172
     0
173
     0
174
     0
175
     0
176
     0
177
     0
178
     0
  0
ENDTAB
  0
ENDSEC
  0
SECTION
  2
BLOCKS
  0
BLOCK
  8
0
  2
$MODEL_SPACE
 70
     0
 10
0.0
 20
0.0
 30
0.0
  3
$MODEL_SPACE
  1

  0
ENDBLK
  5
F3
  8
0
  0
BLOCK
 67
     1
  8
0
  2
$PAPER_SPACE
 70
     0
 10
0.0
 20
0.0
 30
0.0
  3
$PAPER_SPACE
  1

  0
ENDBLK
  5
F1
 67
     1
  8
0
  0
ENDSEC
  0
SECTION
  2
ENTITIES
  0
ARC
  5
8D
  8
0
 10
124.3863053370039
 20
168.01528776978409
 30
0.0
 40
4.0
 50
180.0
 51
270.0
  0
LINE
  5
8E
  8
0
 10
124.3863053370039
 20
204.01528776978409
 30
0.0
 11
130.44517983751149
 21
204.01528776978409
 31
0.0
  0
LINE
  5
8F
  8
0
 10
120.3863053370039
 20
200.01528776978409
 30
0.0
 11
120.3863053370039
 21
168.01528776978409
 31
0.0
  0
ARC
  5
90
  8
0
 10
124.3863053370039
 20
200.01528776978409
 30
0.0
 40
4.0
 50
89.999999999999986
 51
180.0
  0
LINE
  5
91
  8
0
 10
160.3863053370039
 20
168.01528776978409
 30
0.0
 11
160.3863053370039
 21
174.07416227029171
 31
0.0
  0
ARC
  5
92
  8
0
 10
156.3863053370039
 20
168.01528776978409
 30
0.0
 40
4.0
 50
270.0
 51
0.0
  0
LINE
  5
93
  8
1
 10
140.3863053370039
 20
202.80208433164961
 30
0.0
 11
140.3863053370039
 21
159.01528776978409
 31
0.0
  0
LINE
  5
94
  8
1
 10
115.3863053370039
 20
184.01528776978409
 30
0.0
 11
159.17310189886939
 21
184.01528776978421
 31
0.0
  0
LINE
  5
95
  8
0
 10
156.3863053370039
 20
164.01528776978409
 30
0.0
 11
124.3863053370039
 21
164.01528776978409
 31
0.0
  0
LINE
  5
96
  8
0
 10
133.27360696225759
 20
202.84371489453031
 30
0.0
 11
159.2147338104493
 21
176.90258804633879
 31
0.0
  0
ARC
  5
97
  8
0
 10
130.44517983751149
 20
200.01528776978409
 30
0.0
 40
4.0
 50
45.0
 51
89.999999999999915
  0
ARC
  5
98
  8
0
 10
156.3863053370039
 20
174.07416227029171
 30
0.0
 40
4.0
 50
0.0000000000001018
 51
45.0
  0
LINE
  5
99
  8
0
 10
122.3863053370039
 20
92.023381294964025
 30
0.0
 11
158.3863053370039
 21
92.023381294964025
 31
0.0
  0
LINE
  5
9A
  8
0
 10
160.3863053370039
 20
90.023381294964025
 30
0.0
 11
160.3863053370039
 21
88.023381294964025
 31
0.0
  0
LINE
  5
9B
  8
0
 10
160.3863053370039
 20
88.023381294964025
 30
0.0
 11
120.3863053370039
 21
88.023381294964025
 31
0.0
  0
LINE
  5
9C
  8
0
 10
120.3863053370039
 20
88.023381294964025
 30
0.0
 11
120.3863053370039
 21
90.023381294964025
 31
0.0
  0
LINE
  5
9D
  8
0
 10
138.3863053370039
 20
79.023381294964025
 30
0.0
 11
142.3863053370039
 21
79.023381294964025
 31
0.0
  0
ARC
  5
9E
  8
0
 10
122.3863053370039
 20
90.023381294964025
 30
0.0
 40
2.0
 50
90.000000000000057
 51
180.0
  0
ARC
  5
9F
  8
0
 10
158.3863053370039
 20
90.023381294964025
 30
0.0
 40
2.0
 50
360.0
 51
90.0
  0
LINE
  5
A0
  8
0
 10
142.65630533700389
 20
88.023381294964025
 30
0.0
 11
142.3863053370039
 21
79.023381294964025
 31
0.0
  0
LINE
  5
A1
  8
0
 10
138.11630533700381
 20
88.023381294964025
 30
0.0
 11
138.3863053370039
 21
79.023381294964025
 31
0.0
  0
ARC
  5
A2
  8
0
 10
133.8863053370039
 20
87.223381294964028
 30
0.0
 40
2.0
 50
180.0
 51
360.0
  0
LINE
  5
A3
  8
0
 10
131.8863053370039
 20
87.223381294964028
 30
0.0
 11
131.8863053370039
 21
88.023381294964025
 31
0.0
  0
LINE
  5
A4
  8
0
 10
135.8863053370039
 20
87.223381294964028
 30
0.0
 11
135.8863053370039
 21
88.023381294964025
 31
0.0
  0
LINE
  5
A5
  8
1
 10
133.8863053370039
 20
80.223381294963914
 30
0.0
 11
133.8863053370039
 21
93.023381294964025
 31
0.0
  0
LINE
  5
A6
  8
1
 10
140.3863053370039
 20
74.023381294964025
 30
0.0
 11
140.3863053370039
 21
97.023381294964025
 31
0.0
  0
LINE
  5
A7
  8
1
 10
242.5982282310471
 20
74.023381294964025
 30
0.0
 11
242.5982282310471
 21
97.023381294964025
 31
0.0
  0
LINE
  5
A8
  8
1
 10
253.5982282310471
 20
80.223381294963929
 30
0.0
 11
253.5982282310471
 21
93.023381294964025
 31
0.0
  0
LINE
  5
A9
  8
0
 10
255.5982282310471
 20
87.223381294964057
 30
0.0
 11
255.5982282310471
 21
88.023381294964025
 31
0.0
  0
LINE
  5
AA
  8
0
 10
251.5982282310471
 20
87.223381294964057
 30
0.0
 11
251.5982282310471
 21
88.023381294964025
 31
0.0
  0
ARC
  5
AB
  8
0
 10
253.5982282310471
 20
87.223381294964057
 30
0.0
 40
2.0
 50
180.0
 51
0.0
  0
LINE
  5
AC
  8
0
 10
239.32822823104701
 20
88.023381294964025
 30
0.0
 11
239.5982282310471
 21
79.023381294964025
 31
0.0
  0
LINE
  5
AD
  8
0
 10
245.86822823104711
 20
88.023381294964025
 30
0.0
 11
245.5982282310471
 21
79.023381294964025
 31
0.0
  0
ARC
  5
AE
  8
0
 10
260.59822823104707
 20
90.023381294964025
 30
0.0
 40
2.0
 50
0.0
 51
90.0
  0
ARC
  5
AF
  8
0
 10
224.5982282310471
 20
90.023381294964025
 30
0.0
 40
2.0
 50
90.000000000000099
 51
180.0
  0
LINE
  5
B0
  8
0
 10
239.5982282310471
 20
79.023381294964025
 30
0.0
 11
245.5982282310471
 21
79.023381294964025
 31
0.0
  0
LINE
  5
B1
  8
0
 10
222.5982282310471
 20
88.023381294964025
 30
0.0
 11
222.5982282310471
 21
90.023381294964025
 31
0.0
  0
LINE
  5
B2
  8
0
 10
262.59822823104707
 20
88.023381294964025
 30
0.0
 11
222.5982282310471
 21
88.023381294964025
 31
0.0
  0
LINE
  5
B3
  8
0
 10
262.59822823104707
 20
90.023381294964025
 30
0.0
 11
262.59822823104707
 21
88.023381294964025
 31
0.0
  0
LINE
  5
B4
  8
0
 10
224.5982282310471
 20
92.023381294964025
 30
0.0
 11
260.59822823104707
 21
92.023381294964025
 31
0.0
  0
TEXT
  5
21A
  8
0
 62
     3
 10
0.0
 20
0.0
 30
0.0
 40
10.0
  1
ECP4040-45
  7
STANDARD1
  0
ENDSEC
  0
EOF
