  0
SECTION
  2
HEADER
  9
$ACADVER
  1
AC1009
  9
$INSBASE
 10
0.0
 20
0.0
 30
0.0
  9
$EXTMIN
 10
0.0
 20
-2.960436562073669
 30
0.0
  9
$EXTMAX
 10
191.80921191244309
 20
160.86918254605351
 30
0.0
  9
$LIMMIN
 10
0.0
 20
0.0
  9
$LIMMAX
 10
375.0
 20
278.0
  9
$ORTHOMODE
 70
     0
  9
$REGENMODE
 70
     1
  9
$FILLMODE
 70
     1
  9
$QTEXTMODE
 70
     0
  9
$MIRRTEXT
 70
     0
  9
$DRAGMODE
 70
     2
  9
$LTSCALE
 40
5.0
  9
$OSMODE
 70
  3071
  9
$ATTMODE
 70
     1
  9
$TEXTSIZE
 40
0.2
  9
$TRACEWID
 40
0.05
  9
$TEXTSTYLE
  7
STANDARD
  9
$CLAYER
  8
0
  9
$CELTYPE
  6
BYLAYER
  9
$CECOLOR
 62
   256
  9
$DIMSCALE
 40
1.0
  9
$DIMASZ
 40
3.0
  9
$DIMEXO
 40
1.0
  9
$DIMDLI
 40
6.0
  9
$DIMRND
 40
0.0
  9
$DIMDLE
 40
0.0
  9
$DIMEXE
 40
1.0
  9
$DIMTP
 40
495.0
  9
$DIMTM
 40
0.0
  9
$DIMTXT
 40
3.0
  9
$DIMCEN
 40
0.0
  9
$DIMTSZ
 40
0.0
  9
$DIMTOL
 70
     0
  9
$DIMLIM
 70
     0
  9
$DIMTIH
 70
     0
  9
$DIMTOH
 70
     0
  9
$DIMSE1
 70
     0
  9
$DIMSE2
 70
     0
  9
$DIMTAD
 70
     1
  9
$DIMZIN
 70
     0
  9
$DIMBLK
  1

  9
$DIMASO
 70
     0
  9
$DIMSHO
 70
     0
  9
$DIMPOST
  1

  9
$DIMAPOST
  1

  9
$DIMALT
 70
     0
  9
$DIMALTD
 70
     2
  9
$DIMALTF
 40
25.399999999999999
  9
$DIMLFAC
 40
1.0
  9
$DIMTOFL
 70
     1
  9
$DIMTVP
 40
0.0
  9
$DIMTIX
 70
     1
  9
$DIMSOXD
 70
     0
  9
$DIMSAH
 70
     0
  9
$DIMBLK1
  1

  9
$DIMBLK2
  1

  9
$DIMSTYLE
  2
STANDARD
  9
$DIMCLRD
 70
     0
  9
$DIMCLRE
 70
     0
  9
$DIMCLRT
 70
     4
  9
$DIMTFAC
 40
1.0
  9
$DIMGAP
 40
1.0
  9
$LUNITS
 70
     2
  9
$LUPREC
 70
     4
  9
$SKETCHINC
 40
0.1
  9
$FILLETRAD
 40
0.0
  9
$AUNITS
 70
     0
  9
$AUPREC
 70
     0
  9
$MENU
  1
C:\R13\WIN\SUPPORT\ACAD-I
  9
$ELEVATION
 40
0.0
  9
$PELEVATION
 40
0.0
  9
$THICKNESS
 40
0.0
  9
$LIMCHECK
 70
     0
  9
$BLIPMODE
 70
     0
  9
$CHAMFERA
 40
0.0
  9
$CHAMFERB
 40
0.0
  9
$SKPOLY
 70
     0
  9
$TDCREATE
 40
2451922.6672596182
  9
$TDUPDATE
 40
2456598.6566489581
  9
$TDINDWG
 40
0.0729440741
  9
$TDUSRTIMER
 40
0.0729440741
  9
$USRTIMER
 70
     1
  9
$ANGBASE
 50
0.0
  9
$ANGDIR
 70
     0
  9
$PDMODE
 70
     0
  9
$PDSIZE
 40
0.0
  9
$PLINEWID
 40
0.0
  9
$COORDS
 70
     1
  9
$SPLFRAME
 70
     0
  9
$SPLINETYPE
 70
     6
  9
$SPLINESEGS
 70
     8
  9
$ATTDIA
 70
     0
  9
$ATTREQ
 70
     1
  9
$HANDLING
 70
     1
  9
$HANDSEED
  5
3E36
  9
$SURFTAB1
 70
     6
  9
$SURFTAB2
 70
     6
  9
$SURFTYPE
 70
     6
  9
$SURFU
 70
     6
  9
$SURFV
 70
     6
  9
$UCSNAME
  2

  9
$UCSORG
 10
0.0
 20
0.0
 30
0.0
  9
$UCSXDIR
 10
1.0
 20
0.0
 30
0.0
  9
$UCSYDIR
 10
0.0
 20
1.0
 30
0.0
  9
$PUCSNAME
  2

  9
$PUCSORG
 10
0.0
 20
0.0
 30
0.0
  9
$PUCSXDIR
 10
1.0
 20
0.0
 30
0.0
  9
$PUCSYDIR
 10
0.0
 20
1.0
 30
0.0
  9
$USERI1
 70
     4
  9
$USERI2
 70
     1
  9
$USERI3
 70
     1
  9
$USERI4
 70
     0
  9
$USERI5
 70
     0
  9
$USERR1
 40
1.0
  9
$USERR2
 40
3.0
  9
$USERR3
 40
3.0
  9
$USERR4
 40
3.0
  9
$USERR5
 40
10.0
  9
$WORLDVIEW
 70
     1
  9
$SHADEDGE
 70
     3
  9
$SHADEDIF
 70
    70
  9
$TILEMODE
 70
     1
  9
$MAXACTVP
 70
    16
  9
$PLIMCHECK
 70
     0
  9
$PEXTMIN
 10
1.0000000000000000E+020
 20
1.0000000000000000E+020
 30
1.0000000000000000E+020
  9
$PEXTMAX
 10
-1.0000000000000000E+020
 20
-1.0000000000000000E+020
 30
-1.0000000000000000E+020
  9
$PLIMMIN
 10
0.0
 20
0.0
  9
$PLIMMAX
 10
12.0
 20
9.0
  9
$UNITMODE
 70
     0
  9
$VISRETAIN
 70
     0
  9
$PLINEGEN
 70
     0
  9
$PSLTSCALE
 70
     0
  0
ENDSEC
  0
SECTION
  2
TABLES
  0
TABLE
  2
VPORT
 70
     1
  0
VPORT
  2
*ACTIVE
 70
     0
 10
0.0
 20
0.0
 11
1.0
 21
1.0
 12
187.49427839065231
 22
174.97168974450321
 13
0.0
 23
0.0
 14
10.0
 24
10.0
 15
10.0
 25
10.0
 16
0.0
 26
0.0
 36
1.0
 17
0.0
 27
0.0
 37
0.0
 40
359.12869706410731
 41
1.831871345029239
 42
50.0
 43
0.0
 44
0.0
 50
0.0
 51
0.0
 71
     0
 72
   100
 73
     1
 74
     0
 75
     0
 76
     0
 77
     0
 78
     0
  0
ENDTAB
  0
TABLE
  2
LTYPE
 70
     4
  0
LTYPE
  2
CONTINUOUS
 70
     0
  3
Solid Line
 72
    65
 73
     0
 40
0.0
  0
LTYPE
  2
CENTER
 70
     0
  3
____ _ ____ _ ____ _ ____ _ ____ _ ____ _ ____
 72
    65
 73
     4
 40
2.0
 49
1.25
 49
-0.25
 49
0.25
 49
-0.25
  0
LTYPE
  2
HIDDEN
 70
     0
  3
__ __ __ __ __ __ __ __ __ __ __ __ __ __ __ __
 72
    65
 73
     2
 40
0.375
 49
0.25
 49
-0.125
  0
LTYPE
  2
PHANTOM2
 70
     0
  3
___ _ _ ___ _ _ ___ _ _ ___ _ _
 72
    65
 73
     6
 40
1.25
 49
0.625
 49
-0.125
 49
0.125
 49
-0.125
 49
0.125
 49
-0.125
  0
ENDTAB
  0
TABLE
  2
LAYER
 70
     4
  0
LAYER
  2
0
 70
     0
 62
     7
  6
CONTINUOUS
  0
LAYER
  2
1
 70
     0
 62
     1
  6
CENTER
  0
LAYER
  2
3
 70
     0
 62
     3
  6
CONTINUOUS
  0
LAYER
  2
2
 70
     0
 62
     2
  6
HIDDEN
  0
ENDTAB
  0
TABLE
  2
STYLE
 70
     2
  0
STYLE
  2
STANDARD
 70
     0
 40
0.0
 41
1.0
 50
0.0
 71
     0
 42
0.2
  3
SIMPLEX
  4
BIGFONT
  0
STYLE
  2
STANDARD1
 70
     0
 40
0.0
 41
1.0
 50
0.0
 71
     0
 42
3.0
  3
txt
  4

  0
ENDTAB
  0
TABLE
  2
VIEW
 70
     0
  0
ENDTAB
  0
TABLE
  2
UCS
 70
     0
  0
ENDTAB
  0
TABLE
  2
APPID
 70
    39
  0
APPID
  2
ACAD
 70
     0
  0
APPID
  2
GENIUS_GENOBJ_13
 70
     0
  0
APPID
  2
GENIUS_GENODEF_13
 70
     0
  0
APPID
  2
GENIUS_GENOENT_13
 70
     0
  0
APPID
  2
GENIUS_GENOLIS_13
 70
     0
  0
APPID
  2
GENIUS_GENOREF_13
 70
     0
  0
APPID
  2
GENIUS_GENOBJ-N-TIT_13
 70
     0
  0
APPID
  2
GENIUS_GENTITLE_13
 70
     0
  0
APPID
  2
GENIUS_GENZVEED_13
 70
     0
  0
APPID
  2
GENIUS_GENOBJ-N-FIL_13
 70
     0
  0
APPID
  2
GENIUS_GENOBJ-N-CRS_13
 70
     0
  0
APPID
  2
GENIUS_GEFINERT_13
 70
     0
  0
APPID
  2
GENIUS_GENOBJ-F-INER_13
 70
     0
  0
APPID
  2
GENIUS_GENOBJ-N-ZOO_13
 70
     0
  0
APPID
  2
GENIUS_GENZOO_13
 70
     0
  0
APPID
  2
GENIUS_GENOBJ-F-TOL_13
 70
     0
  0
APPID
  2
GENIUS_GENOBJ-N-RSSYM_13
 70
     0
  0
APPID
  2
GENIUS_GENSYMENT_13
 70
     0
  0
APPID
  2
GENIUS_GENBH_13
 70
     0
  0
APPID
  2
GENIUS_GENOBJ-NBEHI-BHF_13
 70
     0
  0
APPID
  2
GENIUS_GENOBJ-NBEHI-BHB_13
 70
     0
  0
APPID
  2
GENIUS_GENOBJ-F-PART_13
 70
     0
  0
APPID
  2
GENIUS_GEFSTDP_13
 70
     0
  0
APPID
  2
GENIUS_GENOBJ-N-LEADER_13
 70
     0
  0
APPID
  2
GENIUS_GENOBJ-N-REV_13
 70
     0
  0
APPID
  2
GENIUS_GENCFG_13
 70
     0
  0
APPID
  2
GENIUS_GENCFG0_13
 70
     0
  0
APPID
  2
GENIUS_GENCFG1_13
 70
     0
  0
APPID
  2
GENIUS_GENCFG2_13
 70
     0
  0
APPID
  2
GENIUS_GENCFG3_13
 70
     0
  0
APPID
  2
GENIUS_GEVCFG0_13
 70
     0
  0
APPID
  2
GENIUS_GENCFG4_13
 70
     0
  0
APPID
  2
GENIUS_GENOBJ-N-REC_13
 70
     0
  0
APPID
  2
GENIUS_GENFIL_13
 70
     0
  0
APPID
  2
GENIUS_GENOBJ-N-CHA_13
 70
     0
  0
APPID
  2
GENIUS_GENREC_13
 70
     0
  0
APPID
  2
DCO15
 70
     0
  0
APPID
  2
ACAD_MLEADERVER
 70
     0
  0
APPID
  2
ACAD_NAV_VCDISPLAY
 70
     0
  0
ENDTAB
  0
TABLE
  2
DIMSTYLE
 70
     1
  0
DIMSTYLE
  2
STANDARD
 70
     0
  3

  4

  5

  6

  7

 40
1.0
 41
0.18
 42
0.0625
 43
0.38
 44
0.18
 45
0.0
 46
0.0
 47
0.0
 48
0.0
140
0.18
141
0.09
142
0.0
143
25.399999999999999
144
1.0
145
0.0
146
1.0
147
0.09
 71
     0
 72
     0
 73
     1
 74
     1
 75
     0
 76
     0
 77
     0
 78
     0
170
     0
171
     2
172
     0
173
     0
174
     0
175
     0
176
     0
177
     0
178
     0
  0
ENDTAB
  0
ENDSEC
  0
SECTION
  2
BLOCKS
  0
BLOCK
  8
0
  2
$MODEL_SPACE
 70
     0
 10
0.0
 20
0.0
 30
0.0
  3
$MODEL_SPACE
  1

  0
ENDBLK
  5
197D
  8
0
  0
BLOCK
 67
     1
  8
0
  2
$PAPER_SPACE
 70
     0
 10
0.0
 20
0.0
 30
0.0
  3
$PAPER_SPACE
  1

  0
ENDBLK
  5
197B
 67
     1
  8
0
  0
BLOCK
  8
0
  2
STDGX5
 70
     0
 10
0.0
 20
0.0
 30
0.0
  3
STDGX5
  1

  0
ENDBLK
  5
4F
  8
0
  0
ENDSEC
  0
SECTION
  2
ENTITIES
  0
INSERT
  5
DE
  8
0
  2
STDGX5
 10
0.0
 20
0.0
 30
0.0
  0
INSERT
  5
DF
  8
0
  2
STDGX5
 10
0.0
 20
0.0
 30
0.0
  0
INSERT
  5
15C
  8
0
  2
STDGX5
 10
275.0
 20
0.0
 30
0.0
  0
INSERT
  5
15D
  8
0
  2
STDGX5
 10
275.0
 20
0.0
 30
0.0
  0
INSERT
  5
314
  8
0
  2
STDGX5
 10
0.0
 20
0.0
 30
0.0
  0
INSERT
  5
315
  8
0
  2
STDGX5
 10
0.0
 20
0.0
 30
0.0
  0
INSERT
  5
316
  8
0
  2
STDGX5
 10
275.0
 20
0.0
 30
0.0
  0
INSERT
  5
317
  8
0
  2
STDGX5
 10
275.0
 20
0.0
 30
0.0
  0
INSERT
  5
4EF
  8
0
  2
STDGX5
 10
0.0
 20
0.0
 30
0.0
  0
INSERT
  5
4F0
  8
0
  2
STDGX5
 10
0.0
 20
0.0
 30
0.0
  0
INSERT
  5
4F1
  8
0
  2
STDGX5
 10
275.0
 20
0.0
 30
0.0
  0
INSERT
  5
4F2
  8
0
  2
STDGX5
 10
275.0
 20
0.0
 30
0.0
  0
ARC
  5
33EE
  8
0
 10
105.8068739610967
 20
79.844897869388035
 30
0.0
 40
1.0
 50
0.0
 51
90.0
1001
GENIUS_GENODEF_13
1002
{
1000
HIER
1070
     0
1002
}
1002
{
1000
MANEDIT
1070
     0
1002
}
1002
{
1000
NOSEL
1070
     0
1002
}
1002
{
1000
BEHIND
1070
     0
1002
}
1002
{
1000
REACTOR
1002
}
1001
GENIUS_GENOBJ-N-FIL_13
1002
{
1000
OWNER
1000
GEN
1002
}
  0
ARC
  5
33EF
  8
0
 10
100.6828089028846
 20
79.844897869388035
 30
0.0
 40
1.0
 50
0.0
 51
90.0
1001
GENIUS_GENODEF_13
1002
{
1000
HIER
1070
     0
1002
}
1002
{
1000
MANEDIT
1070
     0
1002
}
1002
{
1000
NOSEL
1070
     0
1002
}
1002
{
1000
BEHIND
1070
     0
1002
}
1002
{
1000
REACTOR
1002
}
1001
GENIUS_GENOBJ-N-FIL_13
1002
{
1000
OWNER
1000
GEN
1002
}
  0
ARC
  5
33F0
  8
0
 10
102.6828089028846
 20
79.844897869388035
 30
0.0
 40
1.0
 50
90.0
 51
180.0
1001
GENIUS_GENODEF_13
1002
{
1000
HIER
1070
     0
1002
}
1002
{
1000
MANEDIT
1070
     0
1002
}
1002
{
1000
NOSEL
1070
     0
1002
}
1002
{
1000
BEHIND
1070
     0
1002
}
1002
{
1000
REACTOR
1002
}
1001
GENIUS_GENOBJ-N-FIL_13
1002
{
1000
OWNER
1000
GEN
1002
}
  0
ARC
  5
33F1
  8
0
 10
95.807696939498086
 20
79.844897869388035
 30
0.0
 40
1.0
 50
0.0000000000004071
 51
90.0
1001
GENIUS_GENODEF_13
1002
{
1000
HIER
1070
     0
1002
}
1002
{
1000
MANEDIT
1070
     0
1002
}
1002
{
1000
NOSEL
1070
     0
1002
}
1002
{
1000
BEHIND
1070
     0
1002
}
1002
{
1000
REACTOR
1002
}
1001
GENIUS_GENOBJ-N-FIL_13
1002
{
1000
OWNER
1000
GEN
1002
}
  0
ARC
  5
33F2
  8
0
 10
92.933019100453109
 20
79.844897869388035
 30
0.0
 40
1.0
 50
90.0
 51
180.0
1001
GENIUS_GENODEF_13
1002
{
1000
HIER
1070
     0
1002
}
1002
{
1000
MANEDIT
1070
     0
1002
}
1002
{
1000
NOSEL
1070
     0
1002
}
1002
{
1000
BEHIND
1070
     0
1002
}
1002
{
1000
REACTOR
1002
}
1001
GENIUS_GENOBJ-N-FIL_13
1002
{
1000
OWNER
1000
GEN
1002
}
  0
ARC
  5
33F3
  8
0
 10
86.05801912564597
 20
79.844897869388035
 30
0.0
 40
1.0
 50
0.0
 51
90.0
1001
GENIUS_GENODEF_13
1002
{
1000
HIER
1070
     0
1002
}
1002
{
1000
MANEDIT
1070
     0
1002
}
1002
{
1000
NOSEL
1070
     0
1002
}
1002
{
1000
BEHIND
1070
     0
1002
}
1002
{
1000
REACTOR
1002
}
1001
GENIUS_GENOBJ-N-FIL_13
1002
{
1000
OWNER
1000
GEN
1002
}
  0
ARC
  5
33F4
  8
0
 10
88.058019125645913
 20
79.844897869388035
 30
0.0
 40
1.0
 50
90.0
 51
180.0
1001
GENIUS_GENODEF_13
1002
{
1000
HIER
1070
     0
1002
}
1002
{
1000
MANEDIT
1070
     0
1002
}
1002
{
1000
NOSEL
1070
     0
1002
}
1002
{
1000
BEHIND
1070
     0
1002
}
1002
{
1000
REACTOR
1002
}
1001
GENIUS_GENOBJ-N-FIL_13
1002
{
1000
OWNER
1000
GEN
1002
}
  0
ARC
  5
33F5
  8
0
 10
90.933019100453095
 20
79.844897869388035
 30
0.0
 40
1.0
 50
0.0
 51
90.0
1001
GENIUS_GENODEF_13
1002
{
1000
HIER
1070
     0
1002
}
1002
{
1000
MANEDIT
1070
     0
1002
}
1002
{
1000
NOSEL
1070
     0
1002
}
1002
{
1000
BEHIND
1070
     0
1002
}
1002
{
1000
REACTOR
1002
}
1001
GENIUS_GENOBJ-N-FIL_13
1002
{
1000
OWNER
1000
GEN
1002
}
  0
ARC
  5
33F6
  8
0
 10
97.807696939498086
 20
79.844897869388035
 30
0.0
 40
1.0
 50
90.0
 51
180.0000000000004
1001
GENIUS_GENODEF_13
1002
{
1000
HIER
1070
     0
1002
}
1002
{
1000
MANEDIT
1070
     0
1002
}
1002
{
1000
NOSEL
1070
     0
1002
}
1002
{
1000
BEHIND
1070
     0
1002
}
1002
{
1000
REACTOR
1002
}
1001
GENIUS_GENOBJ-N-FIL_13
1002
{
1000
OWNER
1000
GEN
1002
}
  0
LINE
  5
33F7
  8
1
 10
87.057379160768861
 20
63.344897869388092
 30
0.0
 11
87.056751476937421
 21
83.844897869388035
 31
0.0
  0
ARC
  5
33F8
  8
0
 10
81.183019150838774
 20
79.844897869388035
 30
0.0
 40
1.0
 50
0.0
 51
90.0
1001
GENIUS_GENODEF_13
1002
{
1000
HIER
1070
     0
1002
}
1002
{
1000
MANEDIT
1070
     0
1002
}
1002
{
1000
NOSEL
1070
     0
1002
}
1002
{
1000
BEHIND
1070
     0
1002
}
1002
{
1000
REACTOR
1002
}
1001
GENIUS_GENOBJ-N-FIL_13
1002
{
1000
OWNER
1000
GEN
1002
}
  0
ARC
  5
33F9
  8
0
 10
83.183019150838774
 20
79.844897869388035
 30
0.0
 40
1.0
 50
90.0
 51
180.0
1001
GENIUS_GENODEF_13
1002
{
1000
HIER
1070
     0
1002
}
1002
{
1000
MANEDIT
1070
     0
1002
}
1002
{
1000
NOSEL
1070
     0
1002
}
1002
{
1000
BEHIND
1070
     0
1002
}
1002
{
1000
REACTOR
1002
}
1001
GENIUS_GENOBJ-N-FIL_13
1002
{
1000
OWNER
1000
GEN
1002
}
  0
ARC
  5
33FA
  8
0
 10
73.433229348407295
 20
79.844897869388035
 30
0.0
 40
1.0
 50
90.0
 51
180.0
1001
GENIUS_GENODEF_13
1002
{
1000
HIER
1070
     0
1002
}
1002
{
1000
MANEDIT
1070
     0
1002
}
1002
{
1000
NOSEL
1070
     0
1002
}
1002
{
1000
BEHIND
1070
     0
1002
}
1002
{
1000
REACTOR
1002
}
1001
GENIUS_GENOBJ-N-FIL_13
1002
{
1000
OWNER
1000
GEN
1002
}
  0
ARC
  5
33FB
  8
0
 10
76.308341311793797
 20
79.844897869388035
 30
0.0
 40
1.0
 50
359.9999999999996
 51
90.0
1001
GENIUS_GENODEF_13
1002
{
1000
HIER
1070
     0
1002
}
1002
{
1000
MANEDIT
1070
     0
1002
}
1002
{
1000
NOSEL
1070
     0
1002
}
1002
{
1000
BEHIND
1070
     0
1002
}
1002
{
1000
REACTOR
1002
}
1001
GENIUS_GENOBJ-N-FIL_13
1002
{
1000
OWNER
1000
GEN
1002
}
  0
ARC
  5
33FC
  8
0
 10
78.308341311793797
 20
79.844897869388035
 30
0.0
 40
1.0
 50
90.0
 51
179.9999999999996
1001
GENIUS_GENODEF_13
1002
{
1000
HIER
1070
     0
1002
}
1002
{
1000
MANEDIT
1070
     0
1002
}
1002
{
1000
NOSEL
1070
     0
1002
}
1002
{
1000
BEHIND
1070
     0
1002
}
1002
{
1000
REACTOR
1002
}
1001
GENIUS_GENOBJ-N-FIL_13
1002
{
1000
OWNER
1000
GEN
1002
}
  0
ARC
  5
33FD
  8
0
 10
68.306873942568131
 20
79.844898044545062
 30
0.0
 40
1.0
 50
90.0
 51
180.0
1001
GENIUS_GENODEF_13
1002
{
1000
HIER
1070
     0
1002
}
1002
{
1000
MANEDIT
1070
     0
1002
}
1002
{
1000
NOSEL
1070
     0
1002
}
1002
{
1000
BEHIND
1070
     0
1002
}
1002
{
1000
REACTOR
1002
}
1001
GENIUS_GENOBJ-N-FIL_13
1002
{
1000
OWNER
1000
GEN
1002
}
  0
ARC
  5
33FE
  8
0
 10
71.433229348407295
 20
79.844897869388035
 30
0.0
 40
1.0
 50
0.0
 51
90.0
1001
GENIUS_GENODEF_13
1002
{
1000
HIER
1070
     0
1002
}
1002
{
1000
MANEDIT
1070
     0
1002
}
1002
{
1000
NOSEL
1070
     0
1002
}
1002
{
1000
BEHIND
1070
     0
1002
}
1002
{
1000
REACTOR
1002
}
1001
GENIUS_GENOBJ-N-FIL_13
1002
{
1000
OWNER
1000
GEN
1002
}
  0
LINE
  5
33FF
  8
0
 10
67.306873942568131
 20
66.844897869388092
 30
0.0
 11
106.80564222055609
 21
66.844897869388092
 31
0.0
  0
LINE
  5
3400
  8
0
 10
69.306036907283854
 20
76.344897869388035
 30
0.0
 11
104.80564222055609
 21
76.344897869388035
 31
0.0
  0
LINE
  5
3401
  8
0
 10
78.308341311793797
 20
80.844897869388035
 30
0.0
 11
81.183019150838774
 21
80.844897869388035
 31
0.0
  0
LINE
  5
3402
  8
0
 10
67.306873942568131
 20
66.844897869388092
 30
0.0
 11
67.306873942568131
 21
79.844898044545062
 31
0.0
  0
LINE
  5
3403
  8
1
 10
74.506243354064523
 20
77.344897869388035
 30
0.0
 11
74.507477106861629
 21
64.344897869388092
 31
0.0
  0
LINE
  5
3404
  8
2
 10
77.255721695755199
 20
70.344285709861936
 30
0.0
 11
77.255874789383142
 21
67.844285540549436
 31
0.0
  0
LINE
  5
3405
  8
2
 10
71.755480137781674
 20
70.343948889110834
 30
0.0
 11
71.755633231409632
 21
67.843948719798334
 31
0.0
  0
LINE
  5
3406
  8
2
 10
76.50723984670833
 20
66.844897869388092
 30
0.0
 11
76.507239846708359
 21
73.344897869388092
 31
0.0
  0
LINE
  5
3407
  8
2
 10
72.50723984670833
 20
66.844897869388092
 30
0.0
 11
72.507239846708345
 21
73.344897869388092
 31
0.0
  0
LINE
  5
3408
  8
2
 10
72.807239846708342
 20
66.844897869388092
 30
0.0
 11
72.807239846708342
 21
73.344897869388092
 31
0.0
  0
LINE
  5
3409
  8
2
 10
76.207239846708305
 20
66.844897869388092
 30
0.0
 11
76.207239846708362
 21
73.344897869388092
 31
0.0
  0
LINE
  5
340A
  8
2
 10
70.464181258831076
 20
67.843869634576606
 30
0.0
 11
70.464242496282282
 21
66.843869566451644
 31
0.0
  0
LINE
  5
340B
  8
2
 10
71.755633231409632
 20
67.843948719798334
 30
0.0
 11
70.464181258831076
 21
67.843869634576606
 31
0.0
  0
LINE
  5
340C
  8
2
 10
77.255874789383142
 20
67.844285540549436
 30
0.0
 11
78.547326761961671
 21
67.844364625771163
 31
0.0
  0
LINE
  5
340D
  8
2
 10
78.547326761961671
 20
67.844364625771163
 30
0.0
 11
78.547387999412877
 21
66.844364557646202
 31
0.0
  0
LINE
  5
340E
  8
2
 10
78.546989923348491
 20
73.344897869388092
 30
0.0
 11
70.463844389905901
 21
73.344897869388092
 31
0.0
  0
LINE
  5
340F
  8
0
 10
72.433229348407266
 20
76.344897869388021
 30
0.0
 11
72.433229348407266
 21
79.844897869388035
 31
0.0
  0
ARC
  5
3410
  8
0
 10
69.306873942568131
 20
74.344898044545062
 30
0.0
 40
2.0
 50
90.0
 51
180.0
1001
GENIUS_GENODEF_13
1002
{
1000
HIER
1070
     0
1002
}
1002
{
1000
MANEDIT
1070
     0
1002
}
1002
{
1000
NOSEL
1070
     0
1002
}
1002
{
1000
BEHIND
1070
     0
1002
}
1002
{
1000
REACTOR
1002
}
1001
GENIUS_GENOBJ-N-FIL_13
1002
{
1000
OWNER
1000
GEN
1002
}
  0
LINE
  5
3411
  8
2
 10
70.463844389905901
 20
73.344897869388063
 30
0.0
 11
70.464028165203132
 21
70.343869803889106
 31
0.0
  0
LINE
  5
3412
  8
2
 10
71.755480137781674
 20
70.343948889110834
 30
0.0
 11
70.464028165203132
 21
70.343869803889106
 31
0.0
  0
LINE
  5
3413
  8
0
 10
68.306282069268875
 20
80.844897869388035
 30
0.0
 11
71.433229348407295
 21
80.844897869388035
 31
0.0
  0
LINE
  5
3414
  8
0
 10
77.308341311793754
 20
76.344897869388035
 30
0.0
 11
77.308341311793768
 21
79.844897869388035
 31
0.0
  0
LINE
  5
3415
  8
2
 10
77.255721695755199
 20
70.344285709861936
 30
0.0
 11
78.547173668333727
 21
70.344364795083663
 31
0.0
  0
LINE
  5
3416
  8
2
 10
78.546989923348491
 20
73.344897869386074
 30
0.0
 11
78.547173668333727
 21
70.344364795083663
 31
0.0
  0
LINE
  5
3417
  8
0
 10
73.433229348407295
 20
80.844897869388035
 30
0.0
 11
76.308341311793797
 21
80.844897869388035
 31
0.0
  0
LINE
  5
3418
  8
0
 10
95.807696939498086
 20
80.844897869388035
 30
0.0
 11
92.933019100453109
 21
80.844897869388035
 31
0.0
  0
LINE
  5
341B
  8
0
 10
82.183019150838746
 20
76.344897869388035
 30
0.0
 11
82.183019150838774
 21
79.844897869388035
 31
0.0
  0
LINE
  5
341C
  8
0
 10
83.183019150838774
 20
80.844897869388035
 30
0.0
 11
86.05801912564597
 21
80.844897869388035
 31
0.0
  0
LINE
  5
341D
  8
0
 10
91.933019100453095
 20
76.344897869388035
 30
0.0
 11
91.933019100453109
 21
79.844897869388035
 31
0.0
  0
LINE
  5
341E
  8
0
 10
90.933019100453095
 20
80.844897869388035
 30
0.0
 11
88.058019125645913
 21
80.844897869388035
 31
0.0
  0
LINE
  5
341F
  8
2
 10
102.355721707474
 20
70.344285709861936
 30
0.0
 11
102.3558748011019
 21
67.844285540549436
 31
0.0
  0
LINE
  5
3420
  8
2
 10
96.855480149500522
 20
70.343948889110834
 30
0.0
 11
96.855633243128466
 21
67.843948719798334
 31
0.0
  0
LINE
  5
3421
  8
2
 10
101.3072398584271
 20
66.844897869388092
 30
0.0
 11
101.3072398584272
 21
73.344897869388092
 31
0.0
  0
LINE
  5
3422
  8
2
 10
97.907239858427175
 20
66.844897869388092
 30
0.0
 11
97.907239858427175
 21
73.344897869388092
 31
0.0
  0
LINE
  5
3423
  8
2
 10
97.607239858427164
 20
66.844897869388092
 30
0.0
 11
97.607239858427178
 21
73.344897869388092
 31
0.0
  0
LINE
  5
3424
  8
2
 10
101.60723985842711
 20
66.844897869388092
 30
0.0
 11
101.60723985842721
 21
73.344897869388092
 31
0.0
  0
LINE
  5
3425
  8
1
 10
99.606243365783357
 20
77.344897869427527
 30
0.0
 11
99.607477118580448
 21
64.344897869427584
 31
0.0
  0
LINE
  5
3426
  8
0
 10
106.80564222055609
 20
66.844897869388092
 30
0.0
 11
106.80564222055609
 21
75.34489762410351
 31
0.0
  0
LINE
  5
3427
  8
2
 10
102.3558748011019
 20
67.844285540549436
 30
0.0
 11
103.6473267736805
 21
67.844364625771163
 31
0.0
  0
LINE
  5
3428
  8
2
 10
95.564181270549909
 20
67.843869634576606
 30
0.0
 11
95.564242508001115
 21
66.843869566451644
 31
0.0
  0
LINE
  5
3429
  8
2
 10
96.855633243128466
 20
67.843948719798334
 30
0.0
 11
95.564181270549909
 21
67.843869634576606
 31
0.0
  0
LINE
  5
342A
  8
2
 10
103.6473267736805
 20
67.844364625771163
 30
0.0
 11
103.6473880111317
 21
66.844364557646202
 31
0.0
  0
LINE
  5
342B
  8
2
 10
103.6469899350673
 20
73.344897869388092
 30
0.0
 11
95.563844401624735
 21
73.344897869388092
 31
0.0
  0
LINE
  5
342C
  8
2
 10
102.355721707474
 20
70.344285709861936
 30
0.0
 11
103.6471736800525
 21
70.344364795083663
 31
0.0
  0
LINE
  5
342D
  8
0
 10
101.6828089028846
 20
76.344897869388035
 30
0.0
 11
101.6828089028846
 21
79.844897869388035
 31
0.0
  0
LINE
  5
342E
  8
0
 10
96.807696939498115
 20
76.344897869388035
 30
0.0
 11
96.807696939498115
 21
79.844897869388035
 31
0.0
  0
LINE
  5
342F
  8
2
 10
96.855480149500522
 20
70.343948889110834
 30
0.0
 11
95.564028176921965
 21
70.343869803889106
 31
0.0
  0
LINE
  5
3430
  8
2
 10
95.563844401624735
 20
73.344897869388092
 30
0.0
 11
95.564028176921965
 21
70.343869803889106
 31
0.0
  0
LINE
  5
3431
  8
0
 10
100.6828089028846
 20
80.844897869388035
 30
0.0
 11
97.807696939498086
 21
80.844897869388035
 31
0.0
  0
LINE
  5
3432
  8
0
 10
106.80564222055609
 20
75.34489762410351
 30
0.0
 11
106.8068739610967
 21
79.84489762410351
 31
0.0
  0
ARC
  5
3433
  8
0
 10
104.80564222055609
 20
74.344897869388035
 30
0.0
 40
2.0
 50
0.0
 51
90.0
1001
GENIUS_GENODEF_13
1002
{
1000
HIER
1070
     0
1002
}
1002
{
1000
MANEDIT
1070
     0
1002
}
1002
{
1000
NOSEL
1070
     0
1002
}
1002
{
1000
BEHIND
1070
     0
1002
}
1002
{
1000
REACTOR
1002
}
1001
GENIUS_GENOBJ-N-FIL_13
1002
{
1000
OWNER
1000
GEN
1002
}
  0
LINE
  5
3434
  8
2
 10
103.6469899350673
 20
73.344897869386074
 30
0.0
 11
103.6471736800525
 21
70.344364795083663
 31
0.0
  0
LINE
  5
3435
  8
0
 10
105.8068739610967
 20
80.844897869388035
 30
0.0
 11
102.6828089028846
 21
80.844897869388035
 31
0.0
  0
LINE
  5
3436
  8
1
 10
170.059211912443
 20
83.844897869388134
 30
0.0
 11
170.059211912443
 21
66.99231455641376
 31
0.0
  0
ARC
  5
3437
  8
0
 10
187.309211912443
 20
74.344897869388035
 30
0.0
 40
2.0
 50
0.0
 51
89.999999999999588
1001
GENIUS_GENODEF_13
1002
{
1000
HIER
1070
     0
1002
}
1002
{
1000
MANEDIT
1070
     0
1002
}
1002
{
1000
NOSEL
1070
     0
1002
}
1002
{
1000
BEHIND
1070
     0
1002
}
1002
{
1000
REACTOR
1002
}
1001
GENIUS_GENOBJ-N-FIL_13
1002
{
1000
OWNER
1000
GEN
1002
}
  0
LINE
  5
3438
  8
0
 10
189.30921191244309
 20
66.844897869388092
 30
0.0
 11
175.30921191244309
 21
66.844897869388092
 31
0.0
  0
LINE
  5
3439
  8
0
 10
152.809211912443
 20
76.344897869386699
 30
0.0
 11
161.059211912443
 21
76.34489786938741
 31
0.0
  0
LINE
  5
343A
  8
0
 10
150.8092119124438
 20
66.844897869386585
 30
0.0
 11
164.80921191244369
 21
66.844897869387708
 31
0.0
  0
LINE
  5
343B
  8
2
 10
161.59896198908311
 20
73.344897869387125
 30
0.0
 11
153.5158164556405
 21
73.344897869387125
 31
0.0
  0
LINE
  5
343C
  8
2
 10
155.559211912443
 20
66.844897869387125
 30
0.0
 11
155.559211912443
 21
73.344897869387125
 31
0.0
  0
LINE
  5
343D
  8
2
 10
155.85921191244299
 20
66.844897869387125
 30
0.0
 11
155.85921191244299
 21
73.344897869387125
 31
0.0
  0
LINE
  5
343E
  8
2
 10
154.80745220351631
 20
70.343948889109868
 30
0.0
 11
154.80760529714431
 21
67.843948719797368
 31
0.0
  0
LINE
  5
343F
  8
1
 10
157.559211912443
 20
64.344897869388092
 30
0.0
 11
157.559211912443
 21
77.344897869388078
 31
0.0
  0
LINE
  5
3440
  8
0
 10
150.80921191244369
 20
66.844897869388092
 30
0.0
 11
150.80921191244309
 21
74.344897869386514
 31
0.0
  0
LINE
  5
3441
  8
2
 10
154.80760529714431
 20
67.843948719797368
 30
0.0
 11
153.51615332456569
 21
67.843869634575626
 31
0.0
  0
LINE
  5
3442
  8
2
 10
153.51615332456569
 20
67.843869634575626
 30
0.0
 11
153.5162145620169
 21
66.843869566450664
 31
0.0
  0
ARC
  5
3443
  8
0
 10
152.8092119124432
 20
74.344897869386671
 30
0.0
 40
2.0
 50
90.000000000005087
 51
180.00000000000449
1001
GENIUS_GENODEF_13
1002
{
1000
HIER
1070
     0
1002
}
1002
{
1000
MANEDIT
1070
     0
1002
}
1002
{
1000
NOSEL
1070
     0
1002
}
1002
{
1000
BEHIND
1070
     0
1002
}
1002
{
1000
REACTOR
1002
}
1001
GENIUS_GENOBJ-N-FIL_13
1002
{
1000
OWNER
1000
GEN
1002
}
  0
LINE
  5
3444
  8
2
 10
154.80745220351631
 20
70.343948889109868
 30
0.0
 11
153.51600023093781
 21
70.34386980388814
 31
0.0
  0
LINE
  5
3445
  8
2
 10
153.5158164556405
 20
73.344897869387111
 30
0.0
 11
153.51600023093781
 21
70.34386980388814
 31
0.0
  0
LINE
  5
3446
  8
1
 10
174.559211912443
 20
76.344897869388092
 30
0.0
 11
165.559211912443
 21
76.344897869388092
 31
0.0
  0
LINE
  5
3447
  8
0
 10
179.29133104702569
 20
76.344897869388106
 30
0.0
 11
172.447070268136
 21
80.216346965746695
 31
0.0
  0
LINE
  5
3448
  8
0
 10
175.309211912443
 20
67.485256705126815
 30
0.0
 11
167.684865977333
 21
71.765833980011735
 31
0.0
  0
ARC
  5
3449
  8
0
 10
170.059211912443
 20
75.994897869388069
 30
0.0
 40
4.8499999999999988
 50
60.505373657148454
 51
240.68860608621819
  0
LINE
  5
344A
  8
2
 10
160.3076937614899
 20
70.344285709860969
 30
0.0
 11
160.30784685511779
 21
67.844285540548469
 31
0.0
  0
LINE
  5
344B
  8
2
 10
159.559211912443
 20
66.844897869387125
 30
0.0
 11
159.559211912443
 21
73.344897869387125
 31
0.0
  0
LINE
  5
344C
  8
2
 10
159.25921191244299
 20
66.844897869387125
 30
0.0
 11
159.25921191244299
 21
73.344897869387125
 31
0.0
  0
LINE
  5
344D
  8
0
 10
166.40296191244309
 20
68.380044282960625
 30
0.0
 11
166.40296191244309
 21
72.085995498161594
 31
0.0
  0
LINE
  5
344E
  8
0
 10
164.80921191244369
 20
67.485256705126432
 30
0.0
 11
170.05921191244309
 21
70.432792255639697
 31
0.0
  0
LINE
  5
344F
  8
2
 10
160.30784685511779
 20
67.844285540548469
 30
0.0
 11
161.59929882769629
 21
67.844364625770183
 31
0.0
  0
LINE
  5
3450
  8
2
 10
161.59929882769629
 20
67.844364625770183
 30
0.0
 11
161.59936006514749
 21
66.844364557645235
 31
0.0
  0
LINE
  5
3451
  8
0
 10
164.80921191244369
 20
66.844897869389172
 30
0.0
 11
164.80921191244369
 21
67.485256705126432
 31
0.0
  0
LINE
  5
3453
  8
0
 10
160.82709277786029
 20
76.344897869387381
 30
0.0
 11
167.67135355674969
 21
80.216346965746538
 31
0.0
  0
LINE
  5
3454
  8
2
 10
160.3076937614899
 20
70.344285709860969
 30
0.0
 11
161.5991457340684
 21
70.344364795082683
 31
0.0
  0
LINE
  5
3455
  8
2
 10
161.59896198908311
 20
73.344897869385107
 30
0.0
 11
161.5991457340684
 21
70.344364795082683
 31
0.0
  0
CIRCLE
  5
3456
  8
0
 10
170.059211912443
 20
76.344897869388092
 30
0.0
 40
1.5
  0
CIRCLE
  5
3457
  8
0
 10
170.059211912443
 20
76.344897869388092
 30
0.0
 40
1.5
  0
ARC
  5
3458
  8
0
 10
170.059211912443
 20
75.994897869388069
 30
0.0
 40
4.8499999999999988
 50
60.505373657148454
 51
119.49462634285619
  0
LINE
  5
3459
  8
1
 10
182.55921191244309
 20
64.344897869388092
 30
0.0
 11
182.55921191244309
 21
77.344897869388078
 31
0.0
  0
LINE
  5
345A
  8
0
 10
173.715461912443
 20
68.380044282960625
 30
0.0
 11
173.71546191244309
 21
72.085995498161594
 31
0.0
  0
LINE
  5
345B
  8
2
 10
184.25921191244299
 20
66.844897869388092
 30
0.0
 11
184.25921191244311
 21
73.344897869388092
 31
0.0
  0
LINE
  5
345C
  8
2
 10
180.8592119124431
 20
66.844897869388092
 30
0.0
 11
180.8592119124431
 21
73.344897869388092
 31
0.0
  0
LINE
  5
345D
  8
2
 10
180.55921191244309
 20
66.844897869388092
 30
0.0
 11
180.55921191244309
 21
73.344897869388092
 31
0.0
  0
LINE
  5
345E
  8
2
 10
184.55921191244309
 20
66.844897869388092
 30
0.0
 11
184.55921191244309
 21
73.344897869388092
 31
0.0
  0
LINE
  5
345F
  8
2
 10
185.3076937614899
 20
70.344285709861936
 30
0.0
 11
185.3078468551179
 21
67.844285540549436
 31
0.0
  0
LINE
  5
3460
  8
2
 10
179.80745220351639
 20
70.343948889110834
 30
0.0
 11
179.80760529714439
 21
67.843948719798334
 31
0.0
  0
LINE
  5
3461
  8
0
 10
175.30921191244309
 20
66.844897869388035
 30
0.0
 11
175.30921191244309
 21
67.485256705126815
 31
0.0
  0
LINE
  5
3462
  8
2
 10
178.51615332456581
 20
67.843869634576606
 30
0.0
 11
178.51621456201701
 21
66.843869566451644
 31
0.0
  0
LINE
  5
3463
  8
2
 10
179.80760529714439
 20
67.843948719798334
 30
0.0
 11
178.51615332456581
 21
67.843869634576606
 31
0.0
  0
LINE
  5
3464
  8
2
 10
186.5992988276964
 20
67.844364625771163
 30
0.0
 11
186.59936006514761
 21
66.844364557646202
 31
0.0
  0
LINE
  5
3465
  8
2
 10
185.3078468551179
 20
67.844285540549436
 30
0.0
 11
186.5992988276964
 21
67.844364625771163
 31
0.0
  0
LINE
  5
3466
  8
2
 10
186.59896198908319
 20
73.344897869388092
 30
0.0
 11
178.51581645564059
 21
73.344897869388092
 31
0.0
  0
LINE
  5
3469
  8
2
 10
179.80745220351639
 20
70.343948889110834
 30
0.0
 11
178.51600023093789
 21
70.343869803889106
 31
0.0
  0
LINE
  5
346A
  8
2
 10
178.51581645564059
 20
73.344897869388092
 30
0.0
 11
178.51600023093789
 21
70.343869803889106
 31
0.0
  0
LINE
  5
346B
  8
0
 10
187.30921191244309
 20
76.344897869388035
 30
0.0
 11
179.0592119124442
 21
76.34489786938812
 31
0.0
  0
LINE
  5
346C
  8
2
 10
185.3076937614899
 20
70.344285709861936
 30
0.0
 11
186.59914573406849
 21
70.344364795083663
 31
0.0
  0
LINE
  5
346D
  8
2
 10
186.59896198908319
 20
73.344897869386074
 30
0.0
 11
186.59914573406849
 21
70.344364795083663
 31
0.0
  0
LINE
  5
346E
  8
0
 10
189.30921191244309
 20
66.844897869388092
 30
0.0
 11
189.309211912443
 21
74.344897869388035
 31
0.0
  0
LINE
  5
346F
  8
1
 10
148.30921191244309
 20
138.1129325460534
 30
0.0
 11
191.80921191244309
 21
138.1129325460534
 31
0.0
  0
ARC
  5
3470
  8
0
 10
186.87171191244309
 20
120.8004325460534
 30
0.0
 40
2.4375
 50
270.0
 51
0.0
  0
LINE
  5
3471
  8
1
 10
188.80921191244309
 20
150.6629325460535
 30
0.0
 11
176.30921191244309
 21
150.6629325460535
 31
0.0
  0
LINE
  5
3472
  8
1
 10
188.80921191244309
 20
125.5629325460534
 30
0.0
 11
176.30921191244309
 21
125.5629325460534
 31
0.0
  0
ARC
  5
3473
  8
0
 10
186.87171191244309
 20
155.4254325460534
 30
0.0
 40
2.4375
 50
0.0
 51
90.0
  0
LINE
  5
3474
  8
3
 10
186.9603907450699
 20
134.50044335672609
 30
0.0
 11
186.9423623846213
 21
134.42382282481961
 31
0.0
  0
LINE
  5
3475
  8
3
 10
184.54008335484261
 20
134.48241499627761
 30
0.0
 11
184.53557626473051
 21
134.50495044683831
 31
0.0
  0
LINE
  5
3476
  8
3
 10
185.99136637095651
 20
134.49142917650181
 30
0.0
 11
185.9958734610687
 21
134.48241499627761
 31
0.0
  0
LINE
  5
3477
  8
3
 10
186.0634798127509
 20
134.48241499627761
 30
0.0
 11
186.06798690286311
 21
134.49142917650181
 31
0.0
  0
LINE
  5
3478
  8
1
 10
170.05921191244309
 20
115.35668254605341
 30
0.0
 11
170.05921191244309
 21
160.86918254605351
 31
0.0
  0
LINE
  5
3479
  8
0
 10
178.99671191244309
 20
133.2379325460534
 30
0.0
 11
178.99671191244309
 21
138.1129325460534
 31
0.0
  0
LINE
  5
347A
  8
0
 10
174.93421191244309
 20
133.8473075460534
 30
0.0
 11
174.93421191244309
 21
137.5035575460534
 31
0.0
  0
LINE
  5
347B
  8
3
 10
155.39354977544531
 20
134.50957046582059
 30
0.0
 11
155.35298596443579
 21
134.4374570240262
 31
0.0
  0
LINE
  5
347C
  8
3
 10
153.0588770973489
 20
134.30224432066149
 30
0.0
 11
153.0588770973489
 21
134.52759882626921
 31
0.0
  0
LINE
  5
347D
  8
0
 10
150.80921191244309
 20
120.79418254605341
 30
0.0
 11
150.80921191244309
 21
155.4254325460534
 31
0.0
  0
LINE
  5
347E
  8
0
 10
159.05921191244309
 20
138.1129325460534
 30
0.0
 11
159.059211912443
 21
133.2379325460534
 31
0.0
  0
LINE
  5
347F
  8
1
 10
163.80921191244309
 20
125.5629325460534
 30
0.0
 11
151.30921191244309
 21
125.5629325460534
 31
0.0
  0
LINE
  5
3480
  8
0
 10
153.24671191244309
 20
118.3629325460534
 30
0.0
 11
166.40296191244309
 21
118.3629325460534
 31
0.0
  0
LINE
  5
3481
  8
1
 10
157.55921191244309
 20
131.81293254605339
 30
0.0
 11
157.55921191244309
 21
119.3129325460534
 31
0.0
  0
ARC
  5
3482
  8
0
 10
153.24671191244309
 20
120.8004325460534
 30
0.0
 40
2.4375
 50
180.0
 51
270.0
  0
CIRCLE
  5
3483
  8
3
 10
155.37469716503
 20
133.8268690081857
 30
0.0
 40
0.180725893852164
  0
LINE
  5
3484
  8
3
 10
155.30791506331431
 20
134.3698506723438
 30
0.0
 11
155.26284416219269
 21
134.30224432066149
 31
0.0
  0
LINE
  5
3485
  8
3
 10
154.97889748512699
 20
134.0363260040443
 30
0.0
 11
154.8707273224353
 21
133.96421256224991
 31
0.0
  0
LINE
  5
3486
  8
3
 10
154.8707273224353
 20
133.96421256224991
 30
0.0
 11
154.76255715974349
 21
133.91012748090401
 31
0.0
  0
LINE
  5
3487
  8
3
 10
155.15918108961321
 20
134.18505997774551
 30
0.0
 11
155.1005889181551
 21
134.13097489639961
 31
0.0
  0
LINE
  5
3488
  8
3
 10
155.213266170959
 20
134.24365214920351
 30
0.0
 11
155.15918108961321
 21
134.18505997774551
 31
0.0
  0
LINE
  5
3489
  8
3
 10
155.26284416219269
 20
134.30224432066149
 30
0.0
 11
155.213266170959
 21
134.24365214920351
 31
0.0
  0
LINE
  5
348A
  8
3
 10
155.1005889181551
 20
134.13097489639961
 30
0.0
 11
154.97889748512699
 21
134.0363260040443
 31
0.0
  0
LINE
  5
348B
  8
3
 10
153.7709973350695
 20
133.81547858854881
 30
0.0
 11
153.64479881192909
 21
133.8109714984366
 31
0.0
  0
LINE
  5
348C
  8
3
 10
154.4019899507712
 20
133.8244927687731
 30
0.0
 11
154.28029851774301
 21
133.81547858854881
 31
0.0
  0
LINE
  5
348D
  8
3
 10
153.89719585820981
 20
133.81547858854881
 30
0.0
 11
153.7709973350695
 21
133.81547858854881
 31
0.0
  0
LINE
  5
348E
  8
3
 10
154.28029851774301
 20
133.81547858854881
 30
0.0
 11
154.1540999946026
 21
133.81547858854881
 31
0.0
  0
LINE
  5
348F
  8
3
 10
154.1540999946026
 20
133.81547858854881
 30
0.0
 11
154.0233943813501
 21
133.81547858854881
 31
0.0
  0
LINE
  5
3490
  8
3
 10
154.0233943813501
 20
133.81547858854881
 30
0.0
 11
153.89719585820981
 21
133.81547858854881
 31
0.0
  0
LINE
  5
3491
  8
3
 10
154.6453728168276
 20
133.8695636698946
 30
0.0
 11
154.52818847391151
 21
133.84252112922169
 31
0.0
  0
LINE
  5
3492
  8
3
 10
154.52818847391151
 20
133.84252112922169
 30
0.0
 11
154.4019899507712
 21
133.8244927687731
 31
0.0
  0
LINE
  5
3493
  8
3
 10
153.2797245128445
 20
133.76139350720291
 30
0.0
 11
153.0588770973489
 21
133.6622375247355
 31
0.0
  0
LINE
  5
3494
  8
3
 10
153.5186002887888
 20
133.80195731821229
 30
0.0
 11
153.3969088557605
 21
133.78843604787579
 31
0.0
  0
LINE
  5
3495
  8
3
 10
153.3969088557605
 20
133.78843604787579
 30
0.0
 11
153.2797245128445
 21
133.76139350720291
 31
0.0
  0
LINE
  5
3496
  8
3
 10
153.64479881192909
 20
133.8109714984366
 30
0.0
 11
153.5186002887888
 21
133.80195731821229
 31
0.0
  0
LINE
  5
3497
  8
3
 10
153.0588770973489
 20
133.6622375247355
 30
0.0
 11
153.0588770973489
 21
134.30224432066149
 31
0.0
  0
LINE
  5
3498
  8
3
 10
154.76255715974349
 20
133.91012748090401
 30
0.0
 11
154.6453728168276
 21
133.8695636698946
 31
0.0
  0
LINE
  5
3499
  8
3
 10
155.35298596443579
 20
134.4374570240262
 30
0.0
 11
155.30791506331431
 21
134.3698506723438
 31
0.0
  0
LINE
  5
349A
  8
0
 10
159.059211912443
 20
133.2379325460534
 30
0.0
 11
181.06379397494311
 21
133.2379325460534
 31
0.0
  0
LINE
  5
349B
  8
0
 10
159.059211912443
 20
128.3629325460534
 30
0.0
 11
181.063793974943
 21
128.3629325460534
 31
0.0
  0
LINE
  5
349C
  8
0
 10
159.059211912443
 20
123.4879325460534
 30
0.0
 11
181.06379397494311
 21
123.4879325460535
 31
0.0
  0
LINE
  5
349D
  8
0
 10
165.79358691244309
 20
118.7691825460534
 30
0.0
 11
181.06379397494311
 21
118.7691825460534
 31
0.0
  0
LINE
  5
349E
  8
0
 10
159.059211912443
 20
128.3629325460534
 30
0.0
 11
159.059211912443
 21
123.4879325460534
 31
0.0
  0
LINE
  5
349F
  8
0
 10
161.12171191244309
 20
118.3629325460535
 30
0.0
 11
161.12171191244309
 21
123.3741061235722
 31
0.0
  0
ARC
  5
34A0
  8
0
 10
165.79358691244309
 20
122.8785575460534
 30
0.0
 40
0.609375
 50
90.0
 51
180.0
  0
ARC
  5
34A1
  8
0
 10
165.79358691244309
 20
119.3785575460534
 30
0.0
 40
0.609375
 50
180.0
 51
270.0
  0
LINE
  5
34A2
  8
0
 10
165.18421191244309
 20
119.37230754605341
 30
0.0
 11
165.18421191244309
 21
122.8785575460534
 31
0.0
  0
LINE
  5
34A3
  8
0
 10
166.40296191244309
 20
118.7691825460534
 30
0.0
 11
166.40296191244309
 21
118.3629325460534
 31
0.0
  0
LINE
  5
34A4
  8
0
 10
165.18421191244309
 20
128.9723075460534
 30
0.0
 11
165.18421191244309
 21
132.6285575460534
 31
0.0
  0
LINE
  5
34A5
  8
0
 10
161.12171191244309
 20
128.3629325460534
 30
0.0
 11
161.12171191244309
 21
133.2379325460534
 31
0.0
  0
ARC
  5
34A6
  8
0
 10
165.79358691244309
 20
128.9723075460534
 30
0.0
 40
0.609375
 50
180.0
 51
270.0
  0
ARC
  5
34A7
  8
0
 10
165.79358691244309
 20
132.6285575460534
 30
0.0
 40
0.609375
 50
90.0
 51
180.0
  0
ARC
  5
34A8
  8
0
 10
174.32483691244309
 20
124.0973075460534
 30
0.0
 40
0.609375
 50
270.0
 51
0.0
  0
LINE
  5
34A9
  8
0
 10
178.99671191244309
 20
123.4879325460535
 30
0.0
 11
178.99671191244309
 21
128.3629325460534
 31
0.0
  0
LINE
  5
34AA
  8
1
 10
182.55921191244309
 20
131.81293254605339
 30
0.0
 11
182.55921191244309
 21
119.3129325460534
 31
0.0
  0
LINE
  5
34AB
  8
0
 10
173.71546191244309
 20
118.3629325460534
 30
0.0
 11
186.87171191244309
 21
118.3629325460534
 31
0.0
  0
LINE
  5
34AC
  8
0
 10
173.71546191244309
 20
118.7691825460534
 30
0.0
 11
173.71546191244309
 21
118.3629325460534
 31
0.0
  0
LINE
  5
34AD
  8
0
 10
178.99671191244309
 20
118.3629325460534
 30
0.0
 11
178.99671191244309
 21
118.7691825460534
 31
0.0
  0
LINE
  5
34AE
  8
0
 10
181.06379397494311
 20
118.76293254605341
 30
0.0
 11
181.06379397494311
 21
123.4879325460535
 31
0.0
  0
LINE
  5
34AF
  8
0
 10
174.93421191244309
 20
124.0973075460534
 30
0.0
 11
174.93421191244309
 21
127.7535575460534
 31
0.0
  0
ARC
  5
34B0
  8
0
 10
174.32483691244309
 20
127.7535575460534
 30
0.0
 40
0.609375
 50
0.0
 51
90.0
  0
ARC
  5
34B1
  8
0
 10
174.32483691244309
 20
133.8473075460534
 30
0.0
 40
0.609375
 50
270.0
 51
0.0
  0
LINE
  5
34B2
  8
0
 10
181.06379397494311
 20
128.3629325460534
 30
0.0
 11
181.06379397494311
 21
133.2379325460534
 31
0.0
  0
LINE
  5
34B3
  8
3
 10
184.5716329856277
 20
134.3877661039223
 30
0.0
 11
184.5536046251791
 21
134.41480864459521
 31
0.0
  0
LINE
  5
34B4
  8
3
 10
184.5536046251791
 20
134.41480864459521
 30
0.0
 11
184.54909753506689
 21
134.43734409515599
 31
0.0
  0
LINE
  5
34B5
  8
3
 10
184.54909753506689
 20
134.43734409515599
 30
0.0
 11
184.54459044495471
 21
134.4598795457168
 31
0.0
  0
LINE
  5
34B6
  8
3
 10
184.54459044495471
 20
134.4598795457168
 30
0.0
 11
184.54008335484261
 21
134.48241499627761
 31
0.0
  0
LINE
  5
34B7
  8
3
 10
186.7801071405836
 20
134.10381942685649
 30
0.0
 11
186.7665858702473
 21
134.08128397629571
 31
0.0
  0
LINE
  5
34B8
  8
3
 10
186.72602205923781
 20
134.03170598506199
 30
0.0
 11
186.7079936987891
 21
134.00917053450129
 31
0.0
  0
LINE
  5
34B9
  8
3
 10
186.7079936987891
 20
134.00917053450129
 30
0.0
 11
186.68996533834061
 21
133.98663508394051
 31
0.0
  0
LINE
  5
34BA
  8
3
 10
186.68996533834061
 20
133.98663508394051
 30
0.0
 11
186.6674298877798
 21
133.9640996333797
 31
0.0
  0
LINE
  5
34BB
  8
3
 10
186.6674298877798
 20
133.9640996333797
 30
0.0
 11
186.64940152733121
 21
133.94156418281889
 31
0.0
  0
LINE
  5
34BC
  8
3
 10
186.64940152733121
 20
133.94156418281889
 30
0.0
 11
186.6268660767704
 21
133.9190287322582
 31
0.0
  0
LINE
  5
34BD
  8
3
 10
186.6268660767704
 20
133.9190287322582
 30
0.0
 11
186.60433062620959
 21
133.89649328169739
 31
0.0
  0
LINE
  5
34BE
  8
3
 10
186.60433062620959
 20
133.89649328169739
 30
0.0
 11
186.58179517564881
 21
133.87846492124879
 31
0.0
  0
LINE
  5
34BF
  8
3
 10
186.58179517564881
 20
133.87846492124879
 30
0.0
 11
186.55925972508811
 21
133.8604365608002
 31
0.0
  0
LINE
  5
34C0
  8
3
 10
186.55925972508811
 20
133.8604365608002
 30
0.0
 11
186.53672427452719
 21
133.8424082003516
 31
0.0
  0
LINE
  5
34C1
  8
3
 10
186.7665858702473
 20
134.08128397629571
 30
0.0
 11
186.7485575097985
 21
134.0542414356228
 31
0.0
  0
LINE
  5
34C2
  8
3
 10
186.7485575097985
 20
134.0542414356228
 30
0.0
 11
186.72602205923781
 21
134.03170598506199
 31
0.0
  0
LINE
  5
34C3
  8
3
 10
186.91531984394831
 20
134.351709383025
 30
0.0
 11
186.8882773032754
 21
134.28410303134271
 31
0.0
  0
LINE
  5
34C4
  8
3
 10
186.9423623846213
 20
134.42382282481961
 30
0.0
 11
186.91531984394831
 21
134.351709383025
 31
0.0
  0
LINE
  5
34C5
  8
3
 10
186.81165677136869
 20
134.15339741809021
 30
0.0
 11
186.79813550103219
 21
134.1263548774173
 31
0.0
  0
LINE
  5
34C6
  8
3
 10
186.79813550103219
 20
134.1263548774173
 30
0.0
 11
186.7801071405836
 21
134.10381942685649
 31
0.0
  0
LINE
  5
34C7
  8
3
 10
186.8882773032754
 20
134.28410303134271
 30
0.0
 11
186.81165677136869
 21
134.15339741809021
 31
0.0
  0
LINE
  5
34C8
  8
3
 10
185.68037715321771
 20
133.56747570351001
 30
0.0
 11
185.6082637114234
 21
133.57648988373441
 31
0.0
  0
LINE
  5
34C9
  8
3
 10
185.1530476100956
 20
133.7207167673233
 30
0.0
 11
185.13952633975919
 21
133.72973094754769
 31
0.0
  0
LINE
  5
34CA
  8
3
 10
185.18009015076859
 20
133.70268840687481
 30
0.0
 11
185.16656888043221
 21
133.7117025870991
 31
0.0
  0
LINE
  5
34CB
  8
3
 10
185.16656888043221
 20
133.7117025870991
 30
0.0
 11
185.1530476100956
 21
133.7207167673233
 31
0.0
  0
LINE
  5
34CC
  8
3
 10
185.6082637114234
 20
133.57648988373441
 30
0.0
 11
185.53615026962891
 21
133.58550406395869
 31
0.0
  0
LINE
  5
34CD
  8
3
 10
185.53615026962891
 20
133.58550406395869
 30
0.0
 11
185.45952973772231
 21
133.6035324244074
 31
0.0
  0
LINE
  5
34CE
  8
3
 10
185.45952973772231
 20
133.6035324244074
 30
0.0
 11
185.39192338603991
 21
133.62156078485589
 31
0.0
  0
LINE
  5
34CF
  8
3
 10
185.39192338603991
 20
133.62156078485589
 30
0.0
 11
185.31980994424541
 21
133.6440962354167
 31
0.0
  0
LINE
  5
34D0
  8
3
 10
185.31980994424541
 20
133.6440962354167
 30
0.0
 11
185.18009015076859
 21
133.70268840687481
 31
0.0
  0
LINE
  5
34D1
  8
3
 10
184.7834662208989
 20
134.03170598506199
 30
0.0
 11
184.76994495056249
 21
134.04522725539849
 31
0.0
  0
LINE
  5
34D2
  8
3
 10
184.7383953197774
 20
134.08128397629571
 30
0.0
 11
184.72938113955311
 21
134.09480524663221
 31
0.0
  0
LINE
  5
34D3
  8
3
 10
184.76994495056249
 20
134.04522725539849
 30
0.0
 11
184.76093077033809
 21
134.05874852573501
 31
0.0
  0
LINE
  5
34D4
  8
3
 10
184.76093077033809
 20
134.05874852573501
 30
0.0
 11
184.75191659011389
 21
134.0722697960714
 31
0.0
  0
LINE
  5
34D5
  8
3
 10
184.75191659011389
 20
134.0722697960714
 30
0.0
 11
184.7383953197774
 21
134.08128397629571
 31
0.0
  0
LINE
  5
34D6
  8
3
 10
184.62121097686139
 20
134.28861012145489
 30
0.0
 11
184.61219679663711
 21
134.30213139179131
 31
0.0
  0
LINE
  5
34D7
  8
3
 10
184.6482535175343
 20
134.23001794999689
 30
0.0
 11
184.6392393373101
 21
134.24353922033339
 31
0.0
  0
LINE
  5
34D8
  8
3
 10
184.6392393373101
 20
134.24353922033339
 30
0.0
 11
184.6347322471978
 21
134.26156758078201
 31
0.0
  0
LINE
  5
34D9
  8
3
 10
184.6347322471978
 20
134.26156758078201
 30
0.0
 11
184.62571806697349
 21
134.2750888511184
 31
0.0
  0
LINE
  5
34DA
  8
3
 10
184.62571806697349
 20
134.2750888511184
 30
0.0
 11
184.62121097686139
 21
134.28861012145489
 31
0.0
  0
LINE
  5
34DB
  8
3
 10
184.61219679663711
 20
134.30213139179131
 30
0.0
 11
184.60768970652489
 21
134.3156526621278
 31
0.0
  0
LINE
  5
34DC
  8
3
 10
184.60768970652489
 20
134.3156526621278
 30
0.0
 11
184.60318261641279
 21
134.3336810225764
 31
0.0
  0
LINE
  5
34DD
  8
3
 10
184.60318261641279
 20
134.3336810225764
 30
0.0
 11
184.5941684361884
 21
134.3472022929129
 31
0.0
  0
LINE
  5
34DE
  8
3
 10
184.5941684361884
 20
134.3472022929129
 30
0.0
 11
184.5896613460763
 21
134.36072356324939
 31
0.0
  0
LINE
  5
34DF
  8
3
 10
184.5896613460763
 20
134.36072356324939
 30
0.0
 11
184.58064716585201
 21
134.37424483358581
 31
0.0
  0
LINE
  5
34E0
  8
3
 10
184.58064716585201
 20
134.37424483358581
 30
0.0
 11
184.5716329856277
 21
134.3877661039223
 31
0.0
  0
LINE
  5
34E1
  8
3
 10
184.6662818779829
 20
134.2029754093239
 30
0.0
 11
184.65726769775861
 21
134.21649667966039
 31
0.0
  0
LINE
  5
34E2
  8
3
 10
184.72938113955311
 20
134.09480524663221
 30
0.0
 11
184.7203669593288
 21
134.1083265169687
 31
0.0
  0
LINE
  5
34E3
  8
3
 10
184.7203669593288
 20
134.1083265169687
 30
0.0
 11
184.7113527791044
 21
134.1218477873052
 31
0.0
  0
LINE
  5
34E4
  8
3
 10
184.7113527791044
 20
134.1218477873052
 30
0.0
 11
184.7023385988802
 21
134.1398761477538
 31
0.0
  0
LINE
  5
34E5
  8
3
 10
184.7023385988802
 20
134.1398761477538
 30
0.0
 11
184.68881732854371
 21
134.15339741809021
 31
0.0
  0
LINE
  5
34E6
  8
3
 10
184.68881732854371
 20
134.15339741809021
 30
0.0
 11
184.670788968095
 21
134.18945413898749
 31
0.0
  0
LINE
  5
34E7
  8
3
 10
184.670788968095
 20
134.18945413898749
 30
0.0
 11
184.6662818779829
 21
134.2029754093239
 31
0.0
  0
LINE
  5
34E8
  8
3
 10
184.65726769775861
 20
134.21649667966039
 30
0.0
 11
184.6482535175343
 21
134.23001794999689
 31
0.0
  0
LINE
  5
34E9
  8
3
 10
184.80149458134761
 20
134.00917053450129
 30
0.0
 11
184.7924804011233
 21
134.01818471472549
 31
0.0
  0
LINE
  5
34EA
  8
3
 10
184.97276400560941
 20
133.83790111023939
 30
0.0
 11
184.82853712202049
 21
133.96860672349189
 31
0.0
  0
LINE
  5
34EB
  8
3
 10
184.82853712202049
 20
133.96860672349189
 30
0.0
 11
184.81952294179621
 21
133.98212799382841
 31
0.0
  0
LINE
  5
34EC
  8
3
 10
184.81952294179621
 20
133.98212799382841
 30
0.0
 11
184.8105087615719
 21
133.9956492641648
 31
0.0
  0
LINE
  5
34ED
  8
3
 10
184.8105087615719
 20
133.9956492641648
 30
0.0
 11
184.80149458134761
 21
134.00917053450129
 31
0.0
  0
LINE
  5
34EE
  8
3
 10
184.7924804011233
 20
134.01818471472549
 30
0.0
 11
184.7834662208989
 21
134.03170598506199
 31
0.0
  0
LINE
  5
34EF
  8
3
 10
185.13952633975919
 20
133.72973094754769
 30
0.0
 11
185.1260050694228
 21
133.73874512777201
 31
0.0
  0
LINE
  5
34F0
  8
3
 10
185.1260050694228
 20
133.73874512777201
 30
0.0
 11
185.11248379908619
 21
133.7477593079962
 31
0.0
  0
LINE
  5
34F1
  8
3
 10
185.11248379908619
 20
133.7477593079962
 30
0.0
 11
185.10346961886191
 21
133.7567734882206
 31
0.0
  0
LINE
  5
34F2
  8
3
 10
185.10346961886191
 20
133.7567734882206
 30
0.0
 11
185.0899483485255
 21
133.76578766844489
 31
0.0
  0
LINE
  5
34F3
  8
3
 10
185.0899483485255
 20
133.76578766844489
 30
0.0
 11
185.07642707818911
 21
133.7748018486692
 31
0.0
  0
LINE
  5
34F4
  8
3
 10
185.07642707818911
 20
133.7748018486692
 30
0.0
 11
185.06290580785259
 21
133.78381602889351
 31
0.0
  0
LINE
  5
34F5
  8
3
 10
185.06290580785259
 20
133.78381602889351
 30
0.0
 11
185.0538916276283
 21
133.7883231190057
 31
0.0
  0
LINE
  5
34F6
  8
3
 10
185.0538916276283
 20
133.7883231190057
 30
0.0
 11
185.04037035729181
 21
133.79733729923001
 31
0.0
  0
LINE
  5
34F7
  8
3
 10
185.04037035729181
 20
133.79733729923001
 30
0.0
 11
185.02684908695531
 21
133.80635147945429
 31
0.0
  0
LINE
  5
34F8
  8
3
 10
185.02684908695531
 20
133.80635147945429
 30
0.0
 11
185.01783490673111
 21
133.8153656596786
 31
0.0
  0
LINE
  5
34F9
  8
3
 10
185.01783490673111
 20
133.8153656596786
 30
0.0
 11
185.00431363639461
 21
133.8198727497907
 31
0.0
  0
LINE
  5
34FA
  8
3
 10
185.00431363639461
 20
133.8198727497907
 30
0.0
 11
184.97276400560941
 21
133.83790111023939
 31
0.0
  0
LINE
  5
34FB
  8
3
 10
186.36996194037749
 20
133.72973094754769
 30
0.0
 11
186.35644067004111
 21
133.7207167673233
 31
0.0
  0
LINE
  5
34FC
  8
3
 10
186.34742648981671
 20
133.7162096772112
 30
0.0
 11
186.32489103925599
 21
133.70268840687481
 31
0.0
  0
LINE
  5
34FD
  8
3
 10
186.35644067004111
 20
133.7207167673233
 30
0.0
 11
186.34742648981671
 21
133.7162096772112
 31
0.0
  0
LINE
  5
34FE
  8
3
 10
185.82911112691889
 20
133.56747570351001
 30
0.0
 11
185.7524905950122
 21
133.56747570351001
 31
0.0
  0
LINE
  5
34FF
  8
3
 10
186.25728468757359
 20
133.66663168597751
 30
0.0
 11
186.1896783358913
 21
133.6395891453046
 31
0.0
  0
LINE
  5
3500
  8
3
 10
186.1896783358913
 20
133.6395891453046
 30
0.0
 11
186.1175648940968
 21
133.61705369474379
 31
0.0
  0
LINE
  5
3501
  8
3
 10
186.1175648940968
 20
133.61705369474379
 30
0.0
 11
186.04995854241449
 21
133.59902533429511
 31
0.0
  0
LINE
  5
3502
  8
3
 10
186.04995854241449
 20
133.59902533429511
 30
0.0
 11
185.97333801050789
 21
133.58550406395869
 31
0.0
  0
LINE
  5
3503
  8
3
 10
185.97333801050789
 20
133.58550406395869
 30
0.0
 11
185.90122456871339
 21
133.57198279362231
 31
0.0
  0
LINE
  5
3504
  8
3
 10
185.90122456871339
 20
133.57198279362231
 30
0.0
 11
185.82911112691889
 21
133.56747570351001
 31
0.0
  0
LINE
  5
3505
  8
3
 10
186.32489103925599
 20
133.70268840687481
 30
0.0
 11
186.25728468757359
 21
133.66663168597751
 31
0.0
  0
LINE
  5
3506
  8
3
 10
185.7524905950122
 20
133.56747570351001
 30
0.0
 11
185.68037715321771
 21
133.56747570351001
 31
0.0
  0
LINE
  5
3507
  8
3
 10
186.3924973909383
 20
133.73874512777201
 30
0.0
 11
186.37897612060181
 21
133.73423803765979
 31
0.0
  0
LINE
  5
3508
  8
3
 10
186.48714628329361
 20
133.8153656596786
 30
0.0
 11
186.4826391931814
 21
133.80184438934219
 31
0.0
  0
LINE
  5
3509
  8
3
 10
186.4826391931814
 20
133.80184438934219
 30
0.0
 11
186.47362501295709
 21
133.7928302091178
 31
0.0
  0
LINE
  5
350A
  8
3
 10
186.47362501295709
 20
133.7928302091178
 30
0.0
 11
186.46911792284499
 21
133.7883231190057
 31
0.0
  0
LINE
  5
350B
  8
3
 10
186.46911792284499
 20
133.7883231190057
 30
0.0
 11
186.4555966525084
 21
133.77930893878141
 31
0.0
  0
LINE
  5
350C
  8
3
 10
186.4555966525084
 20
133.77930893878141
 30
0.0
 11
186.44658247228409
 21
133.7702947585571
 31
0.0
  0
LINE
  5
350D
  8
3
 10
186.44658247228409
 20
133.7702947585571
 30
0.0
 11
186.43756829205989
 21
133.76578766844489
 31
0.0
  0
LINE
  5
350E
  8
3
 10
186.43756829205989
 20
133.76578766844489
 30
0.0
 11
186.4285541118355
 21
133.7567734882206
 31
0.0
  0
LINE
  5
350F
  8
3
 10
186.4285541118355
 20
133.7567734882206
 30
0.0
 11
186.415032841499
 21
133.7522663981085
 31
0.0
  0
LINE
  5
3510
  8
3
 10
186.415032841499
 20
133.7522663981085
 30
0.0
 11
186.40151157116259
 21
133.7477593079962
 31
0.0
  0
LINE
  5
3511
  8
3
 10
186.40151157116259
 20
133.7477593079962
 30
0.0
 11
186.3924973909383
 21
133.73874512777201
 31
0.0
  0
LINE
  5
3512
  8
3
 10
186.37897612060181
 20
133.73423803765979
 30
0.0
 11
186.36996194037749
 21
133.72973094754769
 31
0.0
  0
LINE
  5
3513
  8
3
 10
185.9958734610687
 20
134.48241499627761
 30
0.0
 11
186.0003805511808
 21
134.47340081605321
 31
0.0
  0
LINE
  5
3514
  8
3
 10
186.0003805511808
 20
134.47340081605321
 30
0.0
 11
186.0003805511808
 21
134.46889372594109
 31
0.0
  0
LINE
  5
3515
  8
3
 10
186.0003805511808
 20
134.46889372594109
 30
0.0
 11
186.0048876412929
 21
134.46889372594109
 31
0.0
  0
LINE
  5
3516
  8
3
 10
186.0048876412929
 20
134.46889372594109
 30
0.0
 11
186.01390182151721
 21
134.4643866358289
 31
0.0
  0
LINE
  5
3517
  8
3
 10
186.01390182151721
 20
134.4643866358289
 30
0.0
 11
186.01840891162951
 21
134.4643866358289
 31
0.0
  0
LINE
  5
3518
  8
3
 10
186.01840891162951
 20
134.4643866358289
 30
0.0
 11
186.02291600174161
 21
134.4643866358289
 31
0.0
  0
LINE
  5
3519
  8
3
 10
186.02291600174161
 20
134.4643866358289
 30
0.0
 11
186.02742309185379
 21
134.46889372594109
 31
0.0
  0
LINE
  5
351A
  8
3
 10
186.02742309185379
 20
134.46889372594109
 30
0.0
 11
186.0364372720781
 21
134.46889372594109
 31
0.0
  0
LINE
  5
351B
  8
3
 10
186.0364372720781
 20
134.46889372594109
 30
0.0
 11
186.0409443621902
 21
134.47340081605321
 31
0.0
  0
LINE
  5
351C
  8
3
 10
186.0409443621902
 20
134.47340081605321
 30
0.0
 11
186.04545145230239
 21
134.47340081605321
 31
0.0
  0
LINE
  5
351D
  8
3
 10
186.04545145230239
 20
134.47340081605321
 30
0.0
 11
186.04995854241449
 21
134.4779079061654
 31
0.0
  0
LINE
  5
351E
  8
3
 10
186.04995854241449
 20
134.4779079061654
 30
0.0
 11
186.0589727226388
 21
134.48241499627761
 31
0.0
  0
LINE
  5
351F
  8
3
 10
186.0589727226388
 20
134.48241499627761
 30
0.0
 11
186.0634798127509
 21
134.48241499627761
 31
0.0
  0
LINE
  5
3520
  8
3
 10
186.53672427452719
 20
133.8424082003516
 30
0.0
 11
186.48714628329361
 21
133.8153656596786
 31
0.0
  0
LINE
  5
3521
  8
1
 10
163.80921191244309
 20
150.6629325460535
 30
0.0
 11
151.30921191244309
 21
150.6629325460535
 31
0.0
  0
LINE
  5
3522
  8
0
 10
153.24671191244309
 20
157.8629325460534
 30
0.0
 11
166.40296191244309
 21
157.8629325460534
 31
0.0
  0
LINE
  5
3523
  8
1
 10
157.55921191244309
 20
156.9129325460535
 30
0.0
 11
157.55921191244309
 21
144.4129325460535
 31
0.0
  0
ARC
  5
3524
  8
0
 10
153.24671191244309
 20
155.4254325460534
 30
0.0
 40
2.4375
 50
90.0
 51
180.0
  0
LINE
  5
3525
  8
3
 10
156.35849767315139
 20
139.697231184911
 30
0.0
 11
156.35849767315139
 21
140.50280830492619
 31
0.0
  0
LINE
  5
3526
  8
3
 10
153.1084550885827
 20
139.17891582201321
 30
0.0
 11
153.1084550885827
 21
140.16146146646301
 31
0.0
  0
LINE
  5
3527
  8
3
 10
155.25833707208059
 20
135.98789602260749
 30
0.0
 11
155.29439379297779
 21
135.97437475227099
 31
0.0
  0
LINE
  5
3528
  8
3
 10
155.55129792937061
 20
136.11860163585999
 30
0.0
 11
154.76706424985559
 21
136.11860163585999
 31
0.0
  0
LINE
  5
3529
  8
3
 10
155.25382998196841
 20
137.1326969110948
 30
0.0
 11
155.28988670286569
 21
137.0966401901976
 31
0.0
  0
LINE
  5
352A
  8
3
 10
155.28087252264129
 20
137.52030666074009
 30
0.0
 11
155.23129453140771
 21
137.52030666074009
 31
0.0
  0
LINE
  5
352B
  8
3
 10
155.27185834241709
 20
139.12483074066739
 30
0.0
 11
155.31242215342641
 21
139.0752527494337
 31
0.0
  0
LINE
  5
352C
  8
3
 10
155.28537961275359
 20
139.68821700468669
 30
0.0
 11
155.1005889181551
 21
139.68370991457459
 31
0.0
  0
LINE
  5
352D
  8
3
 10
154.74903588940711
 20
135.4831019300461
 30
0.0
 11
154.74452879929501
 21
135.56873664217699
 31
0.0
  0
LINE
  5
352E
  8
3
 10
154.72199334873409
 20
134.987322017709
 30
0.0
 11
154.74002170918271
 21
135.06394254961569
 31
0.0
  0
LINE
  5
352F
  8
3
 10
154.69495080806121
 20
134.91070148580241
 30
0.0
 11
154.72199334873409
 21
134.987322017709
 31
0.0
  0
LINE
  5
3530
  8
3
 10
154.74903588940711
 20
135.1450701716345
 30
0.0
 11
154.7535429795193
 21
135.22619779365331
 31
0.0
  0
LINE
  5
3531
  8
3
 10
154.7535429795193
 20
135.3118325057842
 30
0.0
 11
154.7535429795193
 21
135.39746721791511
 31
0.0
  0
LINE
  5
3532
  8
3
 10
154.7535429795193
 20
135.22619779365331
 30
0.0
 11
154.7535429795193
 21
135.3118325057842
 31
0.0
  0
LINE
  5
3533
  8
3
 10
154.74002170918271
 20
135.06394254961569
 30
0.0
 11
154.74903588940711
 21
135.1450701716345
 31
0.0
  0
LINE
  5
3534
  8
3
 10
154.7535429795193
 20
135.39746721791511
 30
0.0
 11
154.74903588940711
 21
135.4831019300461
 31
0.0
  0
LINE
  5
3535
  8
3
 10
155.10509600826731
 20
136.0149385632804
 30
0.0
 11
155.1411527291645
 21
136.005924383056
 31
0.0
  0
LINE
  5
3536
  8
3
 10
154.73551461907061
 20
135.82564077856989
 30
0.0
 11
154.73551461907061
 21
135.9112754907008
 31
0.0
  0
LINE
  5
3537
  8
3
 10
154.9473478543419
 20
136.03747401384121
 30
0.0
 11
154.98791166535131
 21
136.02845983361681
 31
0.0
  0
LINE
  5
3538
  8
3
 10
154.73551461907061
 20
135.9112754907008
 30
0.0
 11
154.75805006963139
 21
136.0735307347384
 31
0.0
  0
LINE
  5
3539
  8
3
 10
154.74903588940711
 20
136.15916544686939
 30
0.0
 11
154.74903588940711
 21
136.19522216776659
 31
0.0
  0
LINE
  5
353A
  8
3
 10
154.74903588940711
 20
136.22677179855171
 30
0.0
 11
154.74903588940711
 21
136.2583214293368
 31
0.0
  0
LINE
  5
353B
  8
3
 10
154.74903588940711
 20
136.19522216776659
 30
0.0
 11
154.74903588940711
 21
136.22677179855171
 31
0.0
  0
LINE
  5
353C
  8
3
 10
154.7535429795193
 20
136.11860163585999
 30
0.0
 11
154.74903588940711
 21
136.15916544686939
 31
0.0
  0
LINE
  5
353D
  8
3
 10
154.75805006963139
 20
136.0735307347384
 30
0.0
 11
154.7535429795193
 21
136.11860163585999
 31
0.0
  0
LINE
  5
353E
  8
3
 10
154.91129113344471
 20
136.04648819406549
 30
0.0
 11
154.9473478543419
 21
136.03747401384121
 31
0.0
  0
LINE
  5
353F
  8
3
 10
154.8707273224353
 20
136.0555023742898
 30
0.0
 11
154.91129113344471
 21
136.04648819406549
 31
0.0
  0
LINE
  5
3540
  8
3
 10
154.83467060153799
 20
136.06902364462621
 30
0.0
 11
154.8707273224353
 21
136.0555023742898
 31
0.0
  0
LINE
  5
3541
  8
3
 10
154.79861388064069
 20
136.0870520050749
 30
0.0
 11
154.83467060153799
 21
136.06902364462621
 31
0.0
  0
LINE
  5
3542
  8
3
 10
154.76706424985559
 20
136.10508036552349
 30
0.0
 11
154.79861388064069
 21
136.0870520050749
 31
0.0
  0
LINE
  5
3543
  8
3
 10
154.76255715974349
 20
136.1140945457478
 30
0.0
 11
154.76706424985559
 21
136.10508036552349
 31
0.0
  0
LINE
  5
3544
  8
3
 10
154.76255715974349
 20
136.11860163585999
 30
0.0
 11
154.76255715974349
 21
136.1140945457478
 31
0.0
  0
LINE
  5
3545
  8
3
 10
154.76706424985559
 20
136.11860163585999
 30
0.0
 11
154.76255715974349
 21
136.11860163585999
 31
0.0
  0
LINE
  5
3546
  8
3
 10
154.7535429795193
 20
136.36198450191631
 30
0.0
 11
154.7535429795193
 21
136.38451995247709
 31
0.0
  0
LINE
  5
3547
  8
3
 10
154.7535429795193
 20
136.3349419612434
 30
0.0
 11
154.7535429795193
 21
136.36198450191631
 31
0.0
  0
LINE
  5
3548
  8
3
 10
154.7535429795193
 20
136.31240651068259
 30
0.0
 11
154.7535429795193
 21
136.3349419612434
 31
0.0
  0
LINE
  5
3549
  8
3
 10
154.74903588940711
 20
136.28536397000971
 30
0.0
 11
154.7535429795193
 21
136.31240651068259
 31
0.0
  0
LINE
  5
354A
  8
3
 10
154.74903588940711
 20
136.2583214293368
 30
0.0
 11
154.74903588940711
 21
136.28536397000971
 31
0.0
  0
LINE
  5
354B
  8
3
 10
154.98791166535131
 20
136.02845983361681
 30
0.0
 11
155.0239683862485
 21
136.02395274350471
 31
0.0
  0
LINE
  5
354C
  8
3
 10
155.0645321972579
 20
136.01944565339249
 30
0.0
 11
155.10509600826731
 21
136.0149385632804
 31
0.0
  0
LINE
  5
354D
  8
3
 10
155.0239683862485
 20
136.02395274350471
 30
0.0
 11
155.0645321972579
 21
136.01944565339249
 31
0.0
  0
LINE
  5
354E
  8
3
 10
154.73551461907061
 20
135.74000606643901
 30
0.0
 11
154.73551461907061
 21
135.82564077856989
 31
0.0
  0
LINE
  5
354F
  8
3
 10
154.74002170918271
 20
135.65437135430801
 30
0.0
 11
154.73551461907061
 21
135.74000606643901
 31
0.0
  0
LINE
  5
3550
  8
3
 10
155.21777326107119
 20
135.9969102028318
 30
0.0
 11
155.25833707208059
 21
135.98789602260749
 31
0.0
  0
LINE
  5
3551
  8
3
 10
155.18171654017399
 20
136.00141729294401
 30
0.0
 11
155.21777326107119
 21
135.9969102028318
 31
0.0
  0
LINE
  5
3552
  8
3
 10
155.1411527291645
 20
136.005924383056
 30
0.0
 11
155.18171654017399
 21
136.00141729294401
 31
0.0
  0
LINE
  5
3553
  8
3
 10
154.7535429795193
 20
136.42959085359871
 30
0.0
 11
154.7535429795193
 21
136.45212630415949
 31
0.0
  0
LINE
  5
3554
  8
3
 10
154.7535429795193
 20
136.45212630415949
 30
0.0
 11
154.74903588940711
 21
136.47466175472019
 31
0.0
  0
LINE
  5
3555
  8
3
 10
154.6814295377248
 20
136.56480355696331
 30
0.0
 11
154.67241535750051
 21
136.56480355696331
 31
0.0
  0
LINE
  5
3556
  8
3
 10
154.69044371794911
 20
136.56029646685121
 30
0.0
 11
154.6814295377248
 21
136.56480355696331
 31
0.0
  0
LINE
  5
3557
  8
3
 10
154.69945789817339
 20
136.56029646685121
 30
0.0
 11
154.69044371794911
 21
136.56029646685121
 31
0.0
  0
LINE
  5
3558
  8
3
 10
154.7084720783977
 20
136.555789376739
 30
0.0
 11
154.69945789817339
 21
136.56029646685121
 31
0.0
  0
LINE
  5
3559
  8
3
 10
154.71748625862199
 20
136.55128228662679
 30
0.0
 11
154.7084720783977
 21
136.555789376739
 31
0.0
  0
LINE
  5
355A
  8
3
 10
154.7265004388463
 20
136.54677519651469
 30
0.0
 11
154.71748625862199
 21
136.55128228662679
 31
0.0
  0
LINE
  5
355B
  8
3
 10
154.7310075289584
 20
136.5377610162904
 30
0.0
 11
154.7265004388463
 21
136.54677519651469
 31
0.0
  0
LINE
  5
355C
  8
3
 10
154.73551461907061
 20
136.53325392617819
 30
0.0
 11
154.7310075289584
 21
136.5377610162904
 31
0.0
  0
LINE
  5
355D
  8
3
 10
154.74452879929501
 20
136.52423974595391
 30
0.0
 11
154.73551461907061
 21
136.53325392617819
 31
0.0
  0
LINE
  5
355E
  8
3
 10
154.74903588940711
 20
136.47466175472019
 30
0.0
 11
154.74452879929501
 21
136.52423974595391
 31
0.0
  0
LINE
  5
355F
  8
3
 10
154.7535429795193
 20
136.4070554030379
 30
0.0
 11
154.7535429795193
 21
136.42959085359871
 31
0.0
  0
LINE
  5
3560
  8
3
 10
154.7535429795193
 20
136.38451995247709
 30
0.0
 11
154.7535429795193
 21
136.4070554030379
 31
0.0
  0
LINE
  5
3561
  8
3
 10
154.74452879929501
 20
135.56873664217699
 30
0.0
 11
154.74002170918271
 21
135.65437135430801
 31
0.0
  0
LINE
  5
3562
  8
3
 10
155.1366456390524
 20
137.22283871333801
 30
0.0
 11
155.1772094500617
 21
137.19579617266501
 31
0.0
  0
LINE
  5
3563
  8
3
 10
155.1411527291645
 20
137.5248137508523
 30
0.0
 11
155.0915747379309
 21
137.5248137508523
 31
0.0
  0
LINE
  5
3564
  8
3
 10
154.92481240378109
 20
137.30847342546889
 30
0.0
 11
154.93382658400549
 21
137.30396633535671
 31
0.0
  0
LINE
  5
3565
  8
3
 10
154.99692584557559
 20
137.52932084096449
 30
0.0
 11
154.951854944454
 21
137.5248137508523
 31
0.0
  0
LINE
  5
3566
  8
3
 10
154.8031209707529
 20
137.59242010253459
 30
0.0
 11
154.79861388064069
 21
137.66904063444119
 31
0.0
  0
LINE
  5
3567
  8
3
 10
154.81213515097721
 20
137.51579957062799
 30
0.0
 11
154.8031209707529
 21
137.59242010253459
 31
0.0
  0
LINE
  5
3568
  8
3
 10
154.90227695322031
 20
137.5248137508523
 30
0.0
 11
154.81213515097721
 21
137.51579957062799
 31
0.0
  0
LINE
  5
3569
  8
3
 10
154.951854944454
 20
137.5248137508523
 30
0.0
 11
154.90227695322031
 21
137.5248137508523
 31
0.0
  0
LINE
  5
356A
  8
3
 10
154.91129113344471
 20
137.31298051558099
 30
0.0
 11
154.92481240378109
 21
137.30847342546889
 31
0.0
  0
LINE
  5
356B
  8
3
 10
154.89776986310829
 20
137.31298051558099
 30
0.0
 11
154.91129113344471
 21
137.31298051558099
 31
0.0
  0
LINE
  5
356C
  8
3
 10
154.8842485927716
 20
137.3174876056932
 30
0.0
 11
154.89776986310829
 21
137.31298051558099
 31
0.0
  0
LINE
  5
356D
  8
3
 10
154.8707273224353
 20
137.3219946958053
 30
0.0
 11
154.8842485927716
 21
137.3174876056932
 31
0.0
  0
LINE
  5
356E
  8
3
 10
154.8572060520988
 20
137.32650178591749
 30
0.0
 11
154.8707273224353
 21
137.3219946958053
 31
0.0
  0
LINE
  5
356F
  8
3
 10
154.84368478176231
 20
137.33100887602961
 30
0.0
 11
154.8572060520988
 21
137.32650178591749
 31
0.0
  0
LINE
  5
3570
  8
3
 10
154.74452879929501
 20
137.3490372364783
 30
0.0
 11
154.84368478176231
 21
137.33100887602961
 31
0.0
  0
LINE
  5
3571
  8
3
 10
154.69495080806121
 20
137.3490372364783
 30
0.0
 11
154.74452879929501
 21
137.3490372364783
 31
0.0
  0
LINE
  5
3572
  8
3
 10
155.0915747379309
 20
137.5248137508523
 30
0.0
 11
155.04650383680931
 21
137.5248137508523
 31
0.0
  0
LINE
  5
3573
  8
3
 10
155.04650383680931
 20
137.5248137508523
 30
0.0
 11
154.99692584557559
 21
137.52932084096449
 31
0.0
  0
LINE
  5
3574
  8
3
 10
154.79861388064069
 20
137.74115407623569
 30
0.0
 11
154.79861388064069
 21
137.8177746081424
 31
0.0
  0
LINE
  5
3575
  8
3
 10
154.79861388064069
 20
137.8177746081424
 30
0.0
 11
154.8031209707529
 21
137.894395140049
 31
0.0
  0
LINE
  5
3576
  8
3
 10
154.79861388064069
 20
137.66904063444119
 30
0.0
 11
154.79861388064069
 21
137.74115407623569
 31
0.0
  0
LINE
  5
3577
  8
3
 10
155.0915747379309
 20
137.25889543423509
 30
0.0
 11
155.0915747379309
 21
137.25438834412299
 31
0.0
  0
LINE
  5
3578
  8
3
 10
155.08706764781871
 20
137.25889543423509
 30
0.0
 11
155.0915747379309
 21
137.25889543423509
 31
0.0
  0
LINE
  5
3579
  8
3
 10
155.08256055770661
 20
137.26340252434741
 30
0.0
 11
155.08706764781871
 21
137.25889543423509
 31
0.0
  0
LINE
  5
357A
  8
3
 10
155.0780534675944
 20
137.26340252434741
 30
0.0
 11
155.08256055770661
 21
137.26340252434741
 31
0.0
  0
LINE
  5
357B
  8
3
 10
155.0735463774823
 20
137.26340252434741
 30
0.0
 11
155.0780534675944
 21
137.26340252434741
 31
0.0
  0
LINE
  5
357C
  8
3
 10
155.06903928737
 20
137.26340252434741
 30
0.0
 11
155.0735463774823
 21
137.26340252434741
 31
0.0
  0
LINE
  5
357D
  8
3
 10
155.0645321972579
 20
137.26340252434741
 30
0.0
 11
155.06903928737
 21
137.26340252434741
 31
0.0
  0
LINE
  5
357E
  8
3
 10
155.06002510714569
 20
137.26790961445951
 30
0.0
 11
155.0645321972579
 21
137.26340252434741
 31
0.0
  0
LINE
  5
357F
  8
3
 10
155.05551801703359
 20
137.26790961445951
 30
0.0
 11
155.06002510714569
 21
137.26790961445951
 31
0.0
  0
LINE
  5
3580
  8
3
 10
155.05101092692141
 20
137.26790961445951
 30
0.0
 11
155.05551801703359
 21
137.26790961445951
 31
0.0
  0
LINE
  5
3581
  8
3
 10
155.04650383680931
 20
137.26790961445951
 30
0.0
 11
155.05101092692141
 21
137.26790961445951
 31
0.0
  0
LINE
  5
3582
  8
3
 10
155.04199674669709
 20
137.26790961445951
 30
0.0
 11
155.04650383680931
 21
137.26790961445951
 31
0.0
  0
LINE
  5
3583
  8
3
 10
155.037489656585
 20
137.26790961445951
 30
0.0
 11
155.04199674669709
 21
137.26790961445951
 31
0.0
  0
LINE
  5
3584
  8
3
 10
155.0149542060243
 20
137.2814308847959
 30
0.0
 11
155.037489656585
 21
137.26790961445951
 31
0.0
  0
LINE
  5
3585
  8
3
 10
154.99692584557559
 20
137.29044506502021
 30
0.0
 11
155.00594002579999
 21
137.28593797490819
 31
0.0
  0
LINE
  5
3586
  8
3
 10
155.00594002579999
 20
137.28593797490819
 30
0.0
 11
155.0149542060243
 21
137.2814308847959
 31
0.0
  0
LINE
  5
3587
  8
3
 10
154.9473478543419
 20
137.30396633535671
 30
0.0
 11
154.96086912467831
 21
137.29945924524461
 31
0.0
  0
LINE
  5
3588
  8
3
 10
154.93382658400549
 20
137.30396633535671
 30
0.0
 11
154.9473478543419
 21
137.30396633535671
 31
0.0
  0
LINE
  5
3589
  8
3
 10
154.98340457523909
 20
137.29495215513239
 30
0.0
 11
154.99692584557559
 21
137.29044506502021
 31
0.0
  0
LINE
  5
358A
  8
3
 10
154.97439039501481
 20
137.29945924524461
 30
0.0
 11
154.98340457523909
 21
137.29495215513239
 31
0.0
  0
LINE
  5
358B
  8
3
 10
154.96086912467831
 20
137.29945924524461
 30
0.0
 11
154.97439039501481
 21
137.29945924524461
 31
0.0
  0
LINE
  5
358C
  8
3
 10
155.1005889181551
 20
137.24988125401089
 30
0.0
 11
155.1366456390524
 21
137.22283871333801
 31
0.0
  0
LINE
  5
358D
  8
3
 10
155.0915747379309
 20
137.25438834412299
 30
0.0
 11
155.1005889181551
 21
137.24988125401089
 31
0.0
  0
LINE
  5
358E
  8
3
 10
155.18622363028601
 20
137.5248137508523
 30
0.0
 11
155.1411527291645
 21
137.5248137508523
 31
0.0
  0
LINE
  5
358F
  8
3
 10
155.23129453140771
 20
137.52030666074009
 30
0.0
 11
155.18622363028601
 21
137.5248137508523
 31
0.0
  0
LINE
  5
3590
  8
3
 10
155.1772094500617
 20
137.19579617266501
 30
0.0
 11
155.213266170959
 21
137.16424654187989
 31
0.0
  0
LINE
  5
3591
  8
3
 10
154.8031209707529
 20
138.11974964565681
 30
0.0
 11
154.8031209707529
 21
138.19186308745131
 31
0.0
  0
LINE
  5
3592
  8
3
 10
154.74452879929501
 20
138.45778140406841
 30
0.0
 11
154.71748625862199
 21
138.52088066563849
 31
0.0
  0
LINE
  5
3593
  8
3
 10
154.76706424985559
 20
138.3946821424982
 30
0.0
 11
154.74452879929501
 21
138.45778140406841
 31
0.0
  0
LINE
  5
3594
  8
3
 10
154.7850926103043
 20
138.3315828809281
 30
0.0
 11
154.76706424985559
 21
138.3946821424982
 31
0.0
  0
LINE
  5
3595
  8
3
 10
154.7941067905287
 20
138.26397652924581
 30
0.0
 11
154.7850926103043
 21
138.3315828809281
 31
0.0
  0
LINE
  5
3596
  8
3
 10
154.8031209707529
 20
138.19186308745131
 30
0.0
 11
154.7941067905287
 21
138.26397652924581
 31
0.0
  0
LINE
  5
3597
  8
3
 10
154.8031209707529
 20
137.97101567195571
 30
0.0
 11
154.8031209707529
 21
138.04763620386231
 31
0.0
  0
LINE
  5
3598
  8
3
 10
154.8031209707529
 20
138.04763620386231
 30
0.0
 11
154.8031209707529
 21
138.11974964565681
 31
0.0
  0
LINE
  5
3599
  8
3
 10
154.8031209707529
 20
137.894395140049
 30
0.0
 11
154.8031209707529
 21
137.97101567195571
 31
0.0
  0
LINE
  5
359A
  8
3
 10
155.0915747379309
 20
139.3141285253779
 30
0.0
 11
155.1411527291645
 21
139.26905762425631
 31
0.0
  0
LINE
  5
359B
  8
3
 10
154.9473478543419
 20
139.40427032762099
 30
0.0
 11
154.96537621479061
 21
139.39525614739659
 31
0.0
  0
LINE
  5
359C
  8
3
 10
154.9293194938933
 20
139.4132845078453
 30
0.0
 11
154.9473478543419
 21
139.40427032762099
 31
0.0
  0
LINE
  5
359D
  8
3
 10
154.91129113344471
 20
139.42229868806959
 30
0.0
 11
154.9293194938933
 21
139.4132845078453
 31
0.0
  0
LINE
  5
359E
  8
3
 10
154.89326277299611
 20
139.4313128682939
 30
0.0
 11
154.91129113344471
 21
139.42229868806959
 31
0.0
  0
LINE
  5
359F
  8
3
 10
154.8752344125474
 20
139.44032704851821
 30
0.0
 11
154.89326277299611
 21
139.4313128682939
 31
0.0
  0
LINE
  5
35A0
  8
3
 10
154.8572060520988
 20
139.4493412287425
 30
0.0
 11
154.8752344125474
 21
139.44032704851821
 31
0.0
  0
LINE
  5
35A1
  8
3
 10
154.98340457523909
 20
139.3862419671724
 30
0.0
 11
155.00143293568769
 21
139.377227786948
 31
0.0
  0
LINE
  5
35A2
  8
3
 10
154.96537621479061
 20
139.39525614739659
 30
0.0
 11
154.98340457523909
 21
139.3862419671724
 31
0.0
  0
LINE
  5
35A3
  8
3
 10
155.037489656585
 20
139.3546923363873
 30
0.0
 11
155.0915747379309
 21
139.3141285253779
 31
0.0
  0
LINE
  5
35A4
  8
3
 10
155.00143293568769
 20
139.377227786948
 30
0.0
 11
155.037489656585
 21
139.3546923363873
 31
0.0
  0
LINE
  5
35A5
  8
3
 10
155.23129453140771
 20
139.174408731901
 30
0.0
 11
155.27185834241709
 21
139.12483074066739
 31
0.0
  0
LINE
  5
35A6
  8
3
 10
155.18622363028601
 20
139.2239867231348
 30
0.0
 11
155.23129453140771
 21
139.174408731901
 31
0.0
  0
LINE
  5
35A7
  8
3
 10
155.1411527291645
 20
139.26905762425631
 30
0.0
 11
155.18622363028601
 21
139.2239867231348
 31
0.0
  0
LINE
  5
35A8
  8
3
 10
154.82114933120161
 20
139.46736958919109
 30
0.0
 11
154.83917769165021
 21
139.45835540896681
 31
0.0
  0
LINE
  5
35A9
  8
3
 10
154.8031209707529
 20
139.47638376941541
 30
0.0
 11
154.82114933120161
 21
139.46736958919109
 31
0.0
  0
LINE
  5
35AA
  8
3
 10
154.7850926103043
 20
139.4853979496398
 30
0.0
 11
154.8031209707529
 21
139.47638376941541
 31
0.0
  0
LINE
  5
35AB
  8
3
 10
154.76706424985559
 20
139.49441212986409
 30
0.0
 11
154.7850926103043
 21
139.4853979496398
 31
0.0
  0
LINE
  5
35AC
  8
3
 10
154.7535429795193
 20
139.5034263100884
 30
0.0
 11
154.76706424985559
 21
139.49441212986409
 31
0.0
  0
LINE
  5
35AD
  8
3
 10
154.67241535750051
 20
139.5259617606491
 30
0.0
 11
154.7535429795193
 21
139.5034263100884
 31
0.0
  0
LINE
  5
35AE
  8
3
 10
155.1005889181551
 20
139.68370991457459
 30
0.0
 11
154.91579822355681
 21
139.68370991457459
 31
0.0
  0
LINE
  5
35AF
  8
3
 10
154.91579822355681
 20
139.68370991457459
 30
0.0
 11
154.74452879929501
 21
139.67920282446241
 31
0.0
  0
LINE
  5
35B0
  8
3
 10
154.83917769165021
 20
139.45835540896681
 30
0.0
 11
154.8572060520988
 21
139.4493412287425
 31
0.0
  0
LINE
  5
35B1
  8
3
 10
155.213266170959
 20
137.16424654187989
 30
0.0
 11
155.25382998196841
 21
137.1326969110948
 31
0.0
  0
LINE
  5
35B2
  8
3
 10
153.59972791080759
 20
136.10057327541131
 30
0.0
 11
153.65381299215341
 21
136.12310872597209
 31
0.0
  0
LINE
  5
35B3
  8
3
 10
153.65381299215341
 20
136.33944905135559
 30
0.0
 11
153.554657009686
 21
136.38001286236499
 31
0.0
  0
LINE
  5
35B4
  8
3
 10
153.6583200822655
 20
137.56537756186171
 30
0.0
 11
153.61775627125621
 21
137.56988465197389
 31
0.0
  0
LINE
  5
35B5
  8
3
 10
153.61775627125621
 20
137.47523575961861
 30
0.0
 11
153.8025469658545
 21
137.47974284973071
 31
0.0
  0
LINE
  5
35B6
  8
3
 10
153.613249181144
 20
139.33666397593871
 30
0.0
 11
153.6583200822655
 21
139.3727206968359
 31
0.0
  0
LINE
  5
35B7
  8
3
 10
153.64930590204119
 20
139.55300430132209
 30
0.0
 11
153.6267704514805
 21
139.54399012109781
 31
0.0
  0
LINE
  5
35B8
  8
3
 10
154.33889068920101
 20
136.09606618529921
 30
0.0
 11
154.37945450021039
 21
136.08254491496271
 31
0.0
  0
LINE
  5
35B9
  8
3
 10
153.874660407649
 20
136.29888524034621
 30
0.0
 11
153.816068236191
 21
136.30789942057049
 31
0.0
  0
LINE
  5
35BA
  8
3
 10
153.7709973350695
 20
136.15465835675721
 30
0.0
 11
153.89719585820981
 21
136.17719380731799
 31
0.0
  0
LINE
  5
35BB
  8
3
 10
153.65381299215341
 20
136.12310872597209
 30
0.0
 11
153.71240516361129
 21
136.14113708642071
 31
0.0
  0
LINE
  5
35BC
  8
3
 10
153.70789807349931
 20
136.32592778101909
 30
0.0
 11
153.65381299215341
 21
136.33944905135559
 31
0.0
  0
LINE
  5
35BD
  8
3
 10
153.71240516361129
 20
136.14113708642071
 30
0.0
 11
153.7709973350695
 21
136.15465835675721
 31
0.0
  0
LINE
  5
35BE
  8
3
 10
153.7619831548451
 20
136.31240651068259
 30
0.0
 11
153.70789807349931
 21
136.32592778101909
 31
0.0
  0
LINE
  5
35BF
  8
3
 10
153.816068236191
 20
136.30789942057049
 30
0.0
 11
153.7619831548451
 21
136.31240651068259
 31
0.0
  0
LINE
  5
35C0
  8
3
 10
153.98733766045291
 20
136.17719380731799
 30
0.0
 11
154.03240856157441
 21
136.17268671720581
 31
0.0
  0
LINE
  5
35C1
  8
3
 10
154.04142274179881
 20
136.30339233045831
 30
0.0
 11
153.98733766045291
 21
136.29888524034621
 31
0.0
  0
LINE
  5
35C2
  8
3
 10
154.03240856157441
 20
136.17268671720581
 30
0.0
 11
154.077479462696
 21
136.16817962709371
 31
0.0
  0
LINE
  5
35C3
  8
3
 10
154.1000149132567
 20
136.31240651068259
 30
0.0
 11
154.04142274179881
 21
136.30339233045831
 31
0.0
  0
LINE
  5
35C4
  8
3
 10
153.94226675933129
 20
136.17719380731799
 30
0.0
 11
153.98733766045291
 21
136.17719380731799
 31
0.0
  0
LINE
  5
35C5
  8
3
 10
153.98733766045291
 20
136.29888524034621
 30
0.0
 11
153.92874548899491
 21
136.29888524034621
 31
0.0
  0
LINE
  5
35C6
  8
3
 10
153.89719585820981
 20
136.17719380731799
 30
0.0
 11
153.94226675933129
 21
136.17719380731799
 31
0.0
  0
LINE
  5
35C7
  8
3
 10
153.92874548899491
 20
136.29888524034621
 30
0.0
 11
153.874660407649
 21
136.29888524034621
 31
0.0
  0
LINE
  5
35C8
  8
3
 10
154.2983268781916
 20
136.1140945457478
 30
0.0
 11
154.33889068920101
 21
136.09606618529921
 31
0.0
  0
LINE
  5
35C9
  8
3
 10
154.2577630671822
 20
136.1276158160843
 30
0.0
 11
154.2983268781916
 21
136.1140945457478
 31
0.0
  0
LINE
  5
35CA
  8
3
 10
154.21269216606061
 20
136.14113708642071
 30
0.0
 11
154.2577630671822
 21
136.1276158160843
 31
0.0
  0
LINE
  5
35CB
  8
3
 10
154.1676212649391
 20
136.15015126664511
 30
0.0
 11
154.21269216606061
 21
136.14113708642071
 31
0.0
  0
LINE
  5
35CC
  8
3
 10
154.12255036381751
 20
136.15916544686939
 30
0.0
 11
154.1676212649391
 21
136.15015126664511
 31
0.0
  0
LINE
  5
35CD
  8
3
 10
154.077479462696
 20
136.16817962709371
 30
0.0
 11
154.12255036381751
 21
136.15916544686939
 31
0.0
  0
LINE
  5
35CE
  8
3
 10
154.1540999946026
 20
136.3214206909069
 30
0.0
 11
154.1000149132567
 21
136.31240651068259
 31
0.0
  0
LINE
  5
35CF
  8
3
 10
154.20818507594839
 20
136.3349419612434
 30
0.0
 11
154.1540999946026
 21
136.3214206909069
 31
0.0
  0
LINE
  5
35D0
  8
3
 10
154.26227015729441
 20
136.3484632315799
 30
0.0
 11
154.20818507594839
 21
136.3349419612434
 31
0.0
  0
LINE
  5
35D1
  8
3
 10
154.3163552386402
 20
136.37099868214059
 30
0.0
 11
154.26227015729441
 21
136.3484632315799
 31
0.0
  0
LINE
  5
35D2
  8
3
 10
154.37044031998599
 20
136.3935341327014
 30
0.0
 11
154.3163552386402
 21
136.37099868214059
 31
0.0
  0
LINE
  5
35D3
  8
3
 10
154.42001831121979
 20
136.0600094644019
 30
0.0
 11
154.45607503211701
 21
136.0419811039533
 31
0.0
  0
LINE
  5
35D4
  8
3
 10
154.37945450021039
 20
136.08254491496271
 30
0.0
 11
154.42001831121979
 21
136.0600094644019
 31
0.0
  0
LINE
  5
35D5
  8
3
 10
154.4470608518927
 20
136.43860503382299
 30
0.0
 11
154.42452540133189
 21
136.41606958326221
 31
0.0
  0
LINE
  5
35D6
  8
3
 10
153.84761786697601
 20
137.07410473963679
 30
0.0
 11
153.85663204720029
 21
137.07410473963679
 31
0.0
  0
LINE
  5
35D7
  8
3
 10
153.84761786697601
 20
137.07861182974901
 30
0.0
 11
153.84761786697601
 21
137.07410473963679
 31
0.0
  0
LINE
  5
35D8
  8
3
 10
154.00987311101369
 20
137.07410473963679
 30
0.0
 11
154.0369156516866
 21
137.07861182974901
 31
0.0
  0
LINE
  5
35D9
  8
3
 10
153.99635184067719
 20
137.0695976495247
 30
0.0
 11
154.00987311101369
 21
137.07410473963679
 31
0.0
  0
LINE
  5
35DA
  8
3
 10
154.0369156516866
 20
137.07861182974901
 30
0.0
 11
154.10902909348101
 21
137.15973945176779
 31
0.0
  0
LINE
  5
35DB
  8
3
 10
153.94677384944339
 20
137.06509055941251
 30
0.0
 11
153.9648022098921
 21
137.06509055941251
 31
0.0
  0
LINE
  5
35DC
  8
3
 10
153.93325257910701
 20
137.06509055941251
 30
0.0
 11
153.94677384944339
 21
137.06509055941251
 31
0.0
  0
LINE
  5
35DD
  8
3
 10
153.9648022098921
 20
137.06509055941251
 30
0.0
 11
153.9828305703407
 21
137.0695976495247
 31
0.0
  0
LINE
  5
35DE
  8
3
 10
153.9828305703407
 20
137.0695976495247
 30
0.0
 11
153.99635184067719
 21
137.0695976495247
 31
0.0
  0
LINE
  5
35DF
  8
3
 10
153.901702948322
 20
137.06509055941251
 30
0.0
 11
153.91522421865841
 21
137.06509055941251
 31
0.0
  0
LINE
  5
35E0
  8
3
 10
153.8881816779855
 20
137.06509055941251
 30
0.0
 11
153.901702948322
 21
137.06509055941251
 31
0.0
  0
LINE
  5
35E1
  8
3
 10
153.86564622742469
 20
137.0695976495247
 30
0.0
 11
153.874660407649
 21
137.0695976495247
 31
0.0
  0
LINE
  5
35E2
  8
3
 10
153.85663204720029
 20
137.07410473963679
 30
0.0
 11
153.86564622742469
 21
137.0695976495247
 31
0.0
  0
LINE
  5
35E3
  8
3
 10
153.874660407649
 20
137.0695976495247
 30
0.0
 11
153.8881816779855
 21
137.06509055941251
 31
0.0
  0
LINE
  5
35E4
  8
3
 10
153.91522421865841
 20
137.06509055941251
 30
0.0
 11
153.93325257910701
 21
137.06509055941251
 31
0.0
  0
LINE
  5
35E5
  8
3
 10
154.45607503211701
 20
136.44761921404731
 30
0.0
 11
154.4470608518927
 21
136.43860503382299
 31
0.0
  0
LINE
  5
35E6
  8
3
 10
154.46959630245351
 20
136.45212630415949
 30
0.0
 11
154.45607503211701
 21
136.44761921404731
 31
0.0
  0
LINE
  5
35E7
  8
3
 10
154.42452540133189
 20
136.41606958326221
 30
0.0
 11
154.37044031998599
 21
136.3935341327014
 31
0.0
  0
LINE
  5
35E8
  8
3
 10
154.56875228492089
 20
135.9383180313738
 30
0.0
 11
154.57325937503299
 21
135.93381094126161
 31
0.0
  0
LINE
  5
35E9
  8
3
 10
154.56875228492089
 20
135.9428251214859
 30
0.0
 11
154.56875228492089
 21
135.9383180313738
 31
0.0
  0
LINE
  5
35EA
  8
3
 10
154.56875228492089
 20
135.94733221159811
 30
0.0
 11
154.56875228492089
 21
135.9428251214859
 31
0.0
  0
LINE
  5
35EB
  8
3
 10
154.56424519480879
 20
135.95183930171021
 30
0.0
 11
154.56875228492089
 21
135.94733221159811
 31
0.0
  0
LINE
  5
35EC
  8
3
 10
154.56424519480879
 20
135.95634639182239
 30
0.0
 11
154.56424519480879
 21
135.95183930171021
 31
0.0
  0
LINE
  5
35ED
  8
3
 10
154.56424519480879
 20
135.96085348193461
 30
0.0
 11
154.56424519480879
 21
135.95634639182239
 31
0.0
  0
LINE
  5
35EE
  8
3
 10
154.55973810469661
 20
135.96085348193461
 30
0.0
 11
154.56424519480879
 21
135.96085348193461
 31
0.0
  0
LINE
  5
35EF
  8
3
 10
154.55973810469661
 20
135.96536057204671
 30
0.0
 11
154.55973810469661
 21
135.96085348193461
 31
0.0
  0
LINE
  5
35F0
  8
3
 10
154.49213175301429
 20
136.01944565339249
 30
0.0
 11
154.55973810469661
 21
135.96536057204671
 31
0.0
  0
LINE
  5
35F1
  8
3
 10
154.49213175301429
 20
136.470154664608
 30
0.0
 11
154.48311757279001
 21
136.46114048438369
 31
0.0
  0
LINE
  5
35F2
  8
3
 10
154.5056530233507
 20
136.47916884483229
 30
0.0
 11
154.49213175301429
 21
136.470154664608
 31
0.0
  0
LINE
  5
35F3
  8
3
 10
154.5191742936872
 20
136.48818302505671
 30
0.0
 11
154.5056530233507
 21
136.47916884483229
 31
0.0
  0
LINE
  5
35F4
  8
3
 10
154.52818847391151
 20
136.497197205281
 30
0.0
 11
154.5191742936872
 21
136.48818302505671
 31
0.0
  0
LINE
  5
35F5
  8
3
 10
154.5417097442479
 20
136.50621138550531
 30
0.0
 11
154.52818847391151
 21
136.497197205281
 31
0.0
  0
LINE
  5
35F6
  8
3
 10
154.55072392447229
 20
136.51522556572959
 30
0.0
 11
154.5417097442479
 21
136.50621138550531
 31
0.0
  0
LINE
  5
35F7
  8
3
 10
154.57325937503299
 20
136.52874683606609
 30
0.0
 11
154.56424519480879
 21
136.52423974595391
 31
0.0
  0
LINE
  5
35F8
  8
3
 10
154.5822735552573
 20
136.5377610162904
 30
0.0
 11
154.57325937503299
 21
136.52874683606609
 31
0.0
  0
LINE
  5
35F9
  8
3
 10
154.59128773548159
 20
136.54677519651469
 30
0.0
 11
154.5822735552573
 21
136.5377610162904
 31
0.0
  0
LINE
  5
35FA
  8
3
 10
154.60480900581811
 20
136.555789376739
 30
0.0
 11
154.59128773548159
 21
136.54677519651469
 31
0.0
  0
LINE
  5
35FB
  8
3
 10
154.62283736626671
 20
136.56480355696331
 30
0.0
 11
154.60480900581811
 21
136.555789376739
 31
0.0
  0
LINE
  5
35FC
  8
3
 10
154.63185154649111
 20
136.56480355696331
 30
0.0
 11
154.62283736626671
 21
136.56480355696331
 31
0.0
  0
LINE
  5
35FD
  8
3
 10
154.64086572671539
 20
136.5693106470755
 30
0.0
 11
154.63185154649111
 21
136.56480355696331
 31
0.0
  0
LINE
  5
35FE
  8
3
 10
154.6543869970518
 20
136.5693106470755
 30
0.0
 11
154.64086572671539
 21
136.5693106470755
 31
0.0
  0
LINE
  5
35FF
  8
3
 10
154.66340117727611
 20
136.5693106470755
 30
0.0
 11
154.6543869970518
 21
136.5693106470755
 31
0.0
  0
LINE
  5
3600
  8
3
 10
154.56424519480879
 20
136.52423974595391
 30
0.0
 11
154.55072392447229
 21
136.51522556572959
 31
0.0
  0
LINE
  5
3601
  8
3
 10
154.48311757279001
 20
136.46114048438369
 30
0.0
 11
154.46959630245351
 21
136.45212630415949
 31
0.0
  0
LINE
  5
3602
  8
3
 10
154.45607503211701
 20
136.0419811039533
 30
0.0
 11
154.49213175301429
 21
136.01944565339249
 31
0.0
  0
LINE
  5
3603
  8
3
 10
154.38846868043461
 20
137.60143428275899
 30
0.0
 11
154.35691904964949
 21
137.60143428275899
 31
0.0
  0
LINE
  5
3604
  8
3
 10
154.35691904964949
 20
137.29495215513239
 30
0.0
 11
154.4019899507712
 21
137.30847342546889
 31
0.0
  0
LINE
  5
3605
  8
3
 10
153.816068236191
 20
137.33100887602961
 30
0.0
 11
153.82508241641531
 21
137.2453741638987
 31
0.0
  0
LINE
  5
3606
  8
3
 10
153.80705405596669
 20
137.41213649804851
 30
0.0
 11
153.816068236191
 21
137.33100887602961
 31
0.0
  0
LINE
  5
3607
  8
3
 10
153.79353278563019
 20
137.6555193641048
 30
0.0
 11
153.79353278563019
 21
137.57439174208599
 31
0.0
  0
LINE
  5
3608
  8
3
 10
153.79353278563019
 20
137.57439174208599
 30
0.0
 11
153.8025469658545
 21
137.49326412006721
 31
0.0
  0
LINE
  5
3609
  8
3
 10
153.8025469658545
 20
137.47974284973071
 30
0.0
 11
153.8025469658545
 21
137.49326412006721
 31
0.0
  0
LINE
  5
360A
  8
3
 10
153.71270619453909
 20
137.559334660498
 30
0.0
 11
153.6583200822655
 21
137.56537756186171
 31
0.0
  0
LINE
  5
360B
  8
3
 10
153.8025469658545
 20
137.49326412006721
 30
0.0
 11
153.80705405596669
 21
137.41213649804851
 31
0.0
  0
ARC
  5
360C
  8
3
 10
153.70385877083331
 20
137.45884731690441
 30
0.0
 40
0.1008760780793214
 50
11.95483737982954
 51
84.968359139189019
  0
LINE
  5
360D
  8
3
 10
154.06846528247161
 20
137.60143428275899
 30
0.0
 11
154.06395819235959
 21
137.60143428275899
 31
0.0
  0
LINE
  5
360E
  8
3
 10
154.07297237258379
 20
137.60143428275899
 30
0.0
 11
154.06846528247161
 21
137.60143428275899
 31
0.0
  0
LINE
  5
360F
  8
3
 10
154.077479462696
 20
137.60143428275899
 30
0.0
 11
154.07297237258379
 21
137.60143428275899
 31
0.0
  0
LINE
  5
3610
  8
3
 10
154.0819865528081
 20
137.60143428275899
 30
0.0
 11
154.077479462696
 21
137.60143428275899
 31
0.0
  0
LINE
  5
3611
  8
3
 10
154.0819865528081
 20
137.5969271926468
 30
0.0
 11
154.0819865528081
 21
137.60143428275899
 31
0.0
  0
LINE
  5
3612
  8
3
 10
154.0864936429202
 20
137.5969271926468
 30
0.0
 11
154.0819865528081
 21
137.5969271926468
 31
0.0
  0
LINE
  5
3613
  8
3
 10
154.09100073303239
 20
137.5969271926468
 30
0.0
 11
154.0864936429202
 21
137.5969271926468
 31
0.0
  0
LINE
  5
3614
  8
3
 10
154.0955078231446
 20
137.5969271926468
 30
0.0
 11
154.09100073303239
 21
137.5969271926468
 31
0.0
  0
LINE
  5
3615
  8
3
 10
154.1000149132567
 20
137.5969271926468
 30
0.0
 11
154.0955078231446
 21
137.5969271926468
 31
0.0
  0
LINE
  5
3616
  8
3
 10
154.10452200336891
 20
137.5969271926468
 30
0.0
 11
154.1000149132567
 21
137.5969271926468
 31
0.0
  0
LINE
  5
3617
  8
3
 10
154.10902909348101
 20
137.5969271926468
 30
0.0
 11
154.10452200336891
 21
137.5969271926468
 31
0.0
  0
LINE
  5
3618
  8
3
 10
154.11353618359331
 20
137.59242010253459
 30
0.0
 11
154.10902909348101
 21
137.5969271926468
 31
0.0
  0
LINE
  5
3619
  8
3
 10
154.1676212649391
 20
137.5969271926468
 30
0.0
 11
154.11353618359331
 21
137.59242010253459
 31
0.0
  0
LINE
  5
361A
  8
3
 10
154.19466380561201
 20
137.5969271926468
 30
0.0
 11
154.1676212649391
 21
137.5969271926468
 31
0.0
  0
LINE
  5
361B
  8
3
 10
154.221706346285
 20
137.60143428275899
 30
0.0
 11
154.19466380561201
 21
137.5969271926468
 31
0.0
  0
LINE
  5
361C
  8
3
 10
154.2487488869578
 20
137.60143428275899
 30
0.0
 11
154.221706346285
 21
137.60143428275899
 31
0.0
  0
LINE
  5
361D
  8
3
 10
154.27579142763079
 20
137.60143428275899
 30
0.0
 11
154.2487488869578
 21
137.60143428275899
 31
0.0
  0
LINE
  5
361E
  8
3
 10
154.30283396830379
 20
137.60143428275899
 30
0.0
 11
154.27579142763079
 21
137.60143428275899
 31
0.0
  0
LINE
  5
361F
  8
3
 10
154.3298765089767
 20
137.60143428275899
 30
0.0
 11
154.30283396830379
 21
137.60143428275899
 31
0.0
  0
LINE
  5
3620
  8
3
 10
154.35691904964949
 20
137.60143428275899
 30
0.0
 11
154.3298765089767
 21
137.60143428275899
 31
0.0
  0
LINE
  5
3621
  8
3
 10
153.78902569551809
 20
137.8177746081424
 30
0.0
 11
153.78902569551809
 21
137.73664698612359
 31
0.0
  0
LINE
  5
3622
  8
3
 10
153.79353278563019
 20
137.89890223016121
 30
0.0
 11
153.78902569551809
 21
137.8177746081424
 31
0.0
  0
LINE
  5
3623
  8
3
 10
153.78902569551809
 20
137.73664698612359
 30
0.0
 11
153.79353278563019
 21
137.6555193641048
 31
0.0
  0
LINE
  5
3624
  8
3
 10
154.14508581437829
 20
137.1867819924407
 30
0.0
 11
154.18114253527551
 21
137.21382453311361
 31
0.0
  0
LINE
  5
3625
  8
3
 10
154.30734105841589
 20
137.2769237946838
 30
0.0
 11
154.35691904964949
 21
137.29495215513239
 31
0.0
  0
LINE
  5
3626
  8
3
 10
154.26677724740651
 20
137.25889543423509
 30
0.0
 11
154.30734105841589
 21
137.2769237946838
 31
0.0
  0
LINE
  5
3627
  8
3
 10
154.221706346285
 20
137.23635998367439
 30
0.0
 11
154.26677724740651
 21
137.25889543423509
 31
0.0
  0
LINE
  5
3628
  8
3
 10
154.18114253527551
 20
137.21382453311361
 30
0.0
 11
154.221706346285
 21
137.23635998367439
 31
0.0
  0
LINE
  5
3629
  8
3
 10
154.42001831121979
 20
137.60594137287109
 30
0.0
 11
154.38846868043461
 21
137.60143428275899
 31
0.0
  0
LINE
  5
362A
  8
3
 10
154.45156794200491
 20
137.60594137287109
 30
0.0
 11
154.42001831121979
 21
137.60594137287109
 31
0.0
  0
LINE
  5
362B
  8
3
 10
154.4019899507712
 20
137.30847342546889
 30
0.0
 11
154.4470608518927
 21
137.3219946958053
 31
0.0
  0
LINE
  5
362C
  8
3
 10
153.8115611460789
 20
138.2279198083485
 30
0.0
 11
153.8025469658545
 21
138.14679218632969
 31
0.0
  0
LINE
  5
362D
  8
3
 10
153.85663204720029
 20
138.4352459535076
 30
0.0
 11
153.84311077686391
 21
138.42172468317119
 31
0.0
  0
LINE
  5
362E
  8
3
 10
153.816068236191
 20
138.31355452047941
 30
0.0
 11
153.8115611460789
 21
138.2279198083485
 31
0.0
  0
LINE
  5
362F
  8
3
 10
153.82958950652741
 20
138.3946821424982
 30
0.0
 11
153.816068236191
 21
138.31355452047941
 31
0.0
  0
LINE
  5
3630
  8
3
 10
153.84311077686391
 20
138.42172468317119
 30
0.0
 11
153.82958950652741
 21
138.3946821424982
 31
0.0
  0
LINE
  5
3631
  8
3
 10
154.05945110224729
 20
138.63355791844239
 30
0.0
 11
154.04592983191091
 21
138.63355791844239
 31
0.0
  0
LINE
  5
3632
  8
3
 10
154.01438020112579
 20
138.62003664810601
 30
0.0
 11
153.99635184067719
 21
138.60651537776951
 31
0.0
  0
LINE
  5
3633
  8
3
 10
154.02790147146229
 20
138.62905082833029
 30
0.0
 11
154.01438020112579
 21
138.62003664810601
 31
0.0
  0
LINE
  5
3634
  8
3
 10
154.04592983191091
 20
138.63355791844239
 30
0.0
 11
154.02790147146229
 21
138.62905082833029
 31
0.0
  0
LINE
  5
3635
  8
3
 10
153.94677384944339
 20
138.55243029642369
 30
0.0
 11
153.92874548899491
 21
138.5344019359751
 31
0.0
  0
LINE
  5
3636
  8
3
 10
153.9648022098921
 20
138.57496574698439
 30
0.0
 11
153.94677384944339
 21
138.55243029642369
 31
0.0
  0
LINE
  5
3637
  8
3
 10
153.9783234802286
 20
138.58848701732089
 30
0.0
 11
153.9648022098921
 21
138.57496574698439
 31
0.0
  0
LINE
  5
3638
  8
3
 10
153.99635184067719
 20
138.60651537776951
 30
0.0
 11
153.9783234802286
 21
138.58848701732089
 31
0.0
  0
LINE
  5
3639
  8
3
 10
153.86564622742469
 20
138.45327431395631
 30
0.0
 11
153.85663204720029
 21
138.4352459535076
 31
0.0
  0
LINE
  5
363A
  8
3
 10
153.87916749776119
 20
138.47580976451701
 30
0.0
 11
153.86564622742469
 21
138.45327431395631
 31
0.0
  0
LINE
  5
363B
  8
3
 10
153.89719585820981
 20
138.49383812496561
 30
0.0
 11
153.87916749776119
 21
138.47580976451701
 31
0.0
  0
LINE
  5
363C
  8
3
 10
153.9107171285462
 20
138.5163735755265
 30
0.0
 11
153.89719585820981
 21
138.49383812496561
 31
0.0
  0
LINE
  5
363D
  8
3
 10
153.92874548899491
 20
138.5344019359751
 30
0.0
 11
153.9107171285462
 21
138.5163735755265
 31
0.0
  0
LINE
  5
363E
  8
3
 10
153.7980398757424
 20
138.06115747419881
 30
0.0
 11
153.79353278563019
 21
137.98002985218
 31
0.0
  0
LINE
  5
363F
  8
3
 10
153.8025469658545
 20
138.14679218632969
 30
0.0
 11
153.7980398757424
 21
138.06115747419881
 31
0.0
  0
LINE
  5
3640
  8
3
 10
154.06395819235959
 20
137.60143428275899
 30
0.0
 11
154.05945110224729
 21
138.63355791844239
 31
0.0
  0
LINE
  5
3641
  8
3
 10
153.79353278563019
 20
137.98002985218
 30
0.0
 11
153.79353278563019
 21
137.89890223016121
 31
0.0
  0
LINE
  5
3642
  8
3
 10
154.5236813837993
 20
137.6104484629833
 30
0.0
 11
154.48762466290211
 21
137.60594137287109
 31
0.0
  0
LINE
  5
3643
  8
3
 10
154.56424519480879
 20
137.6104484629833
 30
0.0
 11
154.5236813837993
 21
137.6104484629833
 31
0.0
  0
LINE
  5
3644
  8
3
 10
154.6093160959303
 20
137.6104484629833
 30
0.0
 11
154.56424519480879
 21
137.6104484629833
 31
0.0
  0
LINE
  5
3645
  8
3
 10
154.59579482559391
 20
137.34453014636611
 30
0.0
 11
154.6453728168276
 21
137.3490372364783
 31
0.0
  0
LINE
  5
3646
  8
3
 10
154.54621683436011
 20
137.34002305625401
 30
0.0
 11
154.59579482559391
 21
137.34453014636611
 31
0.0
  0
LINE
  5
3647
  8
3
 10
154.49663884312639
 20
137.33100887602961
 30
0.0
 11
154.54621683436011
 21
137.34002305625401
 31
0.0
  0
LINE
  5
3648
  8
3
 10
154.6093160959303
 20
138.6110224678817
 30
0.0
 11
154.6093160959303
 21
138.60200828765741
 31
0.0
  0
LINE
  5
3649
  8
3
 10
154.6093160959303
 20
138.6155295579938
 30
0.0
 11
154.6093160959303
 21
138.6110224678817
 31
0.0
  0
LINE
  5
364A
  8
3
 10
154.6138231860424
 20
138.6155295579938
 30
0.0
 11
154.6093160959303
 21
138.6155295579938
 31
0.0
  0
LINE
  5
364B
  8
3
 10
154.6138231860424
 20
138.62003664810601
 30
0.0
 11
154.6138231860424
 21
138.6155295579938
 31
0.0
  0
LINE
  5
364C
  8
3
 10
154.61833027615461
 20
138.62003664810601
 30
0.0
 11
154.6138231860424
 21
138.62003664810601
 31
0.0
  0
LINE
  5
364D
  8
3
 10
154.61833027615461
 20
138.62454373821811
 30
0.0
 11
154.61833027615461
 21
138.62003664810601
 31
0.0
  0
LINE
  5
364E
  8
3
 10
154.62283736626671
 20
138.62454373821811
 30
0.0
 11
154.61833027615461
 21
138.62454373821811
 31
0.0
  0
LINE
  5
364F
  8
3
 10
154.62734445637901
 20
138.62454373821811
 30
0.0
 11
154.62283736626671
 21
138.62454373821811
 31
0.0
  0
LINE
  5
3650
  8
3
 10
154.63185154649111
 20
138.62454373821811
 30
0.0
 11
154.62734445637901
 21
138.62454373821811
 31
0.0
  0
LINE
  5
3651
  8
3
 10
154.63635863660321
 20
138.62454373821811
 30
0.0
 11
154.63185154649111
 21
138.62454373821811
 31
0.0
  0
LINE
  5
3652
  8
3
 10
154.6093160959303
 20
138.60200828765741
 30
0.0
 11
154.6093160959303
 21
137.6104484629833
 31
0.0
  0
LINE
  5
3653
  8
3
 10
154.48762466290211
 20
137.60594137287109
 30
0.0
 11
154.45156794200491
 21
137.60594137287109
 31
0.0
  0
LINE
  5
3654
  8
3
 10
154.4470608518927
 20
137.3219946958053
 30
0.0
 11
154.49663884312639
 21
137.33100887602961
 31
0.0
  0
LINE
  5
3655
  8
3
 10
153.6583200822655
 20
139.3727206968359
 30
0.0
 11
153.71240516361129
 21
139.40427032762099
 31
0.0
  0
LINE
  5
3656
  8
3
 10
153.71240516361129
 20
139.40427032762099
 30
0.0
 11
153.7619831548451
 21
139.4313128682939
 31
0.0
  0
LINE
  5
3657
  8
3
 10
154.42903249144419
 20
139.67920282446241
 30
0.0
 11
154.2938197880795
 21
139.67469573435019
 31
0.0
  0
LINE
  5
3658
  8
3
 10
154.35691904964949
 20
139.5665255716585
 30
0.0
 11
154.39748286065901
 21
139.5665255716585
 31
0.0
  0
LINE
  5
3659
  8
3
 10
153.87015331753679
 20
139.62962483322869
 30
0.0
 11
153.8386036867517
 21
139.62061065300441
 31
0.0
  0
LINE
  5
365A
  8
3
 10
153.816068236191
 20
139.45835540896681
 30
0.0
 11
153.87015331753679
 21
139.48089085952759
 31
0.0
  0
LINE
  5
365B
  8
3
 10
153.8386036867517
 20
139.62061065300441
 30
0.0
 11
153.8115611460789
 21
139.61159647278009
 31
0.0
  0
LINE
  5
365C
  8
3
 10
153.78451860540579
 20
139.60258229255581
 30
0.0
 11
153.757476064733
 21
139.5935681123315
 31
0.0
  0
LINE
  5
365D
  8
3
 10
153.70339098338721
 20
139.5755397518829
 30
0.0
 11
153.67634844271419
 21
139.5665255716585
 31
0.0
  0
LINE
  5
365E
  8
3
 10
153.73043352406
 20
139.58455393210721
 30
0.0
 11
153.70339098338721
 21
139.5755397518829
 31
0.0
  0
LINE
  5
365F
  8
3
 10
153.67634844271419
 20
139.5665255716585
 30
0.0
 11
153.64930590204119
 21
139.55300430132209
 31
0.0
  0
LINE
  5
3660
  8
3
 10
153.757476064733
 20
139.5935681123315
 30
0.0
 11
153.73043352406
 21
139.58455393210721
 31
0.0
  0
LINE
  5
3661
  8
3
 10
153.8115611460789
 20
139.61159647278009
 30
0.0
 11
153.78451860540579
 21
139.60258229255581
 31
0.0
  0
LINE
  5
3662
  8
3
 10
153.92874548899491
 20
139.5034263100884
 30
0.0
 11
153.98733766045291
 21
139.521454670537
 31
0.0
  0
LINE
  5
3663
  8
3
 10
153.87015331753679
 20
139.48089085952759
 30
0.0
 11
153.92874548899491
 21
139.5034263100884
 31
0.0
  0
LINE
  5
3664
  8
3
 10
154.18114253527551
 20
139.6701886442381
 30
0.0
 11
154.09100073303239
 21
139.6701886442381
 31
0.0
  0
LINE
  5
3665
  8
3
 10
154.2938197880795
 20
139.67469573435019
 30
0.0
 11
154.18114253527551
 21
139.6701886442381
 31
0.0
  0
LINE
  5
3666
  8
3
 10
154.09100073303239
 20
139.6701886442381
 30
0.0
 11
153.98733766045291
 21
139.66117446401381
 31
0.0
  0
LINE
  5
3667
  8
3
 10
153.9557880296677
 20
139.6566673739016
 30
0.0
 11
153.92874548899491
 21
139.6476531936774
 31
0.0
  0
LINE
  5
3668
  8
3
 10
153.98733766045291
 20
139.66117446401381
 30
0.0
 11
153.9557880296677
 21
139.6566673739016
 31
0.0
  0
LINE
  5
3669
  8
3
 10
153.89719585820981
 20
139.63863901345309
 30
0.0
 11
153.87015331753679
 21
139.62962483322869
 31
0.0
  0
LINE
  5
366A
  8
3
 10
153.92874548899491
 20
139.6476531936774
 30
0.0
 11
153.89719585820981
 21
139.63863901345309
 31
0.0
  0
LINE
  5
366B
  8
3
 10
153.98733766045291
 20
139.521454670537
 30
0.0
 11
154.10902909348101
 21
139.55300430132209
 31
0.0
  0
LINE
  5
366C
  8
3
 10
154.3163552386402
 20
139.5665255716585
 30
0.0
 11
154.35691904964949
 21
139.5665255716585
 31
0.0
  0
LINE
  5
366D
  8
3
 10
154.27128433751861
 20
139.5665255716585
 30
0.0
 11
154.3163552386402
 21
139.5665255716585
 31
0.0
  0
LINE
  5
366E
  8
3
 10
154.23072052650929
 20
139.5665255716585
 30
0.0
 11
154.27128433751861
 21
139.5665255716585
 31
0.0
  0
LINE
  5
366F
  8
3
 10
154.19015671549991
 20
139.5620184815464
 30
0.0
 11
154.23072052650929
 21
139.5665255716585
 31
0.0
  0
LINE
  5
3670
  8
3
 10
154.1495929044905
 20
139.5620184815464
 30
0.0
 11
154.19015671549991
 21
139.5620184815464
 31
0.0
  0
LINE
  5
3671
  8
3
 10
154.10902909348101
 20
139.55300430132209
 30
0.0
 11
154.1495929044905
 21
139.5620184815464
 31
0.0
  0
LINE
  5
3672
  8
3
 10
154.39748286065901
 20
139.5665255716585
 30
0.0
 11
154.43804667166839
 21
139.5620184815464
 31
0.0
  0
LINE
  5
3673
  8
3
 10
153.7619831548451
 20
139.4313128682939
 30
0.0
 11
153.816068236191
 21
139.45835540896681
 31
0.0
  0
LINE
  5
3674
  8
3
 10
154.59579482559391
 20
139.54399012109781
 30
0.0
 11
154.63635863660321
 21
139.53497594087349
 31
0.0
  0
LINE
  5
3675
  8
3
 10
154.55523101458439
 20
139.54849721120991
 30
0.0
 11
154.59579482559391
 21
139.54399012109781
 31
0.0
  0
LINE
  5
3676
  8
3
 10
154.51466720357499
 20
139.5575113914343
 30
0.0
 11
154.55523101458439
 21
139.54849721120991
 31
0.0
  0
LINE
  5
3677
  8
3
 10
154.47410339256561
 20
139.5620184815464
 30
0.0
 11
154.51466720357499
 21
139.5575113914343
 31
0.0
  0
LINE
  5
3678
  8
3
 10
154.5777664651452
 20
139.67920282446241
 30
0.0
 11
154.42903249144419
 21
139.67920282446241
 31
0.0
  0
LINE
  5
3679
  8
3
 10
154.43804667166839
 20
139.5620184815464
 30
0.0
 11
154.47410339256561
 21
139.5620184815464
 31
0.0
  0
LINE
  5
367A
  8
3
 10
153.82508241641531
 20
137.2453741638987
 30
0.0
 11
153.84761786697601
 21
137.07861182974901
 31
0.0
  0
LINE
  5
367B
  8
3
 10
154.10902909348101
 20
137.15973945176779
 30
0.0
 11
154.14508581437829
 21
137.1867819924407
 31
0.0
  0
LINE
  5
367C
  8
3
 10
153.08591963802189
 20
135.52366574105551
 30
0.0
 11
153.1129621786948
 21
135.62282172352289
 31
0.0
  0
LINE
  5
367D
  8
3
 10
153.1129621786948
 20
135.6318359037472
 30
0.0
 11
153.11746926880701
 21
135.63634299385939
 31
0.0
  0
LINE
  5
367E
  8
3
 10
153.1129621786948
 20
135.62282172352289
 30
0.0
 11
153.1129621786948
 21
135.6318359037472
 31
0.0
  0
LINE
  5
367F
  8
3
 10
153.0588770973489
 20
135.37493176735441
 30
0.0
 11
153.063384187461
 21
135.4245097585881
 31
0.0
  0
LINE
  5
3680
  8
3
 10
153.07239836768539
 20
135.47408774982179
 30
0.0
 11
153.08591963802189
 21
135.52366574105551
 31
0.0
  0
LINE
  5
3681
  8
3
 10
153.063384187461
 20
135.4245097585881
 30
0.0
 11
153.07239836768539
 21
135.47408774982179
 31
0.0
  0
LINE
  5
3682
  8
3
 10
153.063384187461
 20
135.0188716484941
 30
0.0
 11
153.0588770973489
 21
135.07295672984
 31
0.0
  0
LINE
  5
3683
  8
3
 10
153.07239836768539
 20
134.96929365726041
 30
0.0
 11
153.063384187461
 21
135.0188716484941
 31
0.0
  0
LINE
  5
3684
  8
3
 10
153.08141254790959
 20
134.91520857591451
 30
0.0
 11
153.07239836768539
 21
134.96929365726041
 31
0.0
  0
LINE
  5
3685
  8
3
 10
153.05437000723671
 20
135.12253472107369
 30
0.0
 11
153.04986291712461
 21
135.17211271230741
 31
0.0
  0
LINE
  5
3686
  8
3
 10
153.04986291712461
 20
135.2216907035411
 30
0.0
 11
153.04986291712461
 21
135.275775784887
 31
0.0
  0
LINE
  5
3687
  8
3
 10
153.04986291712461
 20
135.17211271230741
 30
0.0
 11
153.04986291712461
 21
135.2216907035411
 31
0.0
  0
LINE
  5
3688
  8
3
 10
153.05437000723671
 20
135.32535377612069
 30
0.0
 11
153.0588770973489
 21
135.37493176735441
 31
0.0
  0
LINE
  5
3689
  8
3
 10
153.04986291712461
 20
135.275775784887
 30
0.0
 11
153.05437000723671
 21
135.32535377612069
 31
0.0
  0
LINE
  5
368A
  8
3
 10
153.0588770973489
 20
135.07295672984
 30
0.0
 11
153.05437000723671
 21
135.12253472107369
 31
0.0
  0
LINE
  5
368B
  8
3
 10
153.23465361172299
 20
135.8391620489063
 30
0.0
 11
153.27071033262021
 21
135.87972585991571
 31
0.0
  0
LINE
  5
368C
  8
3
 10
153.3969088557605
 20
135.98789602260749
 30
0.0
 11
153.4464868469943
 21
136.01944565339249
 31
0.0
  0
LINE
  5
368D
  8
3
 10
153.31127414362959
 20
135.92028967092509
 30
0.0
 11
153.35183795463891
 21
135.95634639182239
 31
0.0
  0
LINE
  5
368E
  8
3
 10
153.35183795463891
 20
135.95634639182239
 30
0.0
 11
153.3969088557605
 21
135.98789602260749
 31
0.0
  0
LINE
  5
368F
  8
3
 10
153.27071033262021
 20
135.87972585991571
 30
0.0
 11
153.31127414362959
 21
135.92028967092509
 31
0.0
  0
LINE
  5
3690
  8
3
 10
153.5456428294616
 20
136.07803782485061
 30
0.0
 11
153.59972791080759
 21
136.10057327541131
 31
0.0
  0
LINE
  5
3691
  8
3
 10
153.49155774811581
 20
136.05099528417759
 30
0.0
 11
153.5456428294616
 21
136.07803782485061
 31
0.0
  0
LINE
  5
3692
  8
3
 10
153.4464868469943
 20
136.01944565339249
 30
0.0
 11
153.49155774811581
 21
136.05099528417759
 31
0.0
  0
LINE
  5
3693
  8
3
 10
153.12197635891911
 20
135.6498642641958
 30
0.0
 11
153.12648344903121
 21
135.65437135430801
 31
0.0
  0
LINE
  5
3694
  8
3
 10
153.14000471936771
 20
135.68141389498089
 30
0.0
 11
153.14000471936771
 21
135.68592098509311
 31
0.0
  0
LINE
  5
3695
  8
3
 10
153.14000471936771
 20
135.68592098509311
 30
0.0
 11
153.14451180947989
 21
135.69493516531739
 31
0.0
  0
LINE
  5
3696
  8
3
 10
153.14000471936771
 20
135.67690680486879
 30
0.0
 11
153.14000471936771
 21
135.68141389498089
 31
0.0
  0
LINE
  5
3697
  8
3
 10
153.13549762925561
 20
135.67690680486879
 30
0.0
 11
153.14000471936771
 21
135.67690680486879
 31
0.0
  0
LINE
  5
3698
  8
3
 10
153.13549762925561
 20
135.67239971475661
 30
0.0
 11
153.13549762925561
 21
135.67690680486879
 31
0.0
  0
LINE
  5
3699
  8
3
 10
153.13549762925561
 20
135.66789262464451
 30
0.0
 11
153.13549762925561
 21
135.67239971475661
 31
0.0
  0
LINE
  5
369A
  8
3
 10
153.1309905391434
 20
135.6633855345323
 30
0.0
 11
153.13549762925561
 21
135.66789262464451
 31
0.0
  0
LINE
  5
369B
  8
3
 10
153.1309905391434
 20
135.65887844442011
 30
0.0
 11
153.1309905391434
 21
135.6633855345323
 31
0.0
  0
LINE
  5
369C
  8
3
 10
153.12648344903121
 20
135.65437135430801
 30
0.0
 11
153.1309905391434
 21
135.65887844442011
 31
0.0
  0
LINE
  5
369D
  8
3
 10
153.12197635891911
 20
135.6453571740837
 30
0.0
 11
153.12197635891911
 21
135.6498642641958
 31
0.0
  0
LINE
  5
369E
  8
3
 10
153.11746926880701
 20
135.64085008397149
 30
0.0
 11
153.12197635891911
 21
135.6453571740837
 31
0.0
  0
LINE
  5
369F
  8
3
 10
153.1715543501528
 20
135.74451315655111
 30
0.0
 11
153.2031039809379
 21
135.7940911477848
 31
0.0
  0
LINE
  5
36A0
  8
3
 10
153.2031039809379
 20
135.7940911477848
 30
0.0
 11
153.23465361172299
 21
135.8391620489063
 31
0.0
  0
LINE
  5
36A1
  8
3
 10
153.14451180947989
 20
135.69493516531739
 30
0.0
 11
153.1715543501528
 21
135.74451315655111
 31
0.0
  0
LINE
  5
36A2
  8
3
 10
153.47352938766721
 20
136.4250837634865
 30
0.0
 11
153.43747266676999
 21
136.44761921404731
 31
0.0
  0
LINE
  5
36A3
  8
3
 10
153.43747266676999
 20
136.44761921404731
 30
0.0
 11
153.4014159458728
 21
136.47466175472019
 31
0.0
  0
LINE
  5
36A4
  8
3
 10
153.4014159458728
 20
136.47466175472019
 30
0.0
 11
153.36535922497549
 21
136.5017042953931
 31
0.0
  0
LINE
  5
36A5
  8
3
 10
153.15352598970421
 20
136.7766367922346
 30
0.0
 11
153.13549762925561
 21
136.817200603244
 31
0.0
  0
LINE
  5
36A6
  8
3
 10
153.1760614402649
 20
136.7405800713374
 30
0.0
 11
153.15352598970421
 21
136.7766367922346
 31
0.0
  0
LINE
  5
36A7
  8
3
 10
153.19408980071361
 20
136.70001626032791
 30
0.0
 11
153.1760614402649
 21
136.7405800713374
 31
0.0
  0
LINE
  5
36A8
  8
3
 10
153.22113234138661
 20
136.66395953943069
 30
0.0
 11
153.19408980071361
 21
136.70001626032791
 31
0.0
  0
LINE
  5
36A9
  8
3
 10
153.2436677919473
 20
136.6279028185335
 30
0.0
 11
153.22113234138661
 21
136.66395953943069
 31
0.0
  0
LINE
  5
36AA
  8
3
 10
153.2752174227324
 20
136.59635318774841
 30
0.0
 11
153.2436677919473
 21
136.6279028185335
 31
0.0
  0
LINE
  5
36AB
  8
3
 10
153.30225996340519
 20
136.56480355696331
 30
0.0
 11
153.2752174227324
 21
136.59635318774841
 31
0.0
  0
LINE
  5
36AC
  8
3
 10
153.3338095941904
 20
136.53325392617819
 30
0.0
 11
153.30225996340519
 21
136.56480355696331
 31
0.0
  0
LINE
  5
36AD
  8
3
 10
153.36535922497549
 20
136.5017042953931
 30
0.0
 11
153.3338095941904
 21
136.53325392617819
 31
0.0
  0
LINE
  5
36AE
  8
3
 10
153.1084550885827
 20
136.89832822526279
 30
0.0
 11
153.0949338182462
 21
136.93438494616001
 31
0.0
  0
LINE
  5
36AF
  8
3
 10
153.0949338182462
 20
136.93438494616001
 30
0.0
 11
153.09042672813399
 21
136.97044166705729
 31
0.0
  0
LINE
  5
36B0
  8
3
 10
153.08141254790959
 20
137.00649838795451
 30
0.0
 11
153.07690545779761
 21
137.0425551088517
 31
0.0
  0
LINE
  5
36B1
  8
3
 10
153.09042672813399
 20
136.97044166705729
 30
0.0
 11
153.08141254790959
 21
137.00649838795451
 31
0.0
  0
LINE
  5
36B2
  8
3
 10
153.07239836768539
 20
137.11016146053399
 30
0.0
 11
153.07239836768539
 21
137.14621818143129
 31
0.0
  0
LINE
  5
36B3
  8
3
 10
153.07690545779761
 20
137.07861182974901
 30
0.0
 11
153.07239836768539
 21
137.11016146053399
 31
0.0
  0
LINE
  5
36B4
  8
3
 10
153.07690545779761
 20
137.0425551088517
 30
0.0
 11
153.07690545779761
 21
137.07861182974901
 31
0.0
  0
LINE
  5
36B5
  8
3
 10
153.13549762925561
 20
136.817200603244
 30
0.0
 11
153.1084550885827
 21
136.89832822526279
 31
0.0
  0
LINE
  5
36B6
  8
3
 10
153.51409319867659
 20
136.40254831292569
 30
0.0
 11
153.47352938766721
 21
136.4250837634865
 31
0.0
  0
LINE
  5
36B7
  8
3
 10
153.554657009686
 20
136.38001286236499
 30
0.0
 11
153.51409319867659
 21
136.40254831292569
 31
0.0
  0
LINE
  5
36B8
  8
3
 10
153.11746926880701
 20
135.63634299385939
 30
0.0
 11
153.11746926880701
 21
135.64085008397149
 31
0.0
  0
LINE
  5
36B9
  8
3
 10
153.0678912775733
 20
137.28593797490819
 30
0.0
 11
153.0678912775733
 21
137.3219946958053
 31
0.0
  0
LINE
  5
36BA
  8
3
 10
153.07239836768539
 20
137.3535443265904
 30
0.0
 11
153.07239836768539
 21
137.3896010474877
 31
0.0
  0
LINE
  5
36BB
  8
3
 10
153.4464868469943
 20
137.57889883219821
 30
0.0
 11
153.4059230359849
 21
137.58340592231031
 31
0.0
  0
LINE
  5
36BC
  8
3
 10
153.3969088557605
 20
137.4707286695064
 30
0.0
 11
153.43747266676999
 21
137.4707286695064
 31
0.0
  0
LINE
  5
36BD
  8
3
 10
153.07239836768539
 20
137.3896010474877
 30
0.0
 11
153.07239836768539
 21
137.45720739916999
 31
0.0
  0
LINE
  5
36BE
  8
3
 10
153.21211816116221
 20
137.6284768234319
 30
0.0
 11
153.14451180947989
 21
137.66453354432909
 31
0.0
  0
LINE
  5
36BF
  8
3
 10
153.07239836768539
 20
137.45720739916999
 30
0.0
 11
153.11746926880701
 21
137.4617144892822
 31
0.0
  0
LINE
  5
36C0
  8
3
 10
153.24817488205949
 20
137.6149555530954
 30
0.0
 11
153.21211816116221
 21
137.6284768234319
 31
0.0
  0
LINE
  5
36C1
  8
3
 10
153.28873869306881
 20
137.60143428275899
 30
0.0
 11
153.24817488205949
 21
137.6149555530954
 31
0.0
  0
LINE
  5
36C2
  8
3
 10
153.32479541396609
 20
137.59242010253459
 30
0.0
 11
153.28873869306881
 21
137.60143428275899
 31
0.0
  0
LINE
  5
36C3
  8
3
 10
153.36535922497549
 20
137.58791301242249
 30
0.0
 11
153.32479541396609
 21
137.59242010253459
 31
0.0
  0
LINE
  5
36C4
  8
3
 10
153.4059230359849
 20
137.58340592231031
 30
0.0
 11
153.36535922497549
 21
137.58791301242249
 31
0.0
  0
LINE
  5
36C5
  8
3
 10
153.36085213486331
 20
137.4707286695064
 30
0.0
 11
153.3969088557605
 21
137.4707286695064
 31
0.0
  0
LINE
  5
36C6
  8
3
 10
153.3293025040783
 20
137.4707286695064
 30
0.0
 11
153.36085213486331
 21
137.4707286695064
 31
0.0
  0
LINE
  5
36C7
  8
3
 10
153.30225996340519
 20
137.4707286695064
 30
0.0
 11
153.3293025040783
 21
137.4707286695064
 31
0.0
  0
LINE
  5
36C8
  8
3
 10
153.2752174227324
 20
137.4707286695064
 30
0.0
 11
153.30225996340519
 21
137.4707286695064
 31
0.0
  0
LINE
  5
36C9
  8
3
 10
153.24817488205949
 20
137.4707286695064
 30
0.0
 11
153.2752174227324
 21
137.4707286695064
 31
0.0
  0
LINE
  5
36CA
  8
3
 10
153.22113234138661
 20
137.4707286695064
 30
0.0
 11
153.24817488205949
 21
137.4707286695064
 31
0.0
  0
LINE
  5
36CB
  8
3
 10
153.19408980071361
 20
137.4707286695064
 30
0.0
 11
153.22113234138661
 21
137.4707286695064
 31
0.0
  0
LINE
  5
36CC
  8
3
 10
153.15803307981631
 20
137.4662215793943
 30
0.0
 11
153.19408980071361
 21
137.4707286695064
 31
0.0
  0
LINE
  5
36CD
  8
3
 10
153.11746926880701
 20
137.4617144892822
 30
0.0
 11
153.15803307981631
 21
137.4662215793943
 31
0.0
  0
LINE
  5
36CE
  8
3
 10
153.49155774811581
 20
137.57439174208599
 30
0.0
 11
153.4464868469943
 21
137.57889883219821
 31
0.0
  0
LINE
  5
36CF
  8
3
 10
153.53212155912519
 20
137.57439174208599
 30
0.0
 11
153.49155774811581
 21
137.57439174208599
 31
0.0
  0
LINE
  5
36D0
  8
3
 10
153.57268537013459
 20
137.56988465197389
 30
0.0
 11
153.53212155912519
 21
137.57439174208599
 31
0.0
  0
LINE
  5
36D1
  8
3
 10
153.48705065800371
 20
137.4707286695064
 30
0.0
 11
153.5456428294616
 21
137.4707286695064
 31
0.0
  0
LINE
  5
36D2
  8
3
 10
153.43747266676999
 20
137.4707286695064
 30
0.0
 11
153.48705065800371
 21
137.4707286695064
 31
0.0
  0
LINE
  5
36D3
  8
3
 10
153.0678912775733
 20
137.3219946958053
 30
0.0
 11
153.07239836768539
 21
137.3535443265904
 31
0.0
  0
LINE
  5
36D4
  8
3
 10
153.10394799847049
 20
137.78171788724521
 30
0.0
 11
153.08591963802189
 21
137.835802968591
 31
0.0
  0
LINE
  5
36D5
  8
3
 10
153.08591963802189
 20
137.835802968591
 30
0.0
 11
153.07690545779761
 21
137.89890223016121
 31
0.0
  0
LINE
  5
36D6
  8
3
 10
153.12197635891911
 20
137.72312571578709
 30
0.0
 11
153.10394799847049
 21
137.78171788724521
 31
0.0
  0
LINE
  5
36D7
  8
3
 10
153.14451180947989
 20
137.66453354432909
 30
0.0
 11
153.12197635891911
 21
137.72312571578709
 31
0.0
  0
LINE
  5
36D8
  8
3
 10
153.0678912775733
 20
137.18227490232849
 30
0.0
 11
153.0678912775733
 21
137.21833162322571
 31
0.0
  0
LINE
  5
36D9
  8
3
 10
153.0678912775733
 20
137.24988125401089
 30
0.0
 11
153.0678912775733
 21
137.28593797490819
 31
0.0
  0
LINE
  5
36DA
  8
3
 10
153.0678912775733
 20
137.21833162322571
 30
0.0
 11
153.0678912775733
 21
137.24988125401089
 31
0.0
  0
LINE
  5
36DB
  8
3
 10
153.61775627125621
 20
137.56988465197389
 30
0.0
 11
153.57268537013459
 21
137.56988465197389
 31
0.0
  0
LINE
  5
36DC
  8
3
 10
153.5456428294616
 20
137.4707286695064
 30
0.0
 11
153.61775627125621
 21
137.47523575961861
 31
0.0
  0
LINE
  5
36DD
  8
3
 10
153.063384187461
 20
138.14228509621751
 30
0.0
 11
153.0678912775733
 21
138.20538435778769
 31
0.0
  0
LINE
  5
36DE
  8
3
 10
153.07690545779761
 20
138.32707579081591
 30
0.0
 11
153.08591963802189
 21
138.3901750523861
 31
0.0
  0
LINE
  5
36DF
  8
3
 10
153.07239836768539
 20
138.26397652924581
 30
0.0
 11
153.07690545779761
 21
138.32707579081591
 31
0.0
  0
LINE
  5
36E0
  8
3
 10
153.0678912775733
 20
138.20538435778769
 30
0.0
 11
153.07239836768539
 21
138.26397652924581
 31
0.0
  0
LINE
  5
36E1
  8
3
 10
153.12648344903121
 20
138.6560933690032
 30
0.0
 11
153.13549762925561
 21
138.6831359096762
 31
0.0
  0
LINE
  5
36E2
  8
3
 10
153.12197635891911
 20
138.62454373821811
 30
0.0
 11
153.12648344903121
 21
138.6560933690032
 31
0.0
  0
LINE
  5
36E3
  8
3
 10
153.10394799847049
 20
138.5073593953021
 30
0.0
 11
153.12197635891911
 21
138.62454373821811
 31
0.0
  0
LINE
  5
36E4
  8
3
 10
153.0949338182462
 20
138.4487672238441
 30
0.0
 11
153.10394799847049
 21
138.5073593953021
 31
0.0
  0
LINE
  5
36E5
  8
3
 10
153.08591963802189
 20
138.3901750523861
 30
0.0
 11
153.0949338182462
 21
138.4487672238441
 31
0.0
  0
LINE
  5
36E6
  8
3
 10
153.0678912775733
 20
138.0205936631894
 30
0.0
 11
153.063384187461
 21
138.0791858346474
 31
0.0
  0
LINE
  5
36E7
  8
3
 10
153.0678912775733
 20
137.95749440161919
 30
0.0
 11
153.0678912775733
 21
138.0205936631894
 31
0.0
  0
LINE
  5
36E8
  8
3
 10
153.063384187461
 20
138.0791858346474
 30
0.0
 11
153.063384187461
 21
138.14228509621751
 31
0.0
  0
LINE
  5
36E9
  8
3
 10
153.07690545779761
 20
137.89890223016121
 30
0.0
 11
153.0678912775733
 21
137.95749440161919
 31
0.0
  0
LINE
  5
36EA
  8
3
 10
153.3202883238539
 20
139.03018184831211
 30
0.0
 11
153.35634504475109
 21
139.08426692965801
 31
0.0
  0
LINE
  5
36EB
  8
3
 10
153.15803307981631
 20
139.2284938132469
 30
0.0
 11
153.1084550885827
 21
139.17891582201321
 31
0.0
  0
LINE
  5
36EC
  8
3
 10
153.1850756204893
 20
139.25102926380771
 30
0.0
 11
153.15803307981631
 21
139.2284938132469
 31
0.0
  0
LINE
  5
36ED
  8
3
 10
153.21211816116221
 20
139.27356471436849
 30
0.0
 11
153.1850756204893
 21
139.25102926380771
 31
0.0
  0
LINE
  5
36EE
  8
3
 10
153.23465361172299
 20
139.2961001649293
 30
0.0
 11
153.21211816116221
 21
139.27356471436849
 31
0.0
  0
LINE
  5
36EF
  8
3
 10
153.26169615239601
 20
139.31863561549
 30
0.0
 11
153.23465361172299
 21
139.2961001649293
 31
0.0
  0
LINE
  5
36F0
  8
3
 10
153.28873869306881
 20
139.3411710660508
 30
0.0
 11
153.26169615239601
 21
139.31863561549
 31
0.0
  0
LINE
  5
36F1
  8
3
 10
153.31127414362959
 20
139.3591994264994
 30
0.0
 11
153.28873869306881
 21
139.3411710660508
 31
0.0
  0
LINE
  5
36F2
  8
3
 10
153.33831668430261
 20
139.38173487706021
 30
0.0
 11
153.31127414362959
 21
139.3591994264994
 31
0.0
  0
LINE
  5
36F3
  8
3
 10
153.36535922497549
 20
139.39976323750881
 30
0.0
 11
153.33831668430261
 21
139.38173487706021
 31
0.0
  0
LINE
  5
36F4
  8
3
 10
153.3969088557605
 20
139.42229868806959
 30
0.0
 11
153.36535922497549
 21
139.39976323750881
 31
0.0
  0
LINE
  5
36F5
  8
3
 10
153.42395139643349
 20
139.44032704851821
 30
0.0
 11
153.3969088557605
 21
139.42229868806959
 31
0.0
  0
LINE
  5
36F6
  8
3
 10
153.43296557665781
 20
139.17891582201321
 30
0.0
 11
153.47352938766721
 21
139.2239867231348
 31
0.0
  0
LINE
  5
36F7
  8
3
 10
153.35634504475109
 20
139.08426692965801
 30
0.0
 11
153.3924017656484
 21
139.1338449208917
 31
0.0
  0
LINE
  5
36F8
  8
3
 10
153.3924017656484
 20
139.1338449208917
 30
0.0
 11
153.43296557665781
 21
139.17891582201321
 31
0.0
  0
LINE
  5
36F9
  8
3
 10
153.5186002887888
 20
139.26455053414409
 30
0.0
 11
153.56367118991031
 21
139.30511434515361
 31
0.0
  0
LINE
  5
36FA
  8
3
 10
153.47352938766721
 20
139.2239867231348
 30
0.0
 11
153.5186002887888
 21
139.26455053414409
 31
0.0
  0
LINE
  5
36FB
  8
3
 10
153.14901889959211
 20
138.7101784503491
 30
0.0
 11
153.15803307981631
 21
138.7372209910221
 31
0.0
  0
LINE
  5
36FC
  8
3
 10
153.16704726004059
 20
138.76426353169501
 30
0.0
 11
153.18056853037709
 21
138.79130607236789
 31
0.0
  0
LINE
  5
36FD
  8
3
 10
153.28873869306881
 20
138.98511094719049
 30
0.0
 11
153.3202883238539
 21
139.03018184831211
 31
0.0
  0
LINE
  5
36FE
  8
3
 10
153.27071033262021
 20
138.9625754966298
 30
0.0
 11
153.28873869306881
 21
138.98511094719049
 31
0.0
  0
LINE
  5
36FF
  8
3
 10
153.2571890622838
 20
138.93553295595689
 30
0.0
 11
153.27071033262021
 21
138.9625754966298
 31
0.0
  0
LINE
  5
3700
  8
3
 10
153.2436677919473
 20
138.91299750539611
 30
0.0
 11
153.2571890622838
 21
138.93553295595689
 31
0.0
  0
LINE
  5
3701
  8
3
 10
153.23014652161081
 20
138.8904620548353
 30
0.0
 11
153.2436677919473
 21
138.91299750539611
 31
0.0
  0
LINE
  5
3702
  8
3
 10
153.21662525127439
 20
138.86341951416239
 30
0.0
 11
153.23014652161081
 21
138.8904620548353
 31
0.0
  0
LINE
  5
3703
  8
3
 10
153.2031039809379
 20
138.84088406360161
 30
0.0
 11
153.21662525127439
 21
138.86341951416239
 31
0.0
  0
LINE
  5
3704
  8
3
 10
153.1895827106014
 20
138.8138415229287
 30
0.0
 11
153.2031039809379
 21
138.84088406360161
 31
0.0
  0
LINE
  5
3705
  8
3
 10
153.18056853037709
 20
138.79130607236789
 30
0.0
 11
153.1895827106014
 21
138.8138415229287
 31
0.0
  0
LINE
  5
3706
  8
3
 10
153.15803307981631
 20
138.7372209910221
 30
0.0
 11
153.16704726004059
 21
138.76426353169501
 31
0.0
  0
LINE
  5
3707
  8
3
 10
153.56367118991031
 20
139.30511434515361
 30
0.0
 11
153.613249181144
 21
139.33666397593871
 31
0.0
  0
LINE
  5
3708
  8
3
 10
153.59972791080759
 20
139.53497594087349
 30
0.0
 11
153.5591640997981
 21
139.5079334002005
 31
0.0
  0
LINE
  5
3709
  8
3
 10
153.48705065800371
 20
139.47638376941541
 30
0.0
 11
153.45550102721859
 21
139.45835540896681
 31
0.0
  0
LINE
  5
370A
  8
3
 10
153.5231073789009
 20
139.49441212986409
 30
0.0
 11
153.48705065800371
 21
139.47638376941541
 31
0.0
  0
LINE
  5
370B
  8
3
 10
153.5591640997981
 20
139.5079334002005
 30
0.0
 11
153.5231073789009
 21
139.49441212986409
 31
0.0
  0
LINE
  5
370C
  8
3
 10
153.6267704514805
 20
139.54399012109781
 30
0.0
 11
153.59972791080759
 21
139.53497594087349
 31
0.0
  0
LINE
  5
370D
  8
3
 10
153.45550102721859
 20
139.45835540896681
 30
0.0
 11
153.42395139643349
 21
139.44032704851821
 31
0.0
  0
LINE
  5
370E
  8
3
 10
153.13549762925561
 20
138.6831359096762
 30
0.0
 11
153.14901889959211
 21
138.7101784503491
 31
0.0
  0
LINE
  5
370F
  8
3
 10
153.07239836768539
 20
137.14621818143129
 30
0.0
 11
153.0678912775733
 21
137.18227490232849
 31
0.0
  0
LINE
  5
3710
  8
3
 10
154.67241535750051
 20
136.56480355696331
 30
0.0
 11
154.66340117727611
 21
136.5693106470755
 31
0.0
  0
LINE
  5
3711
  8
3
 10
154.6453728168276
 20
137.3490372364783
 30
0.0
 11
154.69495080806121
 21
137.3490372364783
 31
0.0
  0
LINE
  5
3712
  8
3
 10
154.71748625862199
 20
138.52088066563849
 30
0.0
 11
154.63635863660321
 21
138.62454373821811
 31
0.0
  0
LINE
  5
3713
  8
3
 10
154.74452879929501
 20
139.67920282446241
 30
0.0
 11
154.5777664651452
 21
139.67920282446241
 31
0.0
  0
LINE
  5
3714
  8
3
 10
154.63635863660321
 20
139.53497594087349
 30
0.0
 11
154.67241535750051
 21
139.5259617606491
 31
0.0
  0
LINE
  5
3715
  8
3
 10
154.61833027615461
 20
134.77098169232559
 30
0.0
 11
154.6588940871639
 21
134.84309513412009
 31
0.0
  0
LINE
  5
3716
  8
3
 10
154.6093160959303
 20
134.77548878243769
 30
0.0
 11
154.61833027615461
 21
134.77098169232559
 31
0.0
  0
LINE
  5
3717
  8
3
 10
154.60480900581811
 20
134.77548878243769
 30
0.0
 11
154.6093160959303
 21
134.77548878243769
 31
0.0
  0
LINE
  5
3718
  8
3
 10
154.6003019157059
 20
134.77548878243769
 30
0.0
 11
154.60480900581811
 21
134.77548878243769
 31
0.0
  0
LINE
  5
3719
  8
3
 10
154.59579482559391
 20
134.77548878243769
 30
0.0
 11
154.6003019157059
 21
134.77548878243769
 31
0.0
  0
LINE
  5
371A
  8
3
 10
154.59128773548159
 20
134.77548878243769
 30
0.0
 11
154.59579482559391
 21
134.77548878243769
 31
0.0
  0
LINE
  5
371B
  8
3
 10
154.5867806453694
 20
134.77548878243769
 30
0.0
 11
154.59128773548159
 21
134.77548878243769
 31
0.0
  0
LINE
  5
371C
  8
3
 10
153.1715543501528
 20
134.68534698019471
 30
0.0
 11
153.16704726004059
 21
134.69886825053109
 31
0.0
  0
LINE
  5
371D
  8
3
 10
153.1084550885827
 20
134.8070384132229
 30
0.0
 11
153.0949338182462
 21
134.86112349456869
 31
0.0
  0
LINE
  5
371E
  8
3
 10
153.11746926880701
 20
134.7935171428864
 30
0.0
 11
153.1084550885827
 21
134.8070384132229
 31
0.0
  0
LINE
  5
371F
  8
3
 10
153.12197635891911
 20
134.78450296266209
 30
0.0
 11
153.11746926880701
 21
134.7935171428864
 31
0.0
  0
LINE
  5
3720
  8
3
 10
153.12648344903121
 20
134.77548878243769
 30
0.0
 11
153.12197635891911
 21
134.78450296266209
 31
0.0
  0
LINE
  5
3721
  8
3
 10
153.1309905391434
 20
134.76647460221341
 30
0.0
 11
153.12648344903121
 21
134.77548878243769
 31
0.0
  0
LINE
  5
3722
  8
3
 10
153.13549762925561
 20
134.75746042198909
 30
0.0
 11
153.1309905391434
 21
134.76647460221341
 31
0.0
  0
LINE
  5
3723
  8
3
 10
153.14000471936771
 20
134.74844624176481
 30
0.0
 11
153.13549762925561
 21
134.75746042198909
 31
0.0
  0
LINE
  5
3724
  8
3
 10
153.14451180947989
 20
134.7349249714284
 30
0.0
 11
153.14000471936771
 21
134.74844624176481
 31
0.0
  0
LINE
  5
3725
  8
3
 10
153.14901889959211
 20
134.725910791204
 30
0.0
 11
153.14451180947989
 21
134.7349249714284
 31
0.0
  0
LINE
  5
3726
  8
3
 10
153.15352598970421
 20
134.7168966109798
 30
0.0
 11
153.14901889959211
 21
134.725910791204
 31
0.0
  0
LINE
  5
3727
  8
3
 10
153.15803307981631
 20
134.7078824307554
 30
0.0
 11
153.15352598970421
 21
134.7168966109798
 31
0.0
  0
LINE
  5
3728
  8
3
 10
153.16704726004059
 20
134.69886825053109
 30
0.0
 11
153.15803307981631
 21
134.7078824307554
 31
0.0
  0
LINE
  5
3729
  8
3
 10
153.09042672813399
 20
134.56365554716649
 30
0.0
 11
153.0949338182462
 21
134.56816263727859
 31
0.0
  0
LINE
  5
372A
  8
3
 10
153.08141254790959
 20
134.55914845705431
 30
0.0
 11
153.09042672813399
 21
134.56365554716649
 31
0.0
  0
LINE
  5
372B
  8
3
 10
153.07690545779761
 20
134.55464136694209
 30
0.0
 11
153.08141254790959
 21
134.55914845705431
 31
0.0
  0
LINE
  5
372C
  8
3
 10
153.07239836768539
 20
134.55013427682999
 30
0.0
 11
153.07690545779761
 21
134.55464136694209
 31
0.0
  0
LINE
  5
372D
  8
3
 10
153.0678912775733
 20
134.54112009660571
 30
0.0
 11
153.07239836768539
 21
134.55013427682999
 31
0.0
  0
LINE
  5
372E
  8
3
 10
153.0588770973489
 20
134.5366130064935
 30
0.0
 11
153.0678912775733
 21
134.54112009660571
 31
0.0
  0
LINE
  5
372F
  8
3
 10
153.0588770973489
 20
134.52759882626921
 30
0.0
 11
153.0588770973489
 21
134.5366130064935
 31
0.0
  0
LINE
  5
3730
  8
3
 10
153.0949338182462
 20
134.56816263727859
 30
0.0
 11
153.10394799847049
 21
134.5726697273908
 31
0.0
  0
LINE
  5
3731
  8
3
 10
153.1760614402649
 20
134.6763327999704
 30
0.0
 11
153.1715543501528
 21
134.68534698019471
 31
0.0
  0
LINE
  5
3732
  8
3
 10
153.18056853037709
 20
134.66731861974611
 30
0.0
 11
153.1760614402649
 21
134.6763327999704
 31
0.0
  0
LINE
  5
3733
  8
3
 10
153.1895827106014
 20
134.6583044395218
 30
0.0
 11
153.18056853037709
 21
134.66731861974611
 31
0.0
  0
LINE
  5
3734
  8
3
 10
153.1850756204893
 20
134.65379734940959
 30
0.0
 11
153.1895827106014
 21
134.6583044395218
 31
0.0
  0
LINE
  5
3735
  8
3
 10
153.1850756204893
 20
134.6492902592974
 30
0.0
 11
153.1850756204893
 21
134.65379734940959
 31
0.0
  0
LINE
  5
3736
  8
3
 10
153.1850756204893
 20
134.6447831691853
 30
0.0
 11
153.1850756204893
 21
134.6492902592974
 31
0.0
  0
LINE
  5
3737
  8
3
 10
153.1850756204893
 20
134.64027607907309
 30
0.0
 11
153.1850756204893
 21
134.6447831691853
 31
0.0
  0
LINE
  5
3738
  8
3
 10
153.1850756204893
 20
134.63576898896099
 30
0.0
 11
153.1850756204893
 21
134.64027607907309
 31
0.0
  0
LINE
  5
3739
  8
3
 10
153.1850756204893
 20
134.63126189884881
 30
0.0
 11
153.1850756204893
 21
134.63576898896099
 31
0.0
  0
LINE
  5
373A
  8
3
 10
153.1850756204893
 20
134.62675480873659
 30
0.0
 11
153.1850756204893
 21
134.63126189884881
 31
0.0
  0
LINE
  5
373B
  8
3
 10
153.1850756204893
 20
134.62224771862449
 30
0.0
 11
153.1850756204893
 21
134.62675480873659
 31
0.0
  0
LINE
  5
373C
  8
3
 10
153.1850756204893
 20
134.61774062851231
 30
0.0
 11
153.1850756204893
 21
134.62224771862449
 31
0.0
  0
LINE
  5
373D
  8
3
 10
153.18056853037709
 20
134.61323353840021
 30
0.0
 11
153.1850756204893
 21
134.61774062851231
 31
0.0
  0
LINE
  5
373E
  8
3
 10
153.18056853037709
 20
134.608726448288
 30
0.0
 11
153.18056853037709
 21
134.61323353840021
 31
0.0
  0
LINE
  5
373F
  8
3
 10
153.1760614402649
 20
134.608726448288
 30
0.0
 11
153.18056853037709
 21
134.608726448288
 31
0.0
  0
LINE
  5
3740
  8
3
 10
153.1760614402649
 20
134.6042193581759
 30
0.0
 11
153.1760614402649
 21
134.608726448288
 31
0.0
  0
LINE
  5
3741
  8
3
 10
153.1760614402649
 20
134.59971226806371
 30
0.0
 11
153.1760614402649
 21
134.6042193581759
 31
0.0
  0
LINE
  5
3742
  8
3
 10
153.15352598970421
 20
134.59520517795161
 30
0.0
 11
153.1760614402649
 21
134.59971226806371
 31
0.0
  0
LINE
  5
3743
  8
3
 10
153.14451180947989
 20
134.5906980878394
 30
0.0
 11
153.15352598970421
 21
134.59520517795161
 31
0.0
  0
LINE
  5
3744
  8
3
 10
153.13549762925561
 20
134.5861909977273
 30
0.0
 11
153.14451180947989
 21
134.5906980878394
 31
0.0
  0
LINE
  5
3745
  8
3
 10
153.12648344903121
 20
134.5861909977273
 30
0.0
 11
153.13549762925561
 21
134.5861909977273
 31
0.0
  0
LINE
  5
3746
  8
3
 10
153.11746926880701
 20
134.58168390761509
 30
0.0
 11
153.12648344903121
 21
134.5861909977273
 31
0.0
  0
LINE
  5
3747
  8
3
 10
153.1129621786948
 20
134.5771768175029
 30
0.0
 11
153.11746926880701
 21
134.58168390761509
 31
0.0
  0
LINE
  5
3748
  8
3
 10
153.10394799847049
 20
134.5726697273908
 30
0.0
 11
153.1129621786948
 21
134.5771768175029
 31
0.0
  0
POLYLINE
  5
3749
  8
3
 66
     1
 10
0.0
 20
0.0
 30
0.0
 70
     1
  0
VERTEX
  5
3D98
  8
3
 10
154.0369156516866
 20
135.3704246772422
 30
0.0
  0
VERTEX
  5
3D99
  8
3
 10
154.0369156516866
 20
134.7394320615405
 30
0.0
  0
VERTEX
  5
3D9A
  8
3
 10
154.02790147146229
 20
134.7349249714284
 30
0.0
  0
VERTEX
  5
3D9B
  8
3
 10
154.01888729123789
 20
134.73041788131621
 30
0.0
  0
VERTEX
  5
3D9C
  8
3
 10
154.01438020112579
 20
134.73041788131621
 30
0.0
  0
VERTEX
  5
3D9D
  8
3
 10
154.0053660209015
 20
134.73041788131621
 30
0.0
  0
VERTEX
  5
3D9E
  8
3
 10
154.00085893078941
 20
134.7349249714284
 30
0.0
  0
VERTEX
  5
3D9F
  8
3
 10
153.99184475056509
 20
134.7394320615405
 30
0.0
  0
VERTEX
  5
3DA0
  8
3
 10
153.9828305703407
 20
134.74393915165271
 30
0.0
  0
VERTEX
  5
3DA1
  8
3
 10
153.97381639011641
 20
134.75295333187699
 30
0.0
  0
VERTEX
  5
3DA2
  8
3
 10
153.96930930000431
 20
134.76196751210131
 30
0.0
  0
VERTEX
  5
3DA3
  8
3
 10
153.96029511977989
 20
134.77098169232559
 30
0.0
  0
VERTEX
  5
3DA4
  8
3
 10
153.9512809395556
 20
134.7799958725499
 30
0.0
  0
VERTEX
  5
3DA5
  8
3
 10
153.94226675933129
 20
134.78901005277419
 30
0.0
  0
VERTEX
  5
3DA6
  8
3
 10
153.93775966921919
 20
134.7980242329985
 30
0.0
  0
VERTEX
  5
3DA7
  8
3
 10
153.92874548899491
 20
134.8070384132229
 30
0.0
  0
VERTEX
  5
3DA8
  8
3
 10
153.91522421865841
 20
134.82055968355931
 30
0.0
  0
VERTEX
  5
3DA9
  8
3
 10
153.89719585820981
 20
134.8476022242323
 30
0.0
  0
VERTEX
  5
3DAA
  8
3
 10
153.87916749776119
 20
134.87915185501731
 30
0.0
  0
VERTEX
  5
3DAB
  8
3
 10
153.86564622742469
 20
134.90619439569019
 30
0.0
  0
VERTEX
  5
3DAC
  8
3
 10
153.85663204720029
 20
134.93323693636319
 30
0.0
  0
VERTEX
  5
3DAD
  8
3
 10
153.84761786697601
 20
134.9647865671482
 30
0.0
  0
VERTEX
  5
3DAE
  8
3
 10
153.8386036867517
 20
134.99182910782119
 30
0.0
  0
VERTEX
  5
3DAF
  8
3
 10
153.82958950652741
 20
135.02337873860631
 30
0.0
  0
VERTEX
  5
3DB0
  8
3
 10
153.82508241641531
 20
135.0549283693914
 30
0.0
  0
VERTEX
  5
3DB1
  8
3
 10
153.8205753263031
 20
135.08647800017641
 30
0.0
  0
VERTEX
  5
3DB2
  8
3
 10
153.8205753263031
 20
135.11802763096151
 30
0.0
  0
VERTEX
  5
3DB3
  8
3
 10
153.8205753263031
 20
135.14957726174671
 30
0.0
  0
VERTEX
  5
3DB4
  8
3
 10
153.8205753263031
 20
135.18112689253169
 30
0.0
  0
VERTEX
  5
3DB5
  8
3
 10
153.82508241641531
 20
135.2081694332046
 30
0.0
  0
VERTEX
  5
3DB6
  8
3
 10
153.82958950652741
 20
135.2397190639897
 30
0.0
  0
VERTEX
  5
3DB7
  8
3
 10
153.84311077686391
 20
135.2983112354477
 30
0.0
  0
VERTEX
  5
3DB8
  8
3
 10
153.84761786697601
 20
135.3118325057842
 30
0.0
  0
VERTEX
  5
3DB9
  8
3
 10
153.85212495708819
 20
135.32084668600851
 30
0.0
  0
VERTEX
  5
3DBA
  8
3
 10
153.85663204720029
 20
135.33436795634489
 30
0.0
  0
VERTEX
  5
3DBB
  8
3
 10
153.86564622742469
 20
135.34338213656929
 30
0.0
  0
VERTEX
  5
3DBC
  8
3
 10
153.87015331753679
 20
135.3523963167936
 30
0.0
  0
VERTEX
  5
3DBD
  8
3
 10
153.87916749776119
 20
135.36141049701791
 30
0.0
  0
VERTEX
  5
3DBE
  8
3
 10
153.8881816779855
 20
135.3704246772422
 30
0.0
  0
VERTEX
  5
3DBF
  8
3
 10
153.89719585820981
 20
135.37493176735441
 30
0.0
  0
VERTEX
  5
3DC0
  8
3
 10
153.9062100384341
 20
135.3839459475787
 30
0.0
  0
VERTEX
  5
3DC1
  8
3
 10
153.91522421865841
 20
135.38845303769079
 30
0.0
  0
VERTEX
  5
3DC2
  8
3
 10
153.92423839888281
 20
135.39296012780301
 30
0.0
  0
VERTEX
  5
3DC3
  8
3
 10
153.93325257910701
 20
135.39746721791511
 30
0.0
  0
VERTEX
  5
3DC4
  8
3
 10
153.94226675933129
 20
135.40197430802729
 30
0.0
  0
VERTEX
  5
3DC5
  8
3
 10
153.9557880296677
 20
135.4064813981395
 30
0.0
  0
VERTEX
  5
3DC6
  8
3
 10
153.9783234802286
 20
135.4109884882516
 30
0.0
  0
VERTEX
  5
3DC7
  8
3
 10
154.03240856157441
 20
135.37943885746651
 30
0.0
  0
VERTEX
  5
3DC8
  8
3
 10
154.03240856157441
 20
135.37493176735441
 30
0.0
  0
VERTEX
  5
3DC9
  8
3
 10
154.0369156516866
 20
135.3704246772422
 30
0.0
  0
SEQEND
  5
3DCA
  8
3
  0
LINE
  5
374A
  8
3
 10
154.6588940871639
 20
134.84309513412009
 30
0.0
 11
154.69495080806121
 21
134.91070148580241
 31
0.0
  0
LINE
  5
374B
  8
3
 10
154.57325937503299
 20
135.93381094126161
 30
0.0
 11
154.5867806453694
 21
134.77548878243769
 31
0.0
  0
LINE
  5
374C
  8
3
 10
153.0949338182462
 20
134.86112349456869
 30
0.0
 11
153.08141254790959
 21
134.91520857591451
 31
0.0
  0
LINE
  5
374D
  8
3
 10
155.53326956892201
 20
135.58676500262561
 30
0.0
 11
155.53777665903419
 21
135.5507082817285
 31
0.0
  0
LINE
  5
374E
  8
3
 10
155.53326956892201
 20
135.6273288136351
 30
0.0
 11
155.53326956892201
 21
135.58676500262561
 31
0.0
  0
LINE
  5
374F
  8
3
 10
155.53777665903419
 20
135.47408774982179
 30
0.0
 11
155.53777665903419
 21
135.43803102892451
 31
0.0
  0
LINE
  5
3750
  8
3
 10
155.54679083925851
 20
135.08647800017641
 30
0.0
 11
155.53777665903419
 21
134.9963361979334
 31
0.0
  0
LINE
  5
3751
  8
3
 10
155.53777665903419
 20
134.9963361979334
 30
0.0
 11
155.52425538869781
 21
134.91070148580241
 31
0.0
  0
LINE
  5
3752
  8
3
 10
155.54228374914629
 20
135.24873324421401
 30
0.0
 11
155.55129792937061
 21
135.17211271230741
 31
0.0
  0
LINE
  5
3753
  8
3
 10
155.53777665903419
 20
135.28478996511129
 30
0.0
 11
155.54228374914629
 21
135.24873324421401
 31
0.0
  0
LINE
  5
3754
  8
3
 10
155.53777665903419
 20
135.40197430802729
 30
0.0
 11
155.53777665903419
 21
135.36141049701791
 31
0.0
  0
LINE
  5
3755
  8
3
 10
155.53777665903419
 20
135.36141049701791
 30
0.0
 11
155.53777665903419
 21
135.32535377612069
 31
0.0
  0
LINE
  5
3756
  8
3
 10
155.53777665903419
 20
135.32535377612069
 30
0.0
 11
155.53777665903419
 21
135.28478996511129
 31
0.0
  0
LINE
  5
3757
  8
3
 10
155.55129792937061
 20
135.17211271230741
 30
0.0
 11
155.54679083925851
 21
135.08647800017641
 31
0.0
  0
LINE
  5
3758
  8
3
 10
155.53777665903419
 20
135.43803102892451
 30
0.0
 11
155.53777665903419
 21
135.40197430802729
 31
0.0
  0
LINE
  5
3759
  8
3
 10
155.53777665903419
 20
135.5146515608312
 30
0.0
 11
155.53777665903419
 21
135.47408774982179
 31
0.0
  0
LINE
  5
375A
  8
3
 10
155.53777665903419
 20
135.5507082817285
 30
0.0
 11
155.53777665903419
 21
135.5146515608312
 31
0.0
  0
LINE
  5
375B
  8
3
 10
155.36650723477231
 20
135.9428251214859
 30
0.0
 11
155.51974829858571
 21
135.7715556972241
 31
0.0
  0
LINE
  5
375C
  8
3
 10
155.55129792937061
 20
136.21325052821521
 30
0.0
 11
155.55129792937061
 21
136.1817008974302
 31
0.0
  0
LINE
  5
375D
  8
3
 10
155.55129792937061
 20
136.24480015900031
 30
0.0
 11
155.55129792937061
 21
136.21325052821521
 31
0.0
  0
LINE
  5
375E
  8
3
 10
155.55129792937061
 20
136.27184269967319
 30
0.0
 11
155.55129792937061
 21
136.24480015900031
 31
0.0
  0
LINE
  5
375F
  8
3
 10
155.55129792937061
 20
136.1817008974302
 30
0.0
 11
155.55129792937061
 21
136.11860163585999
 31
0.0
  0
LINE
  5
3760
  8
3
 10
155.55129792937061
 20
136.3349419612434
 30
0.0
 11
155.55129792937061
 21
136.30339233045831
 31
0.0
  0
LINE
  5
3761
  8
3
 10
155.55129792937061
 20
136.3664915920285
 30
0.0
 11
155.55129792937061
 21
136.3349419612434
 31
0.0
  0
LINE
  5
3762
  8
3
 10
155.55129792937061
 20
136.3935341327014
 30
0.0
 11
155.55129792937061
 21
136.3664915920285
 31
0.0
  0
LINE
  5
3763
  8
3
 10
155.55129792937061
 20
136.30339233045831
 30
0.0
 11
155.55129792937061
 21
136.27184269967319
 31
0.0
  0
LINE
  5
3764
  8
3
 10
155.52876247880991
 20
135.6994422554296
 30
0.0
 11
155.53326956892201
 21
135.6633855345323
 31
0.0
  0
LINE
  5
3765
  8
3
 10
155.51974829858571
 20
135.7715556972241
 30
0.0
 11
155.52425538869781
 21
135.73549897632671
 31
0.0
  0
LINE
  5
3766
  8
3
 10
155.52425538869781
 20
135.73549897632671
 30
0.0
 11
155.52876247880991
 21
135.6994422554296
 31
0.0
  0
LINE
  5
3767
  8
3
 10
155.29439379297779
 20
135.97437475227099
 30
0.0
 11
155.36650723477231
 21
135.9428251214859
 31
0.0
  0
LINE
  5
3768
  8
3
 10
155.28988670286569
 20
137.0966401901976
 30
0.0
 11
155.32143633365069
 21
137.06058346930041
 31
0.0
  0
LINE
  5
3769
  8
3
 10
155.55129792937061
 20
136.45663339427159
 30
0.0
 11
155.55129792937061
 21
136.4250837634865
 31
0.0
  0
LINE
  5
376A
  8
3
 10
155.443127766679
 20
136.90283531537489
 30
0.0
 11
155.46566321723969
 21
136.85776441425341
 31
0.0
  0
LINE
  5
376B
  8
3
 10
155.55129792937061
 20
136.48818302505671
 30
0.0
 11
155.55129792937061
 21
136.45663339427159
 31
0.0
  0
LINE
  5
376C
  8
3
 10
155.55129792937061
 20
136.51973265584181
 30
0.0
 11
155.55129792937061
 21
136.48818302505671
 31
0.0
  0
LINE
  5
376D
  8
3
 10
155.52425538869781
 20
136.71353753066441
 30
0.0
 11
155.55129792937061
 21
136.60987445808479
 31
0.0
  0
LINE
  5
376E
  8
3
 10
155.51073411836131
 20
136.7631155218981
 30
0.0
 11
155.52425538869781
 21
136.71353753066441
 31
0.0
  0
LINE
  5
376F
  8
3
 10
155.4881986678005
 20
136.81269351313179
 30
0.0
 11
155.51073411836131
 21
136.7631155218981
 31
0.0
  0
LINE
  5
3770
  8
3
 10
155.46566321723969
 20
136.85776441425341
 30
0.0
 11
155.4881986678005
 21
136.81269351313179
 31
0.0
  0
LINE
  5
3771
  8
3
 10
155.55129792937061
 20
136.58283191741191
 30
0.0
 11
155.55129792937061
 21
136.55128228662679
 31
0.0
  0
LINE
  5
3772
  8
3
 10
155.55129792937061
 20
136.60987445808479
 30
0.0
 11
155.55129792937061
 21
136.58283191741191
 31
0.0
  0
LINE
  5
3773
  8
3
 10
155.55129792937061
 20
136.55128228662679
 30
0.0
 11
155.55129792937061
 21
136.51973265584181
 31
0.0
  0
LINE
  5
3774
  8
3
 10
155.416085226006
 20
136.94339912638429
 30
0.0
 11
155.443127766679
 21
136.90283531537489
 31
0.0
  0
LINE
  5
3775
  8
3
 10
155.38453559522091
 20
136.9839629373937
 30
0.0
 11
155.416085226006
 21
136.94339912638429
 31
0.0
  0
LINE
  5
3776
  8
3
 10
155.35298596443579
 20
137.0245267484031
 30
0.0
 11
155.38453559522091
 21
136.9839629373937
 31
0.0
  0
LINE
  5
3777
  8
3
 10
155.32143633365069
 20
137.06058346930041
 30
0.0
 11
155.35298596443579
 21
137.0245267484031
 31
0.0
  0
LINE
  5
3778
  8
3
 10
155.55129792937061
 20
136.4250837634865
 30
0.0
 11
155.55129792937061
 21
136.3935341327014
 31
0.0
  0
LINE
  5
3779
  8
3
 10
155.53326956892201
 20
135.6633855345323
 30
0.0
 11
155.53326956892201
 21
135.6273288136351
 31
0.0
  0
LINE
  5
377A
  8
3
 10
155.32594342376291
 20
137.52030666074009
 30
0.0
 11
155.28087252264129
 21
137.52030666074009
 31
0.0
  0
LINE
  5
377B
  8
3
 10
155.56031210959509
 20
137.53382793107659
 30
0.0
 11
155.51073411836131
 21
137.52932084096449
 31
0.0
  0
LINE
  5
377C
  8
3
 10
155.42059231611819
 20
137.5248137508523
 30
0.0
 11
155.37101432488441
 21
137.52030666074009
 31
0.0
  0
LINE
  5
377D
  8
3
 10
155.46566321723969
 20
137.5248137508523
 30
0.0
 11
155.42059231611819
 21
137.5248137508523
 31
0.0
  0
LINE
  5
377E
  8
3
 10
155.51073411836131
 20
137.52932084096449
 30
0.0
 11
155.46566321723969
 21
137.5248137508523
 31
0.0
  0
LINE
  5
377F
  8
3
 10
155.37101432488441
 20
137.52030666074009
 30
0.0
 11
155.32594342376291
 21
137.52030666074009
 31
0.0
  0
LINE
  5
3780
  8
3
 10
155.54679083925851
 20
138.44426013373189
 30
0.0
 11
155.54679083925851
 21
138.43975304361979
 31
0.0
  0
LINE
  5
3781
  8
3
 10
155.55129792937061
 20
138.47130267440491
 30
0.0
 11
155.54679083925851
 21
138.4667955842927
 31
0.0
  0
LINE
  5
3782
  8
3
 10
155.51974829858571
 20
138.60651537776951
 30
0.0
 11
155.55129792937061
 21
138.47130267440491
 31
0.0
  0
LINE
  5
3783
  8
3
 10
155.54679083925851
 20
138.45327431395631
 30
0.0
 11
155.54679083925851
 21
138.44426013373189
 31
0.0
  0
LINE
  5
3784
  8
3
 10
155.54679083925851
 20
138.45778140406841
 30
0.0
 11
155.54679083925851
 21
138.45327431395631
 31
0.0
  0
LINE
  5
3785
  8
3
 10
155.54679083925851
 20
138.4622884941806
 30
0.0
 11
155.54679083925851
 21
138.45778140406841
 31
0.0
  0
LINE
  5
3786
  8
3
 10
155.54679083925851
 20
138.4667955842927
 30
0.0
 11
155.54679083925851
 21
138.4622884941806
 31
0.0
  0
LINE
  5
3787
  8
3
 10
155.501719938137
 20
138.6696146393397
 30
0.0
 11
155.51974829858571
 21
138.60651537776951
 31
0.0
  0
LINE
  5
3788
  8
3
 10
155.54679083925851
 20
138.4352459535076
 30
0.0
 11
155.55129792937061
 21
138.4307388633955
 31
0.0
  0
LINE
  5
3789
  8
3
 10
155.54679083925851
 20
138.43975304361979
 30
0.0
 11
155.54679083925851
 21
138.4352459535076
 31
0.0
  0
LINE
  5
378A
  8
3
 10
155.55129792937061
 20
138.42172468317119
 30
0.0
 11
155.55580501948279
 21
138.42172468317119
 31
0.0
  0
LINE
  5
378B
  8
3
 10
155.55129792937061
 20
138.42623177328329
 30
0.0
 11
155.55129792937061
 21
138.42172468317119
 31
0.0
  0
LINE
  5
378C
  8
3
 10
155.55129792937061
 20
138.4307388633955
 30
0.0
 11
155.55129792937061
 21
138.42623177328329
 31
0.0
  0
LINE
  5
378D
  8
3
 10
155.55580501948279
 20
138.42172468317119
 30
0.0
 11
155.55580501948279
 21
138.41721759305901
 31
0.0
  0
LINE
  5
378E
  8
3
 10
155.56031210959509
 20
138.39918923261041
 30
0.0
 11
155.56031210959509
 21
138.39918923261041
 31
0.0
  0
LINE
  5
378F
  8
3
 10
155.55580501948279
 20
138.40820341283469
 30
0.0
 11
155.56031210959509
 21
138.39918923261041
 31
0.0
  0
LINE
  5
3790
  8
3
 10
155.55580501948279
 20
138.41271050294691
 30
0.0
 11
155.55580501948279
 21
138.40820341283469
 31
0.0
  0
LINE
  5
3791
  8
3
 10
155.55580501948279
 20
138.41721759305901
 30
0.0
 11
155.55580501948279
 21
138.41271050294691
 31
0.0
  0
LINE
  5
3792
  8
3
 10
155.56031210959509
 20
138.39918923261041
 30
0.0
 11
155.56031210959509
 21
137.53382793107659
 31
0.0
  0
LINE
  5
3793
  8
3
 10
155.4115781358939
 20
138.91299750539611
 30
0.0
 11
155.4386206765667
 21
138.85440533393799
 31
0.0
  0
LINE
  5
3794
  8
3
 10
155.38002850510881
 20
138.9670825867419
 30
0.0
 11
155.4115781358939
 21
138.91299750539611
 31
0.0
  0
LINE
  5
3795
  8
3
 10
155.34847887432369
 20
139.0211676680878
 30
0.0
 11
155.38002850510881
 21
138.9670825867419
 31
0.0
  0
LINE
  5
3796
  8
3
 10
155.4386206765667
 20
138.85440533393799
 30
0.0
 11
155.46115612712759
 21
138.79581316247999
 31
0.0
  0
LINE
  5
3797
  8
3
 10
155.46115612712759
 20
138.79581316247999
 30
0.0
 11
155.4836915776884
 21
138.73271390090991
 31
0.0
  0
LINE
  5
3798
  8
3
 10
155.31242215342641
 20
139.0752527494337
 30
0.0
 11
155.34847887432369
 21
139.0211676680878
 31
0.0
  0
LINE
  5
3799
  8
3
 10
156.01552821092261
 20
139.6927240947989
 30
0.0
 11
155.8442587866607
 21
139.6927240947989
 31
0.0
  0
LINE
  5
379A
  8
3
 10
155.65946809206241
 20
139.6927240947989
 30
0.0
 11
155.47467739746401
 21
139.68821700468669
 31
0.0
  0
LINE
  5
379B
  8
3
 10
155.8442587866607
 20
139.6927240947989
 30
0.0
 11
155.65946809206241
 21
139.6927240947989
 31
0.0
  0
LINE
  5
379C
  8
3
 10
156.20525660933811
 20
139.697231184911
 30
0.0
 11
156.01552821092261
 21
139.6927240947989
 31
0.0
  0
LINE
  5
379D
  8
3
 10
155.47467739746401
 20
139.68821700468669
 30
0.0
 11
155.28537961275359
 21
139.68821700468669
 31
0.0
  0
LINE
  5
379E
  8
3
 10
155.4836915776884
 20
138.73271390090991
 30
0.0
 11
155.501719938137
 21
138.6696146393397
 31
0.0
  0
LINE
  5
379F
  8
3
 10
156.35849767315139
 20
139.697231184911
 30
0.0
 11
156.20525660933811
 21
139.697231184911
 31
0.0
  0
LINE
  5
37A0
  8
3
 10
155.4836915776884
 20
134.74393915165271
 30
0.0
 11
155.45664903701541
 21
134.66281152963381
 31
0.0
  0
LINE
  5
37A1
  8
3
 10
155.5062270282491
 20
134.82506677367149
 30
0.0
 11
155.4836915776884
 21
134.74393915165271
 31
0.0
  0
LINE
  5
37A2
  8
3
 10
155.45664903701541
 20
134.66281152963381
 30
0.0
 11
155.4250994062304
 21
134.5861909977273
 31
0.0
  0
LINE
  5
37A3
  8
3
 10
155.4250994062304
 20
134.5861909977273
 30
0.0
 11
155.39354977544531
 21
134.50957046582059
 31
0.0
  0
LINE
  5
37A4
  8
3
 10
155.52425538869781
 20
134.91070148580241
 30
0.0
 11
155.5062270282491
 21
134.82506677367149
 31
0.0
  0
LINE
  5
37A5
  8
3
 10
155.14565981927669
 20
142.38796398186761
 30
0.0
 11
155.28988670286569
 21
142.25725836861511
 31
0.0
  0
LINE
  5
37A6
  8
3
 10
155.62341137116519
 20
140.6166775677907
 30
0.0
 11
154.84368478176231
 21
140.62569174801499
 31
0.0
  0
LINE
  5
37A7
  8
3
 10
155.13213854894019
 20
140.49498613476251
 30
0.0
 11
155.34847887432369
 21
140.4904790446503
 31
0.0
  0
LINE
  5
37A8
  8
3
 10
154.83467060153799
 20
141.33781198573541
 30
0.0
 11
154.82565642131371
 21
141.40992542752991
 31
0.0
  0
LINE
  5
37A9
  8
3
 10
154.77157133996789
 20
141.6037303023526
 30
0.0
 11
154.69495080806121
 21
141.71190046504441
 31
0.0
  0
LINE
  5
37AA
  8
3
 10
154.67241535750051
 20
141.71190046504441
 30
0.0
 11
154.67241535750051
 21
141.7073933749322
 31
0.0
  0
LINE
  5
37AB
  8
3
 10
154.67692244761261
 20
141.71190046504441
 30
0.0
 11
154.67241535750051
 21
141.71190046504441
 31
0.0
  0
LINE
  5
37AC
  8
3
 10
154.6814295377248
 20
141.71190046504441
 30
0.0
 11
154.67692244761261
 21
141.71190046504441
 31
0.0
  0
LINE
  5
37AD
  8
3
 10
154.6859366278369
 20
141.71190046504441
 30
0.0
 11
154.6814295377248
 21
141.71190046504441
 31
0.0
  0
LINE
  5
37AE
  8
3
 10
154.69044371794911
 20
141.71190046504441
 30
0.0
 11
154.6859366278369
 21
141.71190046504441
 31
0.0
  0
LINE
  5
37AF
  8
3
 10
154.69495080806121
 20
141.71190046504441
 30
0.0
 11
154.69044371794911
 21
141.71190046504441
 31
0.0
  0
LINE
  5
37B0
  8
3
 10
154.82565642131371
 20
141.40992542752991
 30
0.0
 11
154.8166422410894
 21
141.47753177921231
 31
0.0
  0
LINE
  5
37B1
  8
3
 10
154.79861388064069
 20
141.5406310407825
 30
0.0
 11
154.77157133996789
 21
141.6037303023526
 31
0.0
  0
LINE
  5
37B2
  8
3
 10
154.8166422410894
 20
141.47753177921231
 30
0.0
 11
154.79861388064069
 21
141.5406310407825
 31
0.0
  0
LINE
  5
37B3
  8
3
 10
155.11411018849159
 20
142.4059923423163
 30
0.0
 11
155.14565981927669
 21
142.38796398186761
 31
0.0
  0
LINE
  5
37B4
  8
3
 10
155.1005889181551
 20
142.41049943242831
 30
0.0
 11
155.11411018849159
 21
142.4059923423163
 31
0.0
  0
LINE
  5
37B5
  8
3
 10
155.0915747379309
 20
142.41951361265271
 30
0.0
 11
155.1005889181551
 21
142.41049943242831
 31
0.0
  0
LINE
  5
37B6
  8
3
 10
155.0780534675944
 20
142.42852779287699
 30
0.0
 11
155.0915747379309
 21
142.41951361265271
 31
0.0
  0
LINE
  5
37B7
  8
3
 10
155.0645321972579
 20
142.4375419731013
 30
0.0
 11
155.0780534675944
 21
142.42852779287699
 31
0.0
  0
LINE
  5
37B8
  8
3
 10
155.05551801703359
 20
142.4420490632134
 30
0.0
 11
155.0645321972579
 21
142.4375419731013
 31
0.0
  0
LINE
  5
37B9
  8
3
 10
155.04199674669709
 20
142.4510632434378
 30
0.0
 11
155.05551801703359
 21
142.4420490632134
 31
0.0
  0
LINE
  5
37BA
  8
3
 10
155.02847547636071
 20
142.46007742366211
 30
0.0
 11
155.04199674669709
 21
142.4510632434378
 31
0.0
  0
LINE
  5
37BB
  8
3
 10
155.0149542060243
 20
142.4690916038864
 30
0.0
 11
155.02847547636071
 21
142.46007742366211
 31
0.0
  0
LINE
  5
37BC
  8
3
 10
155.00594002579999
 20
142.4781057841108
 30
0.0
 11
155.0149542060243
 21
142.4690916038864
 31
0.0
  0
LINE
  5
37BD
  8
3
 10
154.9924187554634
 20
142.48711996433499
 30
0.0
 11
155.00594002579999
 21
142.4781057841108
 31
0.0
  0
LINE
  5
37BE
  8
3
 10
154.97889748512699
 20
142.49613414455931
 30
0.0
 11
154.9924187554634
 21
142.48711996433499
 31
0.0
  0
LINE
  5
37BF
  8
3
 10
154.79861388064069
 20
142.58176885669019
 30
0.0
 11
154.93833367411759
 21
142.52317668523219
 31
0.0
  0
LINE
  5
37C0
  8
3
 10
154.7265004388463
 20
142.60430430725111
 30
0.0
 11
154.79861388064069
 21
142.58176885669019
 31
0.0
  0
LINE
  5
37C1
  8
3
 10
154.951854944454
 20
142.5141625050079
 30
0.0
 11
154.96537621479061
 21
142.50514832478359
 31
0.0
  0
LINE
  5
37C2
  8
3
 10
154.93833367411759
 20
142.52317668523219
 30
0.0
 11
154.951854944454
 21
142.5141625050079
 31
0.0
  0
LINE
  5
37C3
  8
3
 10
154.96537621479061
 20
142.50514832478359
 30
0.0
 11
154.97889748512699
 21
142.49613414455931
 31
0.0
  0
LINE
  5
37C4
  8
3
 10
154.82114933120161
 20
140.76090445137959
 30
0.0
 11
154.82114933120161
 21
140.83301789317409
 31
0.0
  0
LINE
  5
37C5
  8
3
 10
154.82114933120161
 20
140.83301789317409
 30
0.0
 11
154.82114933120161
 21
140.90513133496859
 31
0.0
  0
LINE
  5
37C6
  8
3
 10
154.84368478176231
 20
140.62569174801499
 30
0.0
 11
154.83016351142589
 21
140.6932980996973
 31
0.0
  0
LINE
  5
37C7
  8
3
 10
154.83016351142589
 20
140.6932980996973
 30
0.0
 11
154.82114933120161
 21
140.76090445137959
 31
0.0
  0
LINE
  5
37C8
  8
3
 10
154.9293194938933
 20
140.5040003149868
 30
0.0
 11
155.13213854894019
 21
140.49498613476251
 31
0.0
  0
LINE
  5
37C9
  8
3
 10
154.74002170918271
 20
140.5085074050989
 30
0.0
 11
154.9293194938933
 21
140.5040003149868
 31
0.0
  0
LINE
  5
37CA
  8
3
 10
154.82565642131371
 20
140.97724477676309
 30
0.0
 11
154.82565642131371
 21
141.04935821855759
 31
0.0
  0
LINE
  5
37CB
  8
3
 10
154.83467060153799
 20
141.27020563405321
 30
0.0
 11
154.83467060153799
 21
141.33781198573541
 31
0.0
  0
LINE
  5
37CC
  8
3
 10
154.83467060153799
 20
141.19809219225871
 30
0.0
 11
154.83467060153799
 21
141.27020563405321
 31
0.0
  0
LINE
  5
37CD
  8
3
 10
154.83016351142589
 20
141.121471660352
 30
0.0
 11
154.83467060153799
 21
141.19809219225871
 31
0.0
  0
LINE
  5
37CE
  8
3
 10
154.82565642131371
 20
141.04935821855759
 30
0.0
 11
154.83016351142589
 21
141.121471660352
 31
0.0
  0
LINE
  5
37CF
  8
3
 10
154.82114933120161
 20
140.90513133496859
 30
0.0
 11
154.82565642131371
 21
140.97724477676309
 31
0.0
  0
LINE
  5
37D0
  8
3
 10
153.1084550885827
 20
141.33330489562329
 30
0.0
 11
153.1129621786948
 21
141.4144325176421
 31
0.0
  0
LINE
  5
37D1
  8
3
 10
154.13156454404179
 20
141.34231907584771
 30
0.0
 11
154.13156454404179
 21
141.40992542752991
 31
0.0
  0
LINE
  5
37D2
  8
3
 10
153.91973130877059
 20
141.43696796820291
 30
0.0
 11
153.901702948322
 21
141.34682616595981
 31
0.0
  0
LINE
  5
37D3
  8
3
 10
154.66790826738841
 20
141.70288628482001
 30
0.0
 11
154.66340117727611
 21
140.71583355025811
 31
0.0
  0
LINE
  5
37D4
  8
3
 10
153.64479881192909
 20
142.4330348829892
 30
0.0
 11
153.64930590204119
 21
142.4375419731013
 31
0.0
  0
LINE
  5
37D5
  8
3
 10
154.13156454404179
 20
141.60823739246479
 30
0.0
 11
154.12705745392969
 21
141.7344359156051
 31
0.0
  0
LINE
  5
37D6
  8
3
 10
154.0053660209015
 20
141.6758437441471
 30
0.0
 11
153.96930930000431
 21
141.6037303023526
 31
0.0
  0
LINE
  5
37D7
  8
3
 10
154.0504369220231
 20
141.7344359156051
 30
0.0
 11
154.0053660209015
 21
141.6758437441471
 31
0.0
  0
LINE
  5
37D8
  8
3
 10
154.13156454404179
 20
141.40992542752991
 30
0.0
 11
154.13156454404179
 21
141.47753177921231
 31
0.0
  0
LINE
  5
37D9
  8
3
 10
154.13156454404179
 20
141.5406310407825
 30
0.0
 11
154.13156454404179
 21
141.60823739246479
 31
0.0
  0
LINE
  5
37DA
  8
3
 10
154.13156454404179
 20
141.47753177921231
 30
0.0
 11
154.13156454404179
 21
141.5406310407825
 31
0.0
  0
LINE
  5
37DB
  8
3
 10
153.96930930000431
 20
141.6037303023526
 30
0.0
 11
153.93775966921919
 21
141.52260268033379
 31
0.0
  0
LINE
  5
37DC
  8
3
 10
153.93775966921919
 20
141.52260268033379
 30
0.0
 11
153.91973130877059
 21
141.43696796820291
 31
0.0
  0
LINE
  5
37DD
  8
3
 10
154.66790826738841
 20
141.7073933749322
 30
0.0
 11
154.66790826738841
 21
141.70288628482001
 31
0.0
  0
LINE
  5
37DE
  8
3
 10
154.05945110224729
 20
141.74345009582939
 30
0.0
 11
154.05494401213531
 21
141.74345009582939
 31
0.0
  0
LINE
  5
37DF
  8
3
 10
154.06846528247161
 20
141.7479571859416
 30
0.0
 11
154.05945110224729
 21
141.74345009582939
 31
0.0
  0
LINE
  5
37E0
  8
3
 10
154.07297237258379
 20
141.75246427605379
 30
0.0
 11
154.06846528247161
 21
141.7479571859416
 31
0.0
  0
LINE
  5
37E1
  8
3
 10
154.077479462696
 20
141.75246427605379
 30
0.0
 11
154.07297237258379
 21
141.75246427605379
 31
0.0
  0
LINE
  5
37E2
  8
3
 10
154.0819865528081
 20
141.75697136616591
 30
0.0
 11
154.077479462696
 21
141.75246427605379
 31
0.0
  0
LINE
  5
37E3
  8
3
 10
154.09100073303239
 20
141.75697136616591
 30
0.0
 11
154.0819865528081
 21
141.75697136616591
 31
0.0
  0
LINE
  5
37E4
  8
3
 10
154.0955078231446
 20
141.7614784562781
 30
0.0
 11
154.09100073303239
 21
141.75697136616591
 31
0.0
  0
LINE
  5
37E5
  8
3
 10
154.1000149132567
 20
141.7614784562781
 30
0.0
 11
154.0955078231446
 21
141.7614784562781
 31
0.0
  0
LINE
  5
37E6
  8
3
 10
154.10452200336891
 20
141.7614784562781
 30
0.0
 11
154.1000149132567
 21
141.7614784562781
 31
0.0
  0
LINE
  5
37E7
  8
3
 10
154.11353618359331
 20
141.75697136616591
 30
0.0
 11
154.10452200336891
 21
141.7614784562781
 31
0.0
  0
LINE
  5
37E8
  8
3
 10
154.11804327370541
 20
141.75697136616591
 30
0.0
 11
154.11353618359331
 21
141.75697136616591
 31
0.0
  0
LINE
  5
37E9
  8
3
 10
154.11804327370541
 20
141.75246427605379
 30
0.0
 11
154.11804327370541
 21
141.75697136616591
 31
0.0
  0
LINE
  5
37EA
  8
3
 10
154.12255036381751
 20
141.74345009582939
 30
0.0
 11
154.11804327370541
 21
141.75246427605379
 31
0.0
  0
LINE
  5
37EB
  8
3
 10
153.7394477042844
 20
142.49162705444709
 30
0.0
 11
153.74846188450871
 21
142.49613414455931
 31
0.0
  0
LINE
  5
37EC
  8
3
 10
153.71691225372351
 20
142.4781057841108
 30
0.0
 11
153.7259264339479
 21
142.48711996433499
 31
0.0
  0
LINE
  5
37ED
  8
3
 10
153.70339098338721
 20
142.4735986939985
 30
0.0
 11
153.71691225372351
 21
142.4781057841108
 31
0.0
  0
LINE
  5
37EE
  8
3
 10
153.6898697130506
 20
142.4690916038864
 30
0.0
 11
153.70339098338721
 21
142.4735986939985
 31
0.0
  0
LINE
  5
37EF
  8
3
 10
153.68085553282631
 20
142.46007742366211
 30
0.0
 11
153.6898697130506
 21
142.4690916038864
 31
0.0
  0
LINE
  5
37F0
  8
3
 10
153.671841352602
 20
142.4555703335499
 30
0.0
 11
153.68085553282631
 21
142.46007742366211
 31
0.0
  0
LINE
  5
37F1
  8
3
 10
153.6628271723778
 20
142.44655615332559
 30
0.0
 11
153.671841352602
 21
142.4555703335499
 31
0.0
  0
LINE
  5
37F2
  8
3
 10
153.64930590204119
 20
142.4375419731013
 30
0.0
 11
153.6628271723778
 21
142.44655615332559
 31
0.0
  0
LINE
  5
37F3
  8
3
 10
153.7259264339479
 20
142.48711996433499
 30
0.0
 11
153.7394477042844
 21
142.49162705444709
 31
0.0
  0
LINE
  5
37F4
  8
3
 10
154.36593322987389
 20
142.6583893885969
 30
0.0
 11
154.43804667166839
 21
142.6583893885969
 31
0.0
  0
LINE
  5
37F5
  8
3
 10
153.79353278563019
 20
142.52317668523219
 30
0.0
 11
153.86113913731259
 21
142.55923340612941
 31
0.0
  0
LINE
  5
37F6
  8
3
 10
154.21719925617279
 20
142.65388229848469
 30
0.0
 11
154.28931269796729
 21
142.6583893885969
 31
0.0
  0
LINE
  5
37F7
  8
3
 10
154.14508581437829
 20
142.64036102814819
 30
0.0
 11
154.21719925617279
 21
142.65388229848469
 31
0.0
  0
LINE
  5
37F8
  8
3
 10
154.06846528247161
 20
142.62683975781189
 30
0.0
 11
154.14508581437829
 21
142.64036102814819
 31
0.0
  0
LINE
  5
37F9
  8
3
 10
154.00085893078941
 20
142.60881139736321
 30
0.0
 11
154.06846528247161
 21
142.62683975781189
 31
0.0
  0
LINE
  5
37FA
  8
3
 10
153.92874548899491
 20
142.5862759468024
 30
0.0
 11
154.00085893078941
 21
142.60881139736321
 31
0.0
  0
LINE
  5
37FB
  8
3
 10
153.86113913731259
 20
142.55923340612941
 30
0.0
 11
153.92874548899491
 21
142.5862759468024
 31
0.0
  0
LINE
  5
37FC
  8
3
 10
154.28931269796729
 20
142.6583893885969
 30
0.0
 11
154.36593322987389
 21
142.6583893885969
 31
0.0
  0
LINE
  5
37FD
  8
3
 10
153.7619831548451
 20
142.50514832478359
 30
0.0
 11
153.7709973350695
 21
142.5096554148958
 31
0.0
  0
LINE
  5
37FE
  8
3
 10
153.7709973350695
 20
142.5096554148958
 30
0.0
 11
153.79353278563019
 21
142.52317668523219
 31
0.0
  0
LINE
  5
37FF
  8
3
 10
153.74846188450871
 20
142.49613414455931
 30
0.0
 11
153.7619831548451
 21
142.50514832478359
 31
0.0
  0
LINE
  5
3800
  8
3
 10
154.5822735552573
 20
142.64036102814819
 30
0.0
 11
154.6588940871639
 21
142.6223326676996
 31
0.0
  0
LINE
  5
3801
  8
3
 10
154.5101601134628
 20
142.64937520837259
 30
0.0
 11
154.5822735552573
 21
142.64036102814819
 31
0.0
  0
LINE
  5
3802
  8
3
 10
154.43804667166839
 20
142.6583893885969
 30
0.0
 11
154.5101601134628
 21
142.64937520837259
 31
0.0
  0
LINE
  5
3803
  8
3
 10
154.05494401213531
 20
141.74345009582939
 30
0.0
 11
154.0504369220231
 21
141.7344359156051
 31
0.0
  0
LINE
  5
3804
  8
3
 10
154.12705745392969
 20
141.7344359156051
 30
0.0
 11
154.12255036381751
 21
141.74345009582939
 31
0.0
  0
LINE
  5
3805
  8
3
 10
153.14000471936771
 20
141.64880120347419
 30
0.0
 11
153.15803307981631
 21
141.72542173538079
 31
0.0
  0
LINE
  5
3806
  8
3
 10
153.11746926880701
 20
141.49556013966091
 30
0.0
 11
153.12648344903121
 21
141.57218067156751
 31
0.0
  0
LINE
  5
3807
  8
3
 10
153.12648344903121
 20
141.57218067156751
 30
0.0
 11
153.14000471936771
 21
141.64880120347419
 31
0.0
  0
LINE
  5
3808
  8
3
 10
153.1129621786948
 20
141.4144325176421
 30
0.0
 11
153.11746926880701
 21
141.49556013966091
 31
0.0
  0
LINE
  5
3809
  8
3
 10
153.23014652161081
 20
141.94176206076429
 30
0.0
 11
153.30676705351749
 21
142.07246767401671
 31
0.0
  0
LINE
  5
380A
  8
3
 10
153.3202883238539
 20
142.0995102146897
 30
0.0
 11
153.33831668430261
 21
142.12204566525051
 31
0.0
  0
LINE
  5
380B
  8
3
 10
153.30676705351749
 20
142.07246767401671
 30
0.0
 11
153.3202883238539
 21
142.0995102146897
 31
0.0
  0
LINE
  5
380C
  8
3
 10
153.1760614402649
 20
141.80204226728739
 30
0.0
 11
153.2031039809379
 21
141.87415570908189
 31
0.0
  0
LINE
  5
380D
  8
3
 10
153.2031039809379
 20
141.87415570908189
 30
0.0
 11
153.23014652161081
 21
141.94176206076429
 31
0.0
  0
LINE
  5
380E
  8
3
 10
153.36986631508771
 20
142.1716236564842
 30
0.0
 11
153.3924017656484
 21
142.1941591070449
 31
0.0
  0
LINE
  5
380F
  8
3
 10
153.35183795463891
 20
142.14458111581121
 30
0.0
 11
153.36986631508771
 21
142.1716236564842
 31
0.0
  0
LINE
  5
3810
  8
3
 10
153.5591640997981
 20
142.3654285313068
 30
0.0
 11
153.58169955035891
 21
142.3834568917554
 31
0.0
  0
LINE
  5
3811
  8
3
 10
153.5366286492374
 20
142.34740017085821
 30
0.0
 11
153.5591640997981
 21
142.3654285313068
 31
0.0
  0
LINE
  5
3812
  8
3
 10
153.51409319867659
 20
142.32937181040961
 30
0.0
 11
153.5366286492374
 21
142.34740017085821
 31
0.0
  0
LINE
  5
3813
  8
3
 10
153.49155774811581
 20
142.3068363598488
 30
0.0
 11
153.51409319867659
 21
142.32937181040961
 31
0.0
  0
LINE
  5
3814
  8
3
 10
153.469022297555
 20
142.28430090928799
 30
0.0
 11
153.49155774811581
 21
142.3068363598488
 31
0.0
  0
LINE
  5
3815
  8
3
 10
153.4509939371064
 20
142.26176545872721
 30
0.0
 11
153.469022297555
 21
142.28430090928799
 31
0.0
  0
LINE
  5
3816
  8
3
 10
153.42845848654559
 20
142.23923000816649
 30
0.0
 11
153.4509939371064
 21
142.26176545872721
 31
0.0
  0
LINE
  5
3817
  8
3
 10
153.41043012609711
 20
142.21669455760571
 30
0.0
 11
153.42845848654559
 21
142.23923000816649
 31
0.0
  0
LINE
  5
3818
  8
3
 10
153.3924017656484
 20
142.1941591070449
 30
0.0
 11
153.41043012609711
 21
142.21669455760571
 31
0.0
  0
LINE
  5
3819
  8
3
 10
153.33831668430261
 20
142.12204566525051
 30
0.0
 11
153.35183795463891
 21
142.14458111581121
 31
0.0
  0
LINE
  5
381A
  8
3
 10
153.63578463170481
 20
142.42402070276481
 30
0.0
 11
153.64479881192909
 21
142.4330348829892
 31
0.0
  0
LINE
  5
381B
  8
3
 10
153.6312775415926
 20
142.41049943242831
 30
0.0
 11
153.63578463170481
 21
142.42402070276481
 31
0.0
  0
LINE
  5
381C
  8
3
 10
153.58169955035891
 20
142.3834568917554
 30
0.0
 11
153.6312775415926
 21
142.41049943242831
 31
0.0
  0
LINE
  5
381D
  8
3
 10
153.15803307981631
 20
141.72542173538079
 30
0.0
 11
153.1760614402649
 21
141.80204226728739
 31
0.0
  0
LINE
  5
381E
  8
3
 10
153.6583200822655
 20
140.55357830622049
 30
0.0
 11
153.613249181144
 21
140.5580853963327
 31
0.0
  0
LINE
  5
381F
  8
3
 10
153.51409319867659
 20
140.36428052151001
 30
0.0
 11
153.6853626229385
 21
140.4138585127437
 31
0.0
  0
LINE
  5
3820
  8
3
 10
154.4019899507712
 20
140.6932980996973
 30
0.0
 11
154.36593322987389
 21
140.6932980996973
 31
0.0
  0
LINE
  5
3821
  8
3
 10
154.13156454404179
 20
140.7473831810432
 30
0.0
 11
154.12705745392969
 21
140.81048244261331
 31
0.0
  0
LINE
  5
3822
  8
3
 10
153.89719585820981
 20
140.80146826238899
 30
0.0
 11
153.901702948322
 21
140.7248477304824
 31
0.0
  0
LINE
  5
3823
  8
3
 10
154.12705745392969
 20
140.87358170418349
 30
0.0
 11
154.12705745392969
 21
140.94118805586581
 31
0.0
  0
LINE
  5
3824
  8
3
 10
154.12705745392969
 20
140.81048244261331
 30
0.0
 11
154.12705745392969
 21
140.87358170418349
 31
0.0
  0
LINE
  5
3825
  8
3
 10
153.8926887680976
 20
140.88710297451999
 30
0.0
 11
153.89719585820981
 21
140.80146826238899
 31
0.0
  0
LINE
  5
3826
  8
3
 10
153.88367458787329
 20
140.51301449521111
 30
0.0
 11
153.84761786697601
 21
140.52202867543539
 31
0.0
  0
LINE
  5
3827
  8
3
 10
153.6853626229385
 20
140.4138585127437
 30
0.0
 11
153.85663204720029
 21
140.45442232375311
 31
0.0
  0
LINE
  5
3828
  8
3
 10
153.84761786697601
 20
140.52202867543539
 30
0.0
 11
153.8115611460789
 21
140.52653576554761
 31
0.0
  0
LINE
  5
3829
  8
3
 10
153.77550442518159
 20
140.53554994577189
 30
0.0
 11
153.7394477042844
 21
140.54005703588399
 31
0.0
  0
LINE
  5
382A
  8
3
 10
153.698883893275
 20
140.5445641259962
 30
0.0
 11
153.6583200822655
 21
140.55357830622049
 31
0.0
  0
LINE
  5
382B
  8
3
 10
153.7394477042844
 20
140.54005703588399
 30
0.0
 11
153.698883893275
 21
140.5445641259962
 31
0.0
  0
LINE
  5
382C
  8
3
 10
153.8115611460789
 20
140.52653576554761
 30
0.0
 11
153.77550442518159
 21
140.53554994577189
 31
0.0
  0
LINE
  5
382D
  8
3
 10
153.9062100384341
 20
140.6527342886879
 30
0.0
 11
153.9107171285462
 21
140.58963502711771
 31
0.0
  0
LINE
  5
382E
  8
3
 10
154.13607163415389
 20
140.68428391947299
 30
0.0
 11
154.13156454404179
 21
140.7473831810432
 31
0.0
  0
LINE
  5
382F
  8
3
 10
154.19917089572419
 20
140.6932980996973
 30
0.0
 11
154.13607163415389
 21
140.68428391947299
 31
0.0
  0
LINE
  5
3830
  8
3
 10
154.23072052650929
 20
140.6932980996973
 30
0.0
 11
154.19917089572419
 21
140.6932980996973
 31
0.0
  0
LINE
  5
3831
  8
3
 10
154.26227015729441
 20
140.6932980996973
 30
0.0
 11
154.23072052650929
 21
140.6932980996973
 31
0.0
  0
LINE
  5
3832
  8
3
 10
154.2983268781916
 20
140.6932980996973
 30
0.0
 11
154.26227015729441
 21
140.6932980996973
 31
0.0
  0
LINE
  5
3833
  8
3
 10
154.3343835990888
 20
140.6932980996973
 30
0.0
 11
154.2983268781916
 21
140.6932980996973
 31
0.0
  0
LINE
  5
3834
  8
3
 10
153.901702948322
 20
140.7248477304824
 30
0.0
 11
153.9062100384341
 21
140.6527342886879
 31
0.0
  0
LINE
  5
3835
  8
3
 10
154.02790147146229
 20
140.48146486442599
 30
0.0
 11
154.19917089572419
 21
140.49949322487461
 31
0.0
  0
LINE
  5
3836
  8
3
 10
153.91522421865841
 20
140.49949322487461
 30
0.0
 11
153.88367458787329
 21
140.51301449521111
 31
0.0
  0
LINE
  5
3837
  8
3
 10
153.9107171285462
 20
140.58963502711771
 30
0.0
 11
153.91522421865841
 21
140.49949322487461
 31
0.0
  0
LINE
  5
3838
  8
3
 10
153.85663204720029
 20
140.45442232375311
 30
0.0
 11
154.02790147146229
 21
140.48146486442599
 31
0.0
  0
LINE
  5
3839
  8
3
 10
154.36593322987389
 20
140.6932980996973
 30
0.0
 11
154.3343835990888
 21
140.6932980996973
 31
0.0
  0
LINE
  5
383A
  8
3
 10
154.19917089572419
 20
140.49949322487461
 30
0.0
 11
154.3749474100982
 21
140.5085074050989
 31
0.0
  0
LINE
  5
383B
  8
3
 10
154.4335395815562
 20
140.6932980996973
 30
0.0
 11
154.4019899507712
 21
140.6932980996973
 31
0.0
  0
LINE
  5
383C
  8
3
 10
154.46959630245351
 20
140.6932980996973
 30
0.0
 11
154.4335395815562
 21
140.6932980996973
 31
0.0
  0
LINE
  5
383D
  8
3
 10
154.12705745392969
 20
141.004287317436
 30
0.0
 11
154.12705745392969
 21
141.07189366911831
 31
0.0
  0
LINE
  5
383E
  8
3
 10
153.8881816779855
 20
141.06738657900621
 30
0.0
 11
153.8881816779855
 21
140.97724477676309
 31
0.0
  0
LINE
  5
383F
  8
3
 10
154.12705745392969
 20
141.27471272416531
 30
0.0
 11
154.13156454404179
 21
141.34231907584771
 31
0.0
  0
LINE
  5
3840
  8
3
 10
154.12705745392969
 20
141.207106372483
 30
0.0
 11
154.12705745392969
 21
141.27471272416531
 31
0.0
  0
LINE
  5
3841
  8
3
 10
154.12705745392969
 20
141.1395000208006
 30
0.0
 11
154.12705745392969
 21
141.207106372483
 31
0.0
  0
LINE
  5
3842
  8
3
 10
153.8926887680976
 20
141.25668436371669
 30
0.0
 11
153.8881816779855
 21
141.16203547136141
 31
0.0
  0
LINE
  5
3843
  8
3
 10
153.901702948322
 20
141.34682616595981
 30
0.0
 11
153.8926887680976
 21
141.25668436371669
 31
0.0
  0
LINE
  5
3844
  8
3
 10
154.12705745392969
 20
141.07189366911831
 30
0.0
 11
154.12705745392969
 21
141.1395000208006
 31
0.0
  0
LINE
  5
3845
  8
3
 10
153.8881816779855
 20
141.16203547136141
 30
0.0
 11
153.8881816779855
 21
141.06738657900621
 31
0.0
  0
LINE
  5
3846
  8
3
 10
154.12705745392969
 20
140.94118805586581
 30
0.0
 11
154.12705745392969
 21
141.004287317436
 31
0.0
  0
LINE
  5
3847
  8
3
 10
153.8881816779855
 20
140.97724477676309
 30
0.0
 11
153.8926887680976
 21
140.88710297451999
 31
0.0
  0
LINE
  5
3848
  8
3
 10
154.5372026541358
 20
140.6978051898094
 30
0.0
 11
154.5011459332386
 21
140.6932980996973
 31
0.0
  0
LINE
  5
3849
  8
3
 10
154.56875228492089
 20
140.6978051898094
 30
0.0
 11
154.5372026541358
 21
140.6978051898094
 31
0.0
  0
LINE
  5
384A
  8
3
 10
154.6003019157059
 20
140.70231227992161
 30
0.0
 11
154.56875228492089
 21
140.6978051898094
 31
0.0
  0
LINE
  5
384B
  8
3
 10
154.63185154649111
 20
140.7113264601459
 30
0.0
 11
154.6003019157059
 21
140.70231227992161
 31
0.0
  0
LINE
  5
384C
  8
3
 10
154.66340117727611
 20
140.71583355025811
 30
0.0
 11
154.63185154649111
 21
140.7113264601459
 31
0.0
  0
LINE
  5
384D
  8
3
 10
154.3749474100982
 20
140.5085074050989
 30
0.0
 11
154.55072392447229
 21
140.51301449521111
 31
0.0
  0
LINE
  5
384E
  8
3
 10
154.5011459332386
 20
140.6932980996973
 30
0.0
 11
154.46959630245351
 21
140.6932980996973
 31
0.0
  0
LINE
  5
384F
  8
3
 10
153.15352598970421
 20
140.2065323675846
 30
0.0
 11
153.15803307981631
 21
140.2110394576967
 31
0.0
  0
LINE
  5
3850
  8
3
 10
153.15352598970421
 20
140.20202527747239
 30
0.0
 11
153.15352598970421
 21
140.2065323675846
 31
0.0
  0
LINE
  5
3851
  8
3
 10
153.15352598970421
 20
140.19751818736029
 30
0.0
 11
153.15352598970421
 21
140.20202527747239
 31
0.0
  0
LINE
  5
3852
  8
3
 10
153.15352598970421
 20
140.1930110972481
 30
0.0
 11
153.15352598970421
 21
140.19751818736029
 31
0.0
  0
LINE
  5
3853
  8
3
 10
153.14901889959211
 20
140.1930110972481
 30
0.0
 11
153.15352598970421
 21
140.1930110972481
 31
0.0
  0
LINE
  5
3854
  8
3
 10
153.14901889959211
 20
140.188504007136
 30
0.0
 11
153.14901889959211
 21
140.1930110972481
 31
0.0
  0
LINE
  5
3855
  8
3
 10
153.14901889959211
 20
140.18399691702379
 30
0.0
 11
153.14901889959211
 21
140.188504007136
 31
0.0
  0
LINE
  5
3856
  8
3
 10
153.14901889959211
 20
140.17948982691161
 30
0.0
 11
153.14901889959211
 21
140.18399691702379
 31
0.0
  0
LINE
  5
3857
  8
3
 10
153.14000471936771
 20
140.17948982691161
 30
0.0
 11
153.14901889959211
 21
140.17948982691161
 31
0.0
  0
LINE
  5
3858
  8
3
 10
153.13549762925561
 20
140.17948982691161
 30
0.0
 11
153.14000471936771
 21
140.17948982691161
 31
0.0
  0
LINE
  5
3859
  8
3
 10
153.1309905391434
 20
140.17498273679951
 30
0.0
 11
153.13549762925561
 21
140.17948982691161
 31
0.0
  0
LINE
  5
385A
  8
3
 10
153.12648344903121
 20
140.17498273679951
 30
0.0
 11
153.1309905391434
 21
140.17498273679951
 31
0.0
  0
LINE
  5
385B
  8
3
 10
153.12197635891911
 20
140.17047564668729
 30
0.0
 11
153.12648344903121
 21
140.17498273679951
 31
0.0
  0
LINE
  5
385C
  8
3
 10
153.11746926880701
 20
140.17047564668729
 30
0.0
 11
153.12197635891911
 21
140.17047564668729
 31
0.0
  0
LINE
  5
385D
  8
3
 10
153.1129621786948
 20
140.17047564668729
 30
0.0
 11
153.11746926880701
 21
140.17047564668729
 31
0.0
  0
LINE
  5
385E
  8
3
 10
153.1084550885827
 20
140.16596855657519
 30
0.0
 11
153.1129621786948
 21
140.17047564668729
 31
0.0
  0
LINE
  5
385F
  8
3
 10
153.1084550885827
 20
140.16146146646301
 30
0.0
 11
153.1084550885827
 21
140.16596855657519
 31
0.0
  0
LINE
  5
3860
  8
3
 10
153.13549762925561
 20
140.7834399019404
 30
0.0
 11
153.1309905391434
 21
140.80146826238899
 31
0.0
  0
LINE
  5
3861
  8
3
 10
153.1309905391434
 20
140.80146826238899
 30
0.0
 11
153.12197635891911
 21
140.8194966228377
 31
0.0
  0
LINE
  5
3862
  8
3
 10
153.11746926880701
 20
140.85104625362271
 30
0.0
 11
153.1129621786948
 21
140.93217387564161
 31
0.0
  0
LINE
  5
3863
  8
3
 10
153.12197635891911
 20
140.8194966228377
 30
0.0
 11
153.11746926880701
 21
140.85104625362271
 31
0.0
  0
LINE
  5
3864
  8
3
 10
153.26620324250811
 20
140.62569174801499
 30
0.0
 11
153.24817488205949
 21
140.6347059282393
 31
0.0
  0
LINE
  5
3865
  8
3
 10
153.14451180947989
 20
140.7654115414918
 30
0.0
 11
153.13549762925561
 21
140.7834399019404
 31
0.0
  0
LINE
  5
3866
  8
3
 10
153.15352598970421
 20
140.7473831810432
 30
0.0
 11
153.14451180947989
 21
140.7654115414918
 31
0.0
  0
LINE
  5
3867
  8
3
 10
153.16254016992849
 20
140.72935482059449
 30
0.0
 11
153.15352598970421
 21
140.7473831810432
 31
0.0
  0
LINE
  5
3868
  8
3
 10
153.1715543501528
 20
140.71583355025811
 30
0.0
 11
153.16254016992849
 21
140.72935482059449
 31
0.0
  0
LINE
  5
3869
  8
3
 10
153.18056853037709
 20
140.6978051898094
 30
0.0
 11
153.1715543501528
 21
140.71583355025811
 31
0.0
  0
LINE
  5
386A
  8
3
 10
153.19408980071361
 20
140.68428391947299
 30
0.0
 11
153.18056853037709
 21
140.6978051898094
 31
0.0
  0
LINE
  5
386B
  8
3
 10
153.20761107105
 20
140.67076264913649
 30
0.0
 11
153.19408980071361
 21
140.68428391947299
 31
0.0
  0
LINE
  5
386C
  8
3
 10
153.22113234138661
 20
140.65724137880011
 30
0.0
 11
153.20761107105
 21
140.67076264913649
 31
0.0
  0
LINE
  5
386D
  8
3
 10
153.23465361172299
 20
140.64372010846361
 30
0.0
 11
153.22113234138661
 21
140.65724137880011
 31
0.0
  0
LINE
  5
386E
  8
3
 10
153.24817488205949
 20
140.6347059282393
 30
0.0
 11
153.23465361172299
 21
140.64372010846361
 31
0.0
  0
LINE
  5
386F
  8
3
 10
153.33831668430261
 20
140.29667416982761
 30
0.0
 11
153.51409319867659
 21
140.36428052151001
 31
0.0
  0
LINE
  5
3870
  8
3
 10
153.28423160295671
 20
140.61217047767849
 30
0.0
 11
153.26620324250811
 21
140.62569174801499
 31
0.0
  0
LINE
  5
3871
  8
3
 10
153.36085213486331
 20
140.59414211722989
 30
0.0
 11
153.28423160295671
 21
140.61217047767849
 31
0.0
  0
LINE
  5
3872
  8
3
 10
153.4014159458728
 20
140.58512793700561
 30
0.0
 11
153.36085213486331
 21
140.59414211722989
 31
0.0
  0
LINE
  5
3873
  8
3
 10
153.44197975688209
 20
140.5806208468934
 30
0.0
 11
153.4014159458728
 21
140.58512793700561
 31
0.0
  0
LINE
  5
3874
  8
3
 10
153.48705065800371
 20
140.57160666666911
 30
0.0
 11
153.44197975688209
 21
140.5806208468934
 31
0.0
  0
LINE
  5
3875
  8
3
 10
153.52761446901309
 20
140.56709957655701
 30
0.0
 11
153.48705065800371
 21
140.57160666666911
 31
0.0
  0
LINE
  5
3876
  8
3
 10
153.57268537013459
 20
140.5625924864448
 30
0.0
 11
153.52761446901309
 21
140.56709957655701
 31
0.0
  0
LINE
  5
3877
  8
3
 10
153.613249181144
 20
140.5580853963327
 30
0.0
 11
153.57268537013459
 21
140.5625924864448
 31
0.0
  0
LINE
  5
3878
  8
3
 10
153.1084550885827
 20
141.01330149766031
 30
0.0
 11
153.1084550885827
 21
141.09442911967909
 31
0.0
  0
LINE
  5
3879
  8
3
 10
153.10394799847049
 20
141.2521772736045
 30
0.0
 11
153.1084550885827
 21
141.33330489562329
 31
0.0
  0
LINE
  5
387A
  8
3
 10
153.10394799847049
 20
141.1755567416979
 30
0.0
 11
153.10394799847049
 21
141.2521772736045
 31
0.0
  0
LINE
  5
387B
  8
3
 10
153.1084550885827
 20
141.09442911967909
 30
0.0
 11
153.10394799847049
 21
141.1755567416979
 31
0.0
  0
LINE
  5
387C
  8
3
 10
153.1129621786948
 20
140.93217387564161
 30
0.0
 11
153.1084550885827
 21
141.01330149766031
 31
0.0
  0
LINE
  5
387D
  8
3
 10
153.15803307981631
 20
140.2110394576967
 30
0.0
 11
153.33831668430261
 21
140.29667416982761
 31
0.0
  0
LINE
  5
387E
  8
3
 10
154.67241535750051
 20
141.7073933749322
 30
0.0
 11
154.66790826738841
 21
141.7073933749322
 31
0.0
  0
LINE
  5
387F
  8
3
 10
154.6588940871639
 20
142.6223326676996
 30
0.0
 11
154.7265004388463
 21
142.60430430725111
 31
0.0
  0
LINE
  5
3880
  8
3
 10
154.55072392447229
 20
140.51301449521111
 30
0.0
 11
154.74002170918271
 21
140.5085074050989
 31
0.0
  0
LINE
  5
3881
  8
3
 10
155.61890428105301
 20
141.4504892385394
 30
0.0
 11
155.62341137116519
 21
140.6166775677907
 31
0.0
  0
LINE
  5
3882
  8
3
 10
155.5918617403801
 20
141.67133665403489
 30
0.0
 11
155.5963688304922
 21
141.64880120347419
 31
0.0
  0
LINE
  5
3883
  8
3
 10
155.58735465026791
 20
141.69837919470791
 30
0.0
 11
155.5918617403801
 21
141.67133665403489
 31
0.0
  0
LINE
  5
3884
  8
3
 10
155.5828475601557
 20
141.72091464526869
 30
0.0
 11
155.58735465026791
 21
141.69837919470791
 31
0.0
  0
LINE
  5
3885
  8
3
 10
155.61890428105301
 20
141.4504892385394
 30
0.0
 11
155.61890428105301
 21
141.4504892385394
 31
0.0
  0
LINE
  5
3886
  8
3
 10
155.61439719094079
 20
141.51809559022161
 30
0.0
 11
155.61439719094079
 21
141.49556013966091
 31
0.0
  0
LINE
  5
3887
  8
3
 10
155.60989010082869
 20
141.5406310407825
 30
0.0
 11
155.61439719094079
 21
141.51809559022161
 31
0.0
  0
LINE
  5
3888
  8
3
 10
155.60538301071651
 20
141.5586594012311
 30
0.0
 11
155.60989010082869
 21
141.5406310407825
 31
0.0
  0
LINE
  5
3889
  8
3
 10
155.60538301071651
 20
141.58119485179179
 30
0.0
 11
155.60538301071651
 21
141.5586594012311
 31
0.0
  0
LINE
  5
388A
  8
3
 10
155.60087592060441
 20
141.6037303023526
 30
0.0
 11
155.60538301071651
 21
141.58119485179179
 31
0.0
  0
LINE
  5
388B
  8
3
 10
155.5963688304922
 20
141.62626575291341
 30
0.0
 11
155.60087592060441
 21
141.6037303023526
 31
0.0
  0
LINE
  5
388C
  8
3
 10
155.5963688304922
 20
141.64880120347419
 30
0.0
 11
155.5963688304922
 21
141.62626575291341
 31
0.0
  0
LINE
  5
388D
  8
3
 10
155.61439719094079
 20
141.49556013966091
 30
0.0
 11
155.61890428105301
 21
141.4504892385394
 31
0.0
  0
LINE
  5
388E
  8
3
 10
155.32594342376291
 20
142.20768037738139
 30
0.0
 11
155.33495760398731
 21
142.1941591070449
 31
0.0
  0
LINE
  5
388F
  8
3
 10
155.30791506331431
 20
142.23021582794209
 30
0.0
 11
155.3169292435386
 21
142.21669455760571
 31
0.0
  0
LINE
  5
3890
  8
3
 10
155.29890088309
 20
142.24373709827859
 30
0.0
 11
155.30791506331431
 21
142.23021582794209
 31
0.0
  0
LINE
  5
3891
  8
3
 10
155.28988670286569
 20
142.25725836861511
 30
0.0
 11
155.29890088309
 21
142.24373709827859
 31
0.0
  0
LINE
  5
3892
  8
3
 10
155.3169292435386
 20
142.21669455760571
 30
0.0
 11
155.32594342376291
 21
142.20768037738139
 31
0.0
  0
LINE
  5
3893
  8
3
 10
155.46115612712759
 20
142.00936841244661
 30
0.0
 11
155.47017030735191
 21
141.99584714211011
 31
0.0
  0
LINE
  5
3894
  8
3
 10
155.44763485679121
 20
142.03641095311951
 30
0.0
 11
155.45214194690331
 21
142.02288968278299
 31
0.0
  0
LINE
  5
3895
  8
3
 10
155.4296064963425
 20
142.07246767401671
 30
0.0
 11
155.44763485679121
 21
142.03641095311951
 31
0.0
  0
LINE
  5
3896
  8
3
 10
155.416085226006
 20
142.0859889443532
 30
0.0
 11
155.4296064963425
 21
142.07246767401671
 31
0.0
  0
LINE
  5
3897
  8
3
 10
155.40707104578169
 20
142.1040173048018
 30
0.0
 11
155.416085226006
 21
142.0859889443532
 31
0.0
  0
LINE
  5
3898
  8
3
 10
155.39805686555741
 20
142.1175385751383
 30
0.0
 11
155.40707104578169
 21
142.1040173048018
 31
0.0
  0
LINE
  5
3899
  8
3
 10
155.3890426853331
 20
142.13105984547479
 30
0.0
 11
155.39805686555741
 21
142.1175385751383
 31
0.0
  0
LINE
  5
389A
  8
3
 10
155.45214194690331
 20
142.02288968278299
 30
0.0
 11
155.46115612712759
 21
142.00936841244661
 31
0.0
  0
LINE
  5
389B
  8
3
 10
155.5738333799315
 20
141.7659855463902
 30
0.0
 11
155.5783404700436
 21
141.74345009582939
 31
0.0
  0
LINE
  5
389C
  8
3
 10
155.56932628981929
 20
141.78852099695101
 30
0.0
 11
155.5738333799315
 21
141.7659855463902
 31
0.0
  0
LINE
  5
389D
  8
3
 10
155.5648191997071
 20
141.8110564475117
 30
0.0
 11
155.56932628981929
 21
141.78852099695101
 31
0.0
  0
LINE
  5
389E
  8
3
 10
155.54679083925851
 20
141.8380989881847
 30
0.0
 11
155.5648191997071
 21
141.8110564475117
 31
0.0
  0
LINE
  5
389F
  8
3
 10
155.53777665903419
 20
141.85162025852111
 30
0.0
 11
155.54679083925851
 21
141.8380989881847
 31
0.0
  0
LINE
  5
38A0
  8
3
 10
155.52876247880991
 20
141.86514152885761
 30
0.0
 11
155.53777665903419
 21
141.85162025852111
 31
0.0
  0
LINE
  5
38A1
  8
3
 10
155.52425538869781
 20
141.8786627991941
 30
0.0
 11
155.52876247880991
 21
141.86514152885761
 31
0.0
  0
LINE
  5
38A2
  8
3
 10
155.51524120847341
 20
141.89218406953049
 30
0.0
 11
155.52425538869781
 21
141.8786627991941
 31
0.0
  0
LINE
  5
38A3
  8
3
 10
155.51073411836131
 20
141.9102124299792
 30
0.0
 11
155.51524120847341
 21
141.89218406953049
 31
0.0
  0
LINE
  5
38A4
  8
3
 10
155.5062270282491
 20
141.92373370031561
 30
0.0
 11
155.51073411836131
 21
141.9102124299792
 31
0.0
  0
LINE
  5
38A5
  8
3
 10
155.49270575791269
 20
141.9507762409886
 30
0.0
 11
155.49721284802479
 21
141.93725497065211
 31
0.0
  0
LINE
  5
38A6
  8
3
 10
155.4836915776884
 20
141.96429751132499
 30
0.0
 11
155.49270575791269
 21
141.9507762409886
 31
0.0
  0
LINE
  5
38A7
  8
3
 10
155.47918448757611
 20
141.98232587177361
 30
0.0
 11
155.4836915776884
 21
141.96429751132499
 31
0.0
  0
LINE
  5
38A8
  8
3
 10
155.47017030735191
 20
141.99584714211011
 30
0.0
 11
155.47918448757611
 21
141.98232587177361
 31
0.0
  0
LINE
  5
38A9
  8
3
 10
155.49721284802479
 20
141.93725497065211
 30
0.0
 11
155.5062270282491
 21
141.92373370031561
 31
0.0
  0
LINE
  5
38AA
  8
3
 10
155.36650723477231
 20
142.15359529603549
 30
0.0
 11
155.38002850510881
 21
142.14458111581121
 31
0.0
  0
LINE
  5
38AB
  8
3
 10
155.357493054548
 20
142.16711656637199
 30
0.0
 11
155.36650723477231
 21
142.15359529603549
 31
0.0
  0
LINE
  5
38AC
  8
3
 10
155.34847887432369
 20
142.18063783670851
 30
0.0
 11
155.357493054548
 21
142.16711656637199
 31
0.0
  0
LINE
  5
38AD
  8
3
 10
155.38002850510881
 20
142.14458111581121
 30
0.0
 11
155.3890426853331
 21
142.13105984547479
 31
0.0
  0
LINE
  5
38AE
  8
3
 10
155.33495760398731
 20
142.1941591070449
 30
0.0
 11
155.34847887432369
 21
142.18063783670851
 31
0.0
  0
LINE
  5
38AF
  8
3
 10
155.5783404700436
 20
141.74345009582939
 30
0.0
 11
155.5828475601557
 21
141.72091464526869
 31
0.0
  0
LINE
  5
38B0
  8
3
 10
155.34847887432369
 20
140.4904790446503
 30
0.0
 11
155.46115612712751
 21
140.48822549959419
 31
0.0
  0
LINE
  5
38B1
  8
3
 10
155.46115612712759
 20
140.48822549959419
 30
0.0
 11
156.35849767315139
 21
140.50280830492619
 31
0.0
  0
LINE
  5
38B2
  8
0
 10
174.93421191244309
 20
153.3473075460534
 30
0.0
 11
174.93421191244309
 21
156.85355754605351
 31
0.0
  0
LINE
  5
38B3
  8
0
 10
178.99671191244309
 20
152.7379325460534
 30
0.0
 11
178.99671191244309
 21
157.8629325460534
 31
0.0
  0
LINE
  5
38B4
  8
0
 10
159.059211912443
 20
157.46293254605339
 30
0.0
 11
159.05921191244309
 21
152.7379325460534
 31
0.0
  0
LINE
  5
38B5
  8
1
 10
182.55921191244309
 20
156.9129325460535
 30
0.0
 11
182.55921191244309
 21
144.4129325460535
 31
0.0
  0
LINE
  5
38B6
  8
0
 10
159.05921191244309
 20
152.7379325460534
 30
0.0
 11
181.06379397494311
 21
152.7379325460534
 31
0.0
  0
LINE
  5
38B7
  8
0
 10
159.059211912443
 20
147.8629325460534
 30
0.0
 11
181.06379397494311
 21
147.86293254605349
 31
0.0
  0
LINE
  5
38B8
  8
0
 10
159.05921191244309
 20
142.9879325460534
 30
0.0
 11
181.06379397494311
 21
142.9879325460534
 31
0.0
  0
LINE
  5
38B9
  8
0
 10
159.059211912443
 20
138.1129325460534
 30
0.0
 11
181.06379397494311
 21
138.1129325460534
 31
0.0
  0
LINE
  5
38BA
  8
0
 10
159.059211912443
 20
147.8629325460534
 30
0.0
 11
159.059211912443
 21
142.98793254605349
 31
0.0
  0
LINE
  5
38BB
  8
0
 10
165.18421191244309
 20
138.7223075460534
 30
0.0
 11
165.18421191244309
 21
142.3785575460534
 31
0.0
  0
LINE
  5
38BC
  8
0
 10
161.12171191244309
 20
138.1129325460534
 30
0.0
 11
161.12171191244309
 21
142.9879325460534
 31
0.0
  0
ARC
  5
38BD
  8
0
 10
165.79358691244309
 20
138.7223075460534
 30
0.0
 40
0.609375
 50
180.0
 51
270.0
  0
ARC
  5
38BE
  8
0
 10
165.79358691244309
 20
142.3785575460534
 30
0.0
 40
0.609375
 50
90.0
 51
180.0
  0
LINE
  5
38BF
  8
0
 10
165.18421191244309
 20
148.4723075460534
 30
0.0
 11
165.18421191244309
 21
152.1285575460534
 31
0.0
  0
LINE
  5
38C0
  8
0
 10
161.12171191244309
 20
147.8629325460534
 30
0.0
 11
161.1217119124434
 21
152.7379325460534
 31
0.0
  0
ARC
  5
38C1
  8
0
 10
165.79358691244309
 20
148.4723075460534
 30
0.0
 40
0.609375
 50
180.0
 51
270.0
  0
ARC
  5
38C2
  8
0
 10
165.79358691244309
 20
152.1285575460534
 30
0.0
 40
0.609375
 50
90.0
 51
180.0
  0
LINE
  5
38C3
  8
0
 10
178.99671191244309
 20
142.9879325460534
 30
0.0
 11
178.99671191244309
 21
147.8629325460534
 31
0.0
  0
LINE
  5
38C4
  8
0
 10
174.93421191244309
 20
143.5973075460534
 30
0.0
 11
174.93421191244309
 21
147.2535575460534
 31
0.0
  0
ARC
  5
38C5
  8
0
 10
174.32483691244309
 20
137.5035575460534
 30
0.0
 40
0.609375
 50
0.0
 51
90.0
  0
ARC
  5
38C6
  8
0
 10
174.32483691244309
 20
143.5973075460534
 30
0.0
 40
0.609375
 50
270.0
 51
0.0
  0
LINE
  5
38C7
  8
3
 10
186.01840891162951
 20
139.91345858142441
 30
0.0
 11
186.0770010830874
 21
139.92247276164869
 31
0.0
  0
LINE
  5
38C8
  8
3
 10
186.2437634172372
 20
139.92697985176079
 30
0.0
 11
186.30235558869521
 21
139.91796567153651
 31
0.0
  0
LINE
  5
38C9
  8
0
 10
181.06379397494311
 20
138.1129325460534
 30
0.0
 11
181.06379397494311
 21
142.9879325460534
 31
0.0
  0
LINE
  5
38CA
  8
3
 10
184.5671258955156
 20
139.8909231308636
 30
0.0
 11
184.5671258955156
 21
139.92247276164869
 31
0.0
  0
LINE
  5
38CB
  8
3
 10
185.3693879354791
 20
139.94050112209729
 30
0.0
 11
185.36488084536691
 21
139.91345858142441
 31
0.0
  0
LINE
  5
38CC
  8
3
 10
184.65726769775861
 20
135.73763959251269
 30
0.0
 11
183.7599261517347
 21
135.7230567871807
 31
0.0
  0
LINE
  5
38CD
  8
3
 10
184.49501245372099
 20
135.6091875243163
 30
0.0
 11
185.2747390431239
 21
135.60017334409201
 31
0.0
  0
LINE
  5
38CE
  8
3
 10
184.4589557328238
 20
136.5331409973081
 30
0.0
 11
184.6437464274222
 21
136.53764808742031
 31
0.0
  0
LINE
  5
38CF
  8
3
 10
184.5716329856277
 20
137.7906191385994
 30
0.0
 11
184.5671258955156
 21
137.7951262287115
 31
0.0
  0
LINE
  5
38D0
  8
3
 10
184.5986755263005
 20
137.61934971433749
 30
0.0
 11
184.5671258955156
 21
137.75456241770209
 31
0.0
  0
LINE
  5
38D1
  8
3
 10
184.5671258955156
 20
137.75456241770209
 30
0.0
 11
184.5716329856277
 21
137.75906950781419
 31
0.0
  0
LINE
  5
38D2
  8
3
 10
184.55811171529109
 20
138.69203716103041
 30
0.0
 11
184.60768970652489
 21
138.69654425114251
 31
0.0
  0
LINE
  5
38D3
  8
3
 10
184.5941684361884
 20
139.51232756144259
 30
0.0
 11
184.5671258955156
 21
139.61599063402221
 31
0.0
  0
LINE
  5
38D4
  8
3
 10
184.50402663394539
 20
134.73030495244609
 30
0.0
 11
184.4995195438332
 21
134.7753758535676
 31
0.0
  0
LINE
  5
38D5
  8
3
 10
184.5220549943939
 20
134.57706388863281
 30
0.0
 11
184.5220549943939
 21
134.59959933919359
 31
0.0
  0
LINE
  5
38D6
  8
3
 10
184.5220549943939
 20
134.59959933919359
 30
0.0
 11
184.5175479042818
 21
134.6221347897544
 31
0.0
  0
LINE
  5
38D7
  8
3
 10
184.5175479042818
 20
134.6221347897544
 30
0.0
 11
184.51304081416961
 21
134.64467024031521
 31
0.0
  0
LINE
  5
38D8
  8
3
 10
184.51304081416961
 20
134.64467024031521
 30
0.0
 11
184.51304081416961
 21
134.6672056908759
 31
0.0
  0
LINE
  5
38D9
  8
3
 10
184.51304081416961
 20
134.6672056908759
 30
0.0
 11
184.50853372405749
 21
134.6852340513245
 31
0.0
  0
LINE
  5
38DA
  8
3
 10
184.50853372405749
 20
134.6852340513245
 30
0.0
 11
184.50402663394539
 21
134.70776950188531
 31
0.0
  0
LINE
  5
38DB
  8
3
 10
184.50402663394539
 20
134.70776950188531
 30
0.0
 11
184.50402663394539
 21
134.73030495244609
 31
0.0
  0
LINE
  5
38DC
  8
3
 10
184.4995195438332
 20
134.7753758535676
 30
0.0
 11
184.4995195438332
 21
134.7753758535676
 31
0.0
  0
LINE
  5
38DD
  8
3
 10
184.53557626473051
 20
134.50495044683831
 30
0.0
 11
184.5310691746183
 21
134.52748589739909
 31
0.0
  0
LINE
  5
38DE
  8
3
 10
184.5310691746183
 20
134.52748589739909
 30
0.0
 11
184.52656208450611
 21
134.554528438072
 31
0.0
  0
LINE
  5
38DF
  8
3
 10
184.52656208450611
 20
134.554528438072
 30
0.0
 11
184.5220549943939
 21
134.57706388863281
 31
0.0
  0
LINE
  5
38E0
  8
3
 10
184.4995195438332
 20
134.7753758535676
 30
0.0
 11
184.49501245372099
 21
135.6091875243163
 31
0.0
  0
LINE
  5
38E1
  8
3
 10
183.7599261517347
 20
136.52863390719591
 30
0.0
 11
183.7599261517347
 21
135.7230567871807
 31
0.0
  0
LINE
  5
38E2
  8
3
 10
183.7599261517347
 20
136.52863390719591
 30
0.0
 11
183.91316721554799
 21
136.52863390719591
 31
0.0
  0
LINE
  5
38E3
  8
3
 10
183.91316721554799
 20
136.52863390719591
 30
0.0
 11
184.1028956139636
 21
136.5331409973081
 31
0.0
  0
LINE
  5
38E4
  8
3
 10
184.2741650382255
 20
136.5331409973081
 30
0.0
 11
184.4589557328238
 21
136.5331409973081
 31
0.0
  0
LINE
  5
38E5
  8
3
 10
184.1028956139636
 20
136.5331409973081
 30
0.0
 11
184.2741650382255
 21
136.5331409973081
 31
0.0
  0
LINE
  5
38E6
  8
3
 10
184.55811171529109
 20
137.82667585949659
 30
0.0
 11
184.55811171529109
 21
138.69203716103041
 31
0.0
  0
LINE
  5
38E7
  8
3
 10
184.56261880540339
 20
137.80864749904799
 30
0.0
 11
184.56261880540339
 21
137.81315458916009
 31
0.0
  0
LINE
  5
38E8
  8
3
 10
184.56261880540339
 20
137.81315458916009
 30
0.0
 11
184.56261880540339
 21
137.81766167927231
 31
0.0
  0
LINE
  5
38E9
  8
3
 10
184.56261880540339
 20
137.81766167927231
 30
0.0
 11
184.55811171529109
 21
137.82667585949659
 31
0.0
  0
LINE
  5
38EA
  8
3
 10
184.55811171529109
 20
137.82667585949659
 30
0.0
 11
184.55811171529109
 21
137.82667585949659
 31
0.0
  0
LINE
  5
38EB
  8
3
 10
184.56261880540339
 20
137.80414040893581
 30
0.0
 11
184.56261880540339
 21
137.80864749904799
 31
0.0
  0
LINE
  5
38EC
  8
3
 10
184.5671258955156
 20
137.7951262287115
 30
0.0
 11
184.5671258955156
 21
137.7996333188236
 31
0.0
  0
LINE
  5
38ED
  8
3
 10
184.5671258955156
 20
137.7996333188236
 30
0.0
 11
184.5671258955156
 21
137.80414040893581
 31
0.0
  0
LINE
  5
38EE
  8
3
 10
184.5671258955156
 20
137.80414040893581
 30
0.0
 11
184.56261880540339
 21
137.80414040893581
 31
0.0
  0
LINE
  5
38EF
  8
3
 10
184.5671258955156
 20
139.8007813286205
 30
0.0
 11
184.5671258955156
 21
139.8323309594056
 31
0.0
  0
LINE
  5
38F0
  8
3
 10
184.5671258955156
 20
139.6745828054801
 30
0.0
 11
184.5671258955156
 21
139.70613243626519
 31
0.0
  0
LINE
  5
38F1
  8
3
 10
184.5671258955156
 20
139.61599063402221
 30
0.0
 11
184.5671258955156
 21
139.64303317469501
 31
0.0
  0
LINE
  5
38F2
  8
3
 10
184.5671258955156
 20
139.64303317469501
 30
0.0
 11
184.5671258955156
 21
139.6745828054801
 31
0.0
  0
LINE
  5
38F3
  8
3
 10
184.5671258955156
 20
139.70613243626519
 30
0.0
 11
184.5671258955156
 21
139.73768206705029
 31
0.0
  0
LINE
  5
38F4
  8
3
 10
184.5671258955156
 20
139.73768206705029
 30
0.0
 11
184.5671258955156
 21
139.76923169783529
 31
0.0
  0
LINE
  5
38F5
  8
3
 10
184.5671258955156
 20
139.76923169783529
 30
0.0
 11
184.5671258955156
 21
139.8007813286205
 31
0.0
  0
LINE
  5
38F6
  8
3
 10
184.5671258955156
 20
139.8323309594056
 30
0.0
 11
184.5671258955156
 21
139.8593735000785
 31
0.0
  0
LINE
  5
38F7
  8
3
 10
184.5671258955156
 20
139.8593735000785
 30
0.0
 11
184.5671258955156
 21
139.8909231308636
 31
0.0
  0
LINE
  5
38F8
  8
3
 10
185.69389842355429
 20
139.80979550884479
 30
0.0
 11
185.74798350490019
 21
139.8323309594056
 31
0.0
  0
LINE
  5
38F9
  8
3
 10
185.6488275224327
 20
139.77373878794751
 30
0.0
 11
185.66234879276919
 21
139.77824587805969
 31
0.0
  0
LINE
  5
38FA
  8
3
 10
185.66234879276919
 20
139.77824587805969
 30
0.0
 11
185.67136297299351
 21
139.78726005828401
 31
0.0
  0
LINE
  5
38FB
  8
3
 10
186.20319960622771
 20
139.16077453269449
 30
0.0
 11
186.1851712457792
 21
139.16077453269449
 31
0.0
  0
LINE
  5
38FC
  8
3
 10
186.2437634172372
 20
139.1562674425823
 30
0.0
 11
186.23024214690071
 21
139.16077453269449
 31
0.0
  0
LINE
  5
38FD
  8
3
 10
186.26179177768589
 20
139.15176035247021
 30
0.0
 11
186.25277759746149
 21
139.1562674425823
 31
0.0
  0
LINE
  5
38FE
  8
3
 10
186.25277759746149
 20
139.1562674425823
 30
0.0
 11
186.2437634172372
 21
139.1562674425823
 31
0.0
  0
LINE
  5
38FF
  8
3
 10
186.23024214690071
 20
139.16077453269449
 30
0.0
 11
186.21672087656421
 21
139.16077453269449
 31
0.0
  0
LINE
  5
3900
  8
3
 10
186.21672087656421
 20
139.16077453269449
 30
0.0
 11
186.20319960622771
 21
139.16077453269449
 31
0.0
  0
LINE
  5
3901
  8
3
 10
186.13559325454551
 20
139.1562674425823
 30
0.0
 11
186.12207198420899
 21
139.1562674425823
 31
0.0
  0
LINE
  5
3902
  8
3
 10
186.15362161499411
 20
139.16077453269449
 30
0.0
 11
186.13559325454551
 21
139.1562674425823
 31
0.0
  0
LINE
  5
3903
  8
3
 10
186.1851712457792
 20
139.16077453269449
 30
0.0
 11
186.1716499754427
 21
139.16077453269449
 31
0.0
  0
LINE
  5
3904
  8
3
 10
186.1716499754427
 20
139.16077453269449
 30
0.0
 11
186.15362161499411
 21
139.16077453269449
 31
0.0
  0
LINE
  5
3905
  8
3
 10
186.08150817319961
 20
139.14725326235799
 30
0.0
 11
186.00939473140511
 21
139.0661256403391
 31
0.0
  0
LINE
  5
3906
  8
3
 10
186.12207198420899
 20
139.1562674425823
 30
0.0
 11
186.10855071387249
 21
139.15176035247021
 31
0.0
  0
LINE
  5
3907
  8
3
 10
186.10855071387249
 20
139.15176035247021
 30
0.0
 11
186.08150817319961
 21
139.14725326235799
 31
0.0
  0
LINE
  5
3908
  8
3
 10
186.27080595791011
 20
139.14725326235799
 30
0.0
 11
186.27080595791011
 21
139.15176035247021
 31
0.0
  0
LINE
  5
3909
  8
3
 10
186.27080595791011
 20
139.15176035247021
 30
0.0
 11
186.26179177768589
 21
139.15176035247021
 31
0.0
  0
LINE
  5
390A
  8
3
 10
185.67136297299351
 20
139.78726005828401
 30
0.0
 11
185.69389842355429
 21
139.80979550884479
 31
0.0
  0
LINE
  5
390B
  8
3
 10
185.74798350490019
 20
139.8323309594056
 30
0.0
 11
185.80206858624601
 21
139.85486640996641
 31
0.0
  0
LINE
  5
390C
  8
3
 10
185.80206858624601
 20
139.85486640996641
 30
0.0
 11
185.8561536675918
 21
139.8774018605271
 31
0.0
  0
LINE
  5
390D
  8
3
 10
185.8561536675918
 20
139.8774018605271
 30
0.0
 11
185.91023874893779
 21
139.8909231308636
 31
0.0
  0
LINE
  5
390E
  8
3
 10
185.91023874893779
 20
139.8909231308636
 30
0.0
 11
185.9643238302836
 21
139.90444440120001
 31
0.0
  0
LINE
  5
390F
  8
3
 10
185.9643238302836
 20
139.90444440120001
 30
0.0
 11
186.01840891162951
 21
139.91345858142441
 31
0.0
  0
LINE
  5
3910
  8
3
 10
186.30235558869521
 20
139.91796567153651
 30
0.0
 11
186.35644067004111
 21
139.91345858142441
 31
0.0
  0
LINE
  5
3911
  8
3
 10
186.35644067004111
 20
139.91345858142441
 30
0.0
 11
186.4105257513869
 21
139.89993731108791
 31
0.0
  0
LINE
  5
3912
  8
3
 10
186.4105257513869
 20
139.89993731108791
 30
0.0
 11
186.4646108327328
 21
139.88641604075141
 31
0.0
  0
LINE
  5
3913
  8
3
 10
186.50517464374221
 20
135.6677796957743
 30
0.0
 11
186.54573845475161
 21
135.6632726056622
 31
0.0
  0
LINE
  5
3914
  8
3
 10
186.60433062620959
 20
135.86158457059699
 30
0.0
 11
186.43306120194771
 21
135.8120065793633
 31
0.0
  0
LINE
  5
3915
  8
3
 10
186.49165337340571
 20
136.68187497100919
 30
0.0
 11
186.51869591407859
 21
136.69088915123351
 31
0.0
  0
LINE
  5
3916
  8
3
 10
186.5547526349759
 20
136.92075074695339
 30
0.0
 11
186.50517464374221
 21
136.88920111616829
 31
0.0
  0
LINE
  5
3917
  8
3
 10
186.57278099542449
 20
138.7551364226006
 30
0.0
 11
186.50066755363
 21
138.75062933248839
 31
0.0
  0
LINE
  5
3918
  8
3
 10
186.50066755363
 20
138.65598044013311
 30
0.0
 11
186.54573845475161
 21
138.65598044013311
 31
0.0
  0
LINE
  5
3919
  8
3
 10
186.4646108327328
 20
139.88641604075141
 30
0.0
 11
186.56376681520021
 21
139.84585222974201
 31
0.0
  0
LINE
  5
391A
  8
3
 10
187.00546164619141
 20
134.8114325744649
 30
0.0
 11
187.00095455607919
 21
134.73030495244609
 31
0.0
  0
LINE
  5
391B
  8
3
 10
186.99194037585499
 20
134.65368442053949
 30
0.0
 11
186.97841910551841
 21
134.57706388863281
 31
0.0
  0
LINE
  5
391C
  8
3
 10
187.00095455607919
 20
134.73030495244609
 30
0.0
 11
186.99194037585499
 21
134.65368442053949
 31
0.0
  0
LINE
  5
391D
  8
3
 10
186.97841910551841
 20
134.57706388863281
 30
0.0
 11
186.9603907450699
 21
134.50044335672609
 31
0.0
  0
LINE
  5
391E
  8
3
 10
185.30178158379681
 20
134.74833331289469
 30
0.0
 11
185.31980994424541
 21
134.6852340513245
 31
0.0
  0
LINE
  5
391F
  8
3
 10
185.31980994424541
 20
134.6852340513245
 30
0.0
 11
185.3468524849182
 21
134.6221347897544
 31
0.0
  0
LINE
  5
3920
  8
3
 10
185.2927674035725
 20
134.815939664577
 30
0.0
 11
185.30178158379681
 21
134.74833331289469
 31
0.0
  0
LINE
  5
3921
  8
3
 10
185.423473016825
 20
134.51396462706259
 30
0.0
 11
185.4279801069371
 21
134.51396462706259
 31
0.0
  0
LINE
  5
3922
  8
3
 10
185.4279801069371
 20
134.51396462706259
 30
0.0
 11
185.43248719704931
 21
134.51396462706259
 31
0.0
  0
LINE
  5
3923
  8
3
 10
185.43248719704931
 20
134.51396462706259
 30
0.0
 11
185.43699428716141
 21
134.51396462706259
 31
0.0
  0
LINE
  5
3924
  8
3
 10
185.43699428716141
 20
134.51396462706259
 30
0.0
 11
185.4415013772736
 21
134.51396462706259
 31
0.0
  0
LINE
  5
3925
  8
3
 10
185.4415013772736
 20
134.51396462706259
 30
0.0
 11
185.4460084673857
 21
134.51396462706259
 31
0.0
  0
LINE
  5
3926
  8
3
 10
185.4460084673857
 20
134.51396462706259
 30
0.0
 11
185.4460084673857
 21
134.5184717171748
 31
0.0
  0
LINE
  5
3927
  8
3
 10
185.4460084673857
 20
134.5184717171748
 30
0.0
 11
185.45051555749779
 21
134.5184717171748
 31
0.0
  0
LINE
  5
3928
  8
3
 10
185.45051555749779
 20
134.5184717171748
 30
0.0
 11
185.45051555749779
 21
134.5229788072869
 31
0.0
  0
LINE
  5
3929
  8
3
 10
185.3468524849182
 20
134.6221347897544
 30
0.0
 11
185.423473016825
 21
134.51396462706259
 31
0.0
  0
LINE
  5
392A
  8
3
 10
186.18066415566699
 20
134.7032624117731
 30
0.0
 11
186.19869251611561
 21
134.78889712390409
 31
0.0
  0
LINE
  5
392B
  8
3
 10
186.1491145248819
 20
134.6221347897544
 30
0.0
 11
186.18066415566699
 21
134.7032624117731
 31
0.0
  0
LINE
  5
392C
  8
3
 10
185.98685928084441
 20
134.74833331289469
 30
0.0
 11
185.98685928084441
 21
134.6852340513245
 31
0.0
  0
LINE
  5
392D
  8
3
 10
185.98685928084441
 20
134.6852340513245
 30
0.0
 11
185.98685928084441
 21
134.61762769964221
 31
0.0
  0
LINE
  5
392E
  8
3
 10
185.98685928084441
 20
134.815939664577
 30
0.0
 11
185.98685928084441
 21
134.74833331289469
 31
0.0
  0
LINE
  5
392F
  8
3
 10
186.06798690286311
 20
134.49142917650181
 30
0.0
 11
186.1130578039847
 21
134.5500213479599
 31
0.0
  0
LINE
  5
3930
  8
3
 10
186.1130578039847
 20
134.5500213479599
 30
0.0
 11
186.1491145248819
 21
134.6221347897544
 31
0.0
  0
LINE
  5
3931
  8
3
 10
185.98685928084441
 20
134.61762769964221
 30
0.0
 11
185.99136637095651
 21
134.49142917650181
 31
0.0
  0
LINE
  5
3932
  8
3
 10
185.45051555749779
 20
134.5229788072869
 30
0.0
 11
185.45502264761009
 21
135.51003154184889
 31
0.0
  0
LINE
  5
3933
  8
3
 10
185.28375322334821
 20
134.8880531063715
 30
0.0
 11
185.2927674035725
 21
134.815939664577
 31
0.0
  0
LINE
  5
3934
  8
3
 10
186.19869251611561
 20
134.78889712390409
 30
0.0
 11
186.21672087656421
 21
134.87903892614719
 31
0.0
  0
LINE
  5
3935
  8
3
 10
185.98685928084441
 20
134.88354601625929
 30
0.0
 11
185.98685928084441
 21
134.815939664577
 31
0.0
  0
LINE
  5
3936
  8
3
 10
187.00996873630351
 20
134.89256019648371
 30
0.0
 11
187.00546164619141
 21
134.8114325744649
 31
0.0
  0
LINE
  5
3937
  8
3
 10
184.9051576539272
 20
139.061618550227
 30
0.0
 11
184.8645938429178
 21
139.0931681810122
 31
0.0
  0
LINE
  5
3938
  8
3
 10
186.00939473140511
 20
139.0661256403391
 30
0.0
 11
185.97333801050789
 21
139.0390830996663
 31
0.0
  0
LINE
  5
3939
  8
3
 10
186.29334140847089
 20
138.9804909282083
 30
0.0
 11
186.27080595791011
 21
139.14725326235799
 31
0.0
  0
LINE
  5
393A
  8
3
 10
185.6172778916476
 20
135.5325669924097
 30
0.0
 11
185.6488275224327
 21
135.5325669924097
 31
0.0
  0
LINE
  5
393B
  8
3
 10
185.74347641478801
 20
135.71735768700799
 30
0.0
 11
185.56769990041391
 21
135.71285059689589
 31
0.0
  0
LINE
  5
393C
  8
3
 10
185.2972744936846
 20
135.32073375713841
 30
0.0
 11
185.2927674035725
 21
135.24862031534391
 31
0.0
  0
LINE
  5
393D
  8
3
 10
185.2927674035725
 20
135.17650687354941
 30
0.0
 11
185.28826031346031
 21
135.104393431755
 31
0.0
  0
LINE
  5
393E
  8
3
 10
185.28826031346031
 20
135.104393431755
 30
0.0
 11
185.28375322334821
 21
135.02777289984829
 31
0.0
  0
LINE
  5
393F
  8
3
 10
185.28375322334821
 20
135.02777289984829
 30
0.0
 11
185.28375322334821
 21
134.95565945805379
 31
0.0
  0
LINE
  5
3940
  8
3
 10
185.28375322334821
 20
134.95565945805379
 30
0.0
 11
185.28375322334821
 21
134.8880531063715
 31
0.0
  0
LINE
  5
3941
  8
3
 10
185.2927674035725
 20
135.24862031534391
 30
0.0
 11
185.2927674035725
 21
135.17650687354941
 31
0.0
  0
LINE
  5
3942
  8
3
 10
184.9862852759459
 20
135.73087895734449
 30
0.0
 11
184.76994495056249
 21
135.7353860474567
 31
0.0
  0
LINE
  5
3943
  8
3
 10
184.76994495056249
 20
135.7353860474567
 30
0.0
 11
184.6572676977587
 21
135.73763959251269
 31
0.0
  0
LINE
  5
3944
  8
3
 10
185.56769990041391
 20
135.71285059689589
 30
0.0
 11
185.37840211570341
 21
135.71735768700799
 31
0.0
  0
LINE
  5
3945
  8
3
 10
185.37840211570341
 20
135.71735768700799
 30
0.0
 11
185.1891043309929
 21
135.7218647771202
 31
0.0
  0
LINE
  5
3946
  8
3
 10
185.1891043309929
 20
135.7218647771202
 30
0.0
 11
184.9862852759459
 21
135.73087895734449
 31
0.0
  0
LINE
  5
3947
  8
3
 10
185.28826031346031
 20
135.5325669924097
 30
0.0
 11
185.2972744936846
 21
135.46496064072741
 31
0.0
  0
LINE
  5
3948
  8
3
 10
185.45502264761009
 20
135.51003154184889
 30
0.0
 11
185.4865722783951
 21
135.5145386319611
 31
0.0
  0
LINE
  5
3949
  8
3
 10
185.4865722783951
 20
135.5145386319611
 30
0.0
 11
185.51812190918019
 21
135.52355281218539
 31
0.0
  0
LINE
  5
394A
  8
3
 10
185.51812190918019
 20
135.52355281218539
 30
0.0
 11
185.54967153996529
 21
135.52805990229751
 31
0.0
  0
LINE
  5
394B
  8
3
 10
185.54967153996529
 20
135.52805990229751
 30
0.0
 11
185.58122117075041
 21
135.52805990229751
 31
0.0
  0
LINE
  5
394C
  8
3
 10
185.58122117075041
 20
135.52805990229751
 30
0.0
 11
185.6172778916476
 21
135.5325669924097
 31
0.0
  0
LINE
  5
394D
  8
3
 10
185.2747390431239
 20
135.60017334409201
 30
0.0
 11
185.28826031346031
 21
135.5325669924097
 31
0.0
  0
LINE
  5
394E
  8
3
 10
185.2972744936846
 20
135.39284719893291
 30
0.0
 11
185.2972744936846
 21
135.32073375713841
 31
0.0
  0
LINE
  5
394F
  8
3
 10
185.2972744936846
 20
135.46496064072741
 30
0.0
 11
185.2972744936846
 21
135.39284719893291
 31
0.0
  0
LINE
  5
3950
  8
3
 10
186.23024214690071
 20
135.24862031534391
 30
0.0
 11
186.22573505678861
 21
135.33876211758701
 31
0.0
  0
LINE
  5
3951
  8
3
 10
185.99136637095651
 20
135.28467703624119
 30
0.0
 11
185.99136637095651
 21
135.221577774671
 31
0.0
  0
LINE
  5
3952
  8
3
 10
186.23024214690071
 20
135.06382962074559
 30
0.0
 11
186.23024214690071
 21
135.15847851310079
 31
0.0
  0
LINE
  5
3953
  8
3
 10
185.99136637095651
 20
135.1539714229886
 30
0.0
 11
185.99136637095651
 21
135.0863650713064
 31
0.0
  0
LINE
  5
3954
  8
3
 10
186.21672087656421
 20
134.87903892614719
 30
0.0
 11
186.22573505678861
 21
134.96918072839031
 31
0.0
  0
LINE
  5
3955
  8
3
 10
186.22573505678861
 20
134.96918072839031
 30
0.0
 11
186.23024214690071
 21
135.06382962074559
 31
0.0
  0
LINE
  5
3956
  8
3
 10
185.99136637095651
 20
135.0863650713064
 30
0.0
 11
185.99136637095651
 21
135.018758719624
 31
0.0
  0
LINE
  5
3957
  8
3
 10
185.99136637095651
 20
135.018758719624
 30
0.0
 11
185.99136637095651
 21
134.95115236794169
 31
0.0
  0
LINE
  5
3958
  8
3
 10
185.99136637095651
 20
134.95115236794169
 30
0.0
 11
185.98685928084441
 21
134.88354601625929
 31
0.0
  0
LINE
  5
3959
  8
3
 10
186.23024214690071
 20
135.15847851310079
 30
0.0
 11
186.23024214690071
 21
135.24862031534391
 31
0.0
  0
LINE
  5
395A
  8
3
 10
185.99136637095651
 20
135.221577774671
 30
0.0
 11
185.99136637095651
 21
135.1539714229886
 31
0.0
  0
LINE
  5
395B
  8
3
 10
185.6488275224327
 20
135.5325669924097
 30
0.0
 11
185.68488424333
 21
135.5325669924097
 31
0.0
  0
LINE
  5
395C
  8
3
 10
185.68488424333
 20
135.5325669924097
 30
0.0
 11
185.71643387411501
 21
135.5325669924097
 31
0.0
  0
LINE
  5
395D
  8
3
 10
185.91925292916201
 20
135.72637186723239
 30
0.0
 11
185.74347641478801
 21
135.71735768700799
 31
0.0
  0
LINE
  5
395E
  8
3
 10
185.7524905950122
 20
135.5325669924097
 30
0.0
 11
185.78404022579741
 21
135.5325669924097
 31
0.0
  0
LINE
  5
395F
  8
3
 10
186.26179177768589
 20
135.77144276835389
 30
0.0
 11
186.09052235342389
 21
135.7444002276809
 31
0.0
  0
LINE
  5
3960
  8
3
 10
186.20770669634001
 20
135.63623006498921
 30
0.0
 11
186.20319960622771
 21
135.72637186723239
 31
0.0
  0
LINE
  5
3961
  8
3
 10
186.20319960622771
 20
135.72637186723239
 30
0.0
 11
186.23474923701281
 21
135.71285059689589
 31
0.0
  0
LINE
  5
3962
  8
3
 10
186.09052235342389
 20
135.7444002276809
 30
0.0
 11
185.91925292916201
 21
135.72637186723239
 31
0.0
  0
LINE
  5
3963
  8
3
 10
186.21672087656421
 20
135.5010173616246
 30
0.0
 11
186.21221378645211
 21
135.5731308034191
 31
0.0
  0
LINE
  5
3964
  8
3
 10
185.78404022579741
 20
135.5325669924097
 30
0.0
 11
185.8200969466946
 21
135.5325669924097
 31
0.0
  0
LINE
  5
3965
  8
3
 10
185.8200969466946
 20
135.5325669924097
 30
0.0
 11
185.8561536675918
 21
135.5325669924097
 31
0.0
  0
LINE
  5
3966
  8
3
 10
185.8561536675918
 20
135.5325669924097
 30
0.0
 11
185.88770329837689
 21
135.5325669924097
 31
0.0
  0
LINE
  5
3967
  8
3
 10
185.88770329837689
 20
135.5325669924097
 30
0.0
 11
185.91925292916201
 21
135.5325669924097
 31
0.0
  0
LINE
  5
3968
  8
3
 10
185.91925292916201
 20
135.5325669924097
 30
0.0
 11
185.9823521907322
 21
135.54158117263401
 31
0.0
  0
LINE
  5
3969
  8
3
 10
185.9823521907322
 20
135.54158117263401
 30
0.0
 11
185.98685928084441
 21
135.4784819110638
 31
0.0
  0
LINE
  5
396A
  8
3
 10
186.21221378645211
 20
135.5731308034191
 30
0.0
 11
186.20770669634001
 21
135.63623006498921
 31
0.0
  0
LINE
  5
396B
  8
3
 10
186.30686267880731
 20
135.69932932655939
 30
0.0
 11
186.3429193997045
 21
135.69031514633511
 31
0.0
  0
LINE
  5
396C
  8
3
 10
186.37897612060181
 20
135.68580805622301
 30
0.0
 11
186.41953993161121
 21
135.6813009661108
 31
0.0
  0
LINE
  5
396D
  8
3
 10
186.41953993161121
 20
135.6813009661108
 30
0.0
 11
186.4601037426207
 21
135.67228678588651
 31
0.0
  0
LINE
  5
396E
  8
3
 10
186.3429193997045
 20
135.69031514633511
 30
0.0
 11
186.37897612060181
 21
135.68580805622301
 31
0.0
  0
LINE
  5
396F
  8
3
 10
186.27080595791011
 20
135.70383641667161
 30
0.0
 11
186.30686267880731
 21
135.69932932655939
 31
0.0
  0
LINE
  5
3970
  8
3
 10
186.43306120194771
 20
135.8120065793633
 30
0.0
 11
186.26179177768589
 21
135.77144276835389
 31
0.0
  0
LINE
  5
3971
  8
3
 10
186.23474923701281
 20
135.71285059689589
 30
0.0
 11
186.27080595791011
 21
135.70383641667161
 31
0.0
  0
LINE
  5
3972
  8
3
 10
186.22573505678861
 20
135.33876211758701
 30
0.0
 11
186.22122796667639
 21
135.42439682971801
 31
0.0
  0
LINE
  5
3973
  8
3
 10
185.99136637095651
 20
135.41538264949361
 30
0.0
 11
185.99136637095651
 21
135.35228338792351
 31
0.0
  0
LINE
  5
3974
  8
3
 10
185.99136637095651
 20
135.35228338792351
 30
0.0
 11
185.99136637095651
 21
135.28467703624119
 31
0.0
  0
LINE
  5
3975
  8
3
 10
186.22122796667639
 20
135.42439682971801
 30
0.0
 11
186.21672087656421
 21
135.5010173616246
 31
0.0
  0
LINE
  5
3976
  8
3
 10
185.98685928084441
 20
135.4784819110638
 30
0.0
 11
185.99136637095651
 21
135.41538264949361
 31
0.0
  0
LINE
  5
3977
  8
3
 10
185.71643387411501
 20
135.5325669924097
 30
0.0
 11
185.7524905950122
 21
135.5325669924097
 31
0.0
  0
LINE
  5
3978
  8
3
 10
186.4601037426207
 20
135.67228678588651
 30
0.0
 11
186.50517464374221
 21
135.6677796957743
 31
0.0
  0
LINE
  5
3979
  8
3
 10
184.6347322471978
 20
137.49315119119709
 30
0.0
 11
184.61670388674909
 21
137.5562504527673
 31
0.0
  0
LINE
  5
397A
  8
3
 10
185.68037715321771
 20
136.6638466105606
 30
0.0
 11
185.6443204323206
 21
136.6638466105606
 31
0.0
  0
LINE
  5
397B
  8
3
 10
185.540657359741
 20
136.54666226764459
 30
0.0
 11
185.6893913334421
 21
136.54666226764459
 31
0.0
  0
LINE
  5
397C
  8
3
 10
185.279246133236
 20
136.76750968314019
 30
0.0
 11
185.2612177727874
 21
136.7765238633645
 31
0.0
  0
LINE
  5
397D
  8
3
 10
184.6437464274222
 20
136.53764808742031
 30
0.0
 11
184.83304421213259
 21
136.53764808742031
 31
0.0
  0
LINE
  5
397E
  8
3
 10
185.6443204323206
 20
136.6638466105606
 30
0.0
 11
185.60375662131119
 21
136.6683537006727
 31
0.0
  0
LINE
  5
397F
  8
3
 10
185.60375662131119
 20
136.6683537006727
 30
0.0
 11
185.5631928103017
 21
136.67736788089701
 31
0.0
  0
LINE
  5
3980
  8
3
 10
185.5631928103017
 20
136.67736788089701
 30
0.0
 11
185.52262899929229
 21
136.68187497100919
 31
0.0
  0
LINE
  5
3981
  8
3
 10
185.52262899929229
 20
136.68187497100919
 30
0.0
 11
185.482065188283
 21
136.69088915123351
 31
0.0
  0
LINE
  5
3982
  8
3
 10
185.482065188283
 20
136.69088915123351
 30
0.0
 11
185.4460084673857
 21
136.69990333145779
 31
0.0
  0
LINE
  5
3983
  8
3
 10
185.2026256013294
 20
136.54215517753241
 30
0.0
 11
185.3738950255912
 21
136.54666226764459
 31
0.0
  0
LINE
  5
3984
  8
3
 10
185.3738950255912
 20
136.54666226764459
 30
0.0
 11
185.540657359741
 21
136.54666226764459
 31
0.0
  0
LINE
  5
3985
  8
3
 10
185.01783490673111
 20
136.54215517753241
 30
0.0
 11
185.2026256013294
 21
136.54215517753241
 31
0.0
  0
LINE
  5
3986
  8
3
 10
185.4460084673857
 20
136.69990333145779
 30
0.0
 11
185.36488084536691
 21
136.7224387820186
 31
0.0
  0
LINE
  5
3987
  8
3
 10
185.36488084536691
 20
136.7224387820186
 30
0.0
 11
185.35135957503061
 21
136.73145296224291
 31
0.0
  0
LINE
  5
3988
  8
3
 10
185.35135957503061
 20
136.73145296224291
 30
0.0
 11
185.3333312145819
 21
136.7404671424672
 31
0.0
  0
LINE
  5
3989
  8
3
 10
185.3333312145819
 20
136.7404671424672
 30
0.0
 11
185.31530285413331
 21
136.74948132269151
 31
0.0
  0
LINE
  5
398A
  8
3
 10
185.31530285413331
 20
136.74948132269151
 30
0.0
 11
185.2972744936846
 21
136.75849550291579
 31
0.0
  0
LINE
  5
398B
  8
3
 10
185.2972744936846
 20
136.75849550291579
 30
0.0
 11
185.279246133236
 21
136.76750968314019
 31
0.0
  0
LINE
  5
398C
  8
3
 10
184.83304421213259
 20
136.53764808742031
 30
0.0
 11
185.01783490673111
 21
136.54215517753241
 31
0.0
  0
LINE
  5
398D
  8
3
 10
184.8060016714598
 20
137.1506123426733
 30
0.0
 11
184.76994495056249
 21
137.2046974240192
 31
0.0
  0
LINE
  5
398E
  8
3
 10
184.65726769775861
 20
137.43005192962701
 30
0.0
 11
184.6347322471978
 21
137.49315119119709
 31
0.0
  0
LINE
  5
398F
  8
3
 10
184.67980314831951
 20
137.3714597581689
 30
0.0
 11
184.65726769775861
 21
137.43005192962701
 31
0.0
  0
LINE
  5
3990
  8
3
 10
184.76994495056249
 20
137.2046974240192
 30
0.0
 11
184.7383953197774
 21
137.25878250536499
 31
0.0
  0
LINE
  5
3991
  8
3
 10
184.7383953197774
 20
137.25878250536499
 30
0.0
 11
184.7068456889923
 21
137.31286758671089
 31
0.0
  0
LINE
  5
3992
  8
3
 10
184.7068456889923
 20
137.31286758671089
 30
0.0
 11
184.67980314831951
 21
137.3714597581689
 31
0.0
  0
LINE
  5
3993
  8
3
 10
184.97727109572159
 20
136.95680746785069
 30
0.0
 11
184.93220019460011
 21
137.0018783689722
 31
0.0
  0
LINE
  5
3994
  8
3
 10
184.93220019460011
 20
137.0018783689722
 30
0.0
 11
184.88712929347849
 21
137.05145636020589
 31
0.0
  0
LINE
  5
3995
  8
3
 10
184.88712929347849
 20
137.05145636020589
 30
0.0
 11
184.84656548246909
 21
137.10103435143961
 31
0.0
  0
LINE
  5
3996
  8
3
 10
184.84656548246909
 20
137.10103435143961
 30
0.0
 11
184.8060016714598
 21
137.1506123426733
 31
0.0
  0
LINE
  5
3997
  8
3
 10
185.11699088919841
 20
136.84863730515889
 30
0.0
 11
185.08093416830121
 21
136.8711727557197
 31
0.0
  0
LINE
  5
3998
  8
3
 10
185.08093416830121
 20
136.8711727557197
 30
0.0
 11
185.02684908695531
 21
136.9117365667291
 31
0.0
  0
LINE
  5
3999
  8
3
 10
185.1530476100956
 20
136.83060894471029
 30
0.0
 11
185.13501924964709
 21
136.8396231249346
 31
0.0
  0
LINE
  5
399A
  8
3
 10
185.13501924964709
 20
136.8396231249346
 30
0.0
 11
185.11699088919841
 21
136.84863730515889
 31
0.0
  0
LINE
  5
399B
  8
3
 10
185.2612177727874
 20
136.7765238633645
 30
0.0
 11
185.24318941233881
 21
136.78553804358879
 31
0.0
  0
LINE
  5
399C
  8
3
 10
185.24318941233881
 20
136.78553804358879
 30
0.0
 11
185.2251610518901
 21
136.7945522238131
 31
0.0
  0
LINE
  5
399D
  8
3
 10
185.2251610518901
 20
136.7945522238131
 30
0.0
 11
185.2071326914415
 21
136.80356640403741
 31
0.0
  0
LINE
  5
399E
  8
3
 10
185.2071326914415
 20
136.80356640403741
 30
0.0
 11
185.1891043309929
 21
136.8125805842617
 31
0.0
  0
LINE
  5
399F
  8
3
 10
185.1891043309929
 20
136.8125805842617
 30
0.0
 11
185.17107597054431
 21
136.82159476448601
 31
0.0
  0
LINE
  5
39A0
  8
3
 10
185.17107597054431
 20
136.82159476448601
 30
0.0
 11
185.1530476100956
 21
136.83060894471029
 31
0.0
  0
LINE
  5
39A1
  8
3
 10
185.02684908695531
 20
136.9117365667291
 30
0.0
 11
184.97727109572159
 21
136.95680746785069
 31
0.0
  0
LINE
  5
39A2
  8
3
 10
186.35644067004111
 20
136.7945522238131
 30
0.0
 11
186.30235558869521
 21
136.76750968314019
 31
0.0
  0
LINE
  5
39A3
  8
3
 10
185.7209409642272
 20
136.6593395204485
 30
0.0
 11
185.68037715321771
 21
136.6638466105606
 31
0.0
  0
LINE
  5
39A4
  8
3
 10
186.00939473140511
 20
136.67286079078491
 30
0.0
 11
185.9688309203957
 21
136.6638466105606
 31
0.0
  0
LINE
  5
39A5
  8
3
 10
185.9688309203957
 20
136.6638466105606
 30
0.0
 11
185.9282671093863
 21
136.6638466105606
 31
0.0
  0
LINE
  5
39A6
  8
3
 10
185.9282671093863
 20
136.6638466105606
 30
0.0
 11
185.88770329837689
 21
136.6593395204485
 31
0.0
  0
LINE
  5
39A7
  8
3
 10
185.88770329837689
 20
136.6593395204485
 30
0.0
 11
185.8471394873676
 21
136.6593395204485
 31
0.0
  0
LINE
  5
39A8
  8
3
 10
185.8471394873676
 20
136.6593395204485
 30
0.0
 11
185.80206858624601
 21
136.6593395204485
 31
0.0
  0
LINE
  5
39A9
  8
3
 10
185.80206858624601
 20
136.6593395204485
 30
0.0
 11
185.76150477523669
 21
136.6593395204485
 31
0.0
  0
LINE
  5
39AA
  8
3
 10
186.1310861644333
 20
136.70441042157
 30
0.0
 11
186.00939473140511
 21
136.67286079078491
 31
0.0
  0
LINE
  5
39AB
  8
3
 10
186.1896783358913
 20
136.5782118984296
 30
0.0
 11
186.22122796667639
 21
136.58722607865391
 31
0.0
  0
LINE
  5
39AC
  8
3
 10
186.22122796667639
 20
136.58722607865391
 30
0.0
 11
186.24827050734939
 21
136.59624025887831
 31
0.0
  0
LINE
  5
39AD
  8
3
 10
186.1310861644333
 20
136.56469062809319
 30
0.0
 11
186.16263579521839
 21
136.56919771820529
 31
0.0
  0
LINE
  5
39AE
  8
3
 10
186.16263579521839
 20
136.56919771820529
 30
0.0
 11
186.1896783358913
 21
136.5782118984296
 31
0.0
  0
LINE
  5
39AF
  8
3
 10
186.02742309185379
 20
136.5556764478689
 30
0.0
 11
186.1310861644333
 21
136.56469062809319
 31
0.0
  0
LINE
  5
39B0
  8
3
 10
185.8246040368067
 20
136.55116935775669
 30
0.0
 11
185.93728128961061
 21
136.5556764478689
 31
0.0
  0
LINE
  5
39B1
  8
3
 10
185.93728128961061
 20
136.5556764478689
 30
0.0
 11
186.02742309185379
 21
136.5556764478689
 31
0.0
  0
LINE
  5
39B2
  8
3
 10
186.24827050734939
 20
136.74497423257941
 30
0.0
 11
186.1896783358913
 21
136.7224387820186
 31
0.0
  0
LINE
  5
39B3
  8
3
 10
186.1896783358913
 20
136.7224387820186
 30
0.0
 11
186.1310861644333
 21
136.70441042157
 31
0.0
  0
LINE
  5
39B4
  8
3
 10
186.30686267880731
 20
136.61426861932691
 30
0.0
 11
186.3339052194803
 21
136.62328279955119
 31
0.0
  0
LINE
  5
39B5
  8
3
 10
186.36094776015321
 20
136.6322969797755
 30
0.0
 11
186.3879903008262
 21
136.64131115999979
 31
0.0
  0
LINE
  5
39B6
  8
3
 10
186.44207538217199
 20
136.6593395204485
 30
0.0
 11
186.46911792284499
 21
136.67286079078491
 31
0.0
  0
LINE
  5
39B7
  8
3
 10
186.46911792284499
 20
136.67286079078491
 30
0.0
 11
186.49165337340571
 21
136.68187497100919
 31
0.0
  0
LINE
  5
39B8
  8
3
 10
186.3879903008262
 20
136.64131115999979
 30
0.0
 11
186.415032841499
 21
136.6503253402241
 31
0.0
  0
LINE
  5
39B9
  8
3
 10
186.415032841499
 20
136.6503253402241
 30
0.0
 11
186.44207538217199
 21
136.6593395204485
 31
0.0
  0
LINE
  5
39BA
  8
3
 10
186.3339052194803
 20
136.62328279955119
 30
0.0
 11
186.36094776015321
 21
136.6322969797755
 31
0.0
  0
LINE
  5
39BB
  8
3
 10
186.27982013813451
 20
136.60525443910251
 30
0.0
 11
186.30686267880731
 21
136.61426861932691
 31
0.0
  0
LINE
  5
39BC
  8
3
 10
186.30235558869521
 20
136.76750968314019
 30
0.0
 11
186.24827050734939
 21
136.74497423257941
 31
0.0
  0
LINE
  5
39BD
  8
3
 10
186.24827050734939
 20
136.59624025887831
 30
0.0
 11
186.27982013813451
 21
136.60525443910251
 31
0.0
  0
LINE
  5
39BE
  8
3
 10
185.76150477523669
 20
136.6593395204485
 30
0.0
 11
185.7209409642272
 21
136.6593395204485
 31
0.0
  0
LINE
  5
39BF
  8
3
 10
185.6893913334421
 20
136.54666226764459
 30
0.0
 11
185.8246040368067
 21
136.55116935775669
 31
0.0
  0
LINE
  5
39C0
  8
3
 10
186.4060186612748
 20
136.82159476448601
 30
0.0
 11
186.35644067004111
 21
136.7945522238131
 31
0.0
  0
LINE
  5
39C1
  8
3
 10
186.4601037426207
 20
136.8531443952711
 30
0.0
 11
186.4060186612748
 21
136.82159476448601
 31
0.0
  0
LINE
  5
39C2
  8
3
 10
186.50517464374221
 20
136.88920111616829
 30
0.0
 11
186.4601037426207
 21
136.8531443952711
 31
0.0
  0
LINE
  5
39C3
  8
3
 10
185.67136297299351
 20
138.90387039630161
 30
0.0
 11
185.62178498175979
 21
138.8948562160773
 31
0.0
  0
LINE
  5
39C4
  8
3
 10
185.6307991619841
 20
138.61992371923591
 30
0.0
 11
185.66685588288129
 21
138.61992371923591
 31
0.0
  0
LINE
  5
39C5
  8
3
 10
185.31530285413331
 20
138.331469952058
 30
0.0
 11
185.31530285413331
 21
138.25484942015129
 31
0.0
  0
LINE
  5
39C6
  8
3
 10
185.50910772895591
 20
137.62385680444959
 30
0.0
 11
185.50910772895591
 21
138.6154166291237
 31
0.0
  0
LINE
  5
39C7
  8
3
 10
184.5716329856277
 20
137.78611204848721
 30
0.0
 11
184.5716329856277
 21
137.7906191385994
 31
0.0
  0
LINE
  5
39C8
  8
3
 10
184.61670388674909
 20
137.5562504527673
 30
0.0
 11
184.5986755263005
 21
137.61934971433749
 31
0.0
  0
LINE
  5
39C9
  8
3
 10
184.5716329856277
 20
137.75906950781419
 30
0.0
 11
184.5716329856277
 21
137.7635765979264
 31
0.0
  0
LINE
  5
39CA
  8
3
 10
184.5716329856277
 20
137.7635765979264
 30
0.0
 11
184.5716329856277
 21
137.76808368803859
 31
0.0
  0
LINE
  5
39CB
  8
3
 10
184.5716329856277
 20
137.76808368803859
 30
0.0
 11
184.5716329856277
 21
137.77259077815069
 31
0.0
  0
LINE
  5
39CC
  8
3
 10
184.5716329856277
 20
137.77259077815069
 30
0.0
 11
184.5716329856277
 21
137.781604958375
 31
0.0
  0
LINE
  5
39CD
  8
3
 10
184.5716329856277
 20
137.781604958375
 30
0.0
 11
184.5716329856277
 21
137.78611204848721
 31
0.0
  0
LINE
  5
39CE
  8
3
 10
185.31530285413331
 20
138.17822888824469
 30
0.0
 11
185.31530285413331
 21
138.10611544645019
 31
0.0
  0
LINE
  5
39CF
  8
3
 10
185.31530285413331
 20
138.25484942015129
 30
0.0
 11
185.31530285413331
 21
138.17822888824469
 31
0.0
  0
LINE
  5
39D0
  8
3
 10
185.31530285413331
 20
138.03400200465569
 30
0.0
 11
185.32431703435751
 21
137.96188856286119
 31
0.0
  0
LINE
  5
39D1
  8
3
 10
185.32431703435751
 20
137.96188856286119
 30
0.0
 11
185.3333312145819
 21
137.8942822111789
 31
0.0
  0
LINE
  5
39D2
  8
3
 10
185.3333312145819
 20
137.8942822111789
 30
0.0
 11
185.35135957503061
 21
137.83118294960869
 31
0.0
  0
LINE
  5
39D3
  8
3
 10
185.35135957503061
 20
137.83118294960869
 30
0.0
 11
185.3738950255912
 21
137.76808368803859
 31
0.0
  0
LINE
  5
39D4
  8
3
 10
185.3738950255912
 20
137.76808368803859
 30
0.0
 11
185.40093756626419
 21
137.7049844264684
 31
0.0
  0
LINE
  5
39D5
  8
3
 10
185.40093756626419
 20
137.7049844264684
 30
0.0
 11
185.482065188283
 21
137.60132135388881
 31
0.0
  0
LINE
  5
39D6
  8
3
 10
185.482065188283
 20
137.60132135388881
 30
0.0
 11
185.4865722783951
 21
137.60132135388881
 31
0.0
  0
LINE
  5
39D7
  8
3
 10
185.4865722783951
 20
137.60132135388881
 30
0.0
 11
185.4910793685072
 21
137.60132135388881
 31
0.0
  0
LINE
  5
39D8
  8
3
 10
185.4910793685072
 20
137.60132135388881
 30
0.0
 11
185.4955864586195
 21
137.60132135388881
 31
0.0
  0
LINE
  5
39D9
  8
3
 10
185.4955864586195
 20
137.60132135388881
 30
0.0
 11
185.5000935487316
 21
137.60132135388881
 31
0.0
  0
LINE
  5
39DA
  8
3
 10
185.5000935487316
 20
137.60132135388881
 30
0.0
 11
185.5000935487316
 21
137.60582844400099
 31
0.0
  0
LINE
  5
39DB
  8
3
 10
185.5000935487316
 20
137.60582844400099
 30
0.0
 11
185.50460063884381
 21
137.60582844400099
 31
0.0
  0
LINE
  5
39DC
  8
3
 10
185.50460063884381
 20
137.60582844400099
 30
0.0
 11
185.50460063884381
 21
137.61033553411309
 31
0.0
  0
LINE
  5
39DD
  8
3
 10
185.50460063884381
 20
137.61033553411309
 30
0.0
 11
185.50910772895591
 21
137.61033553411309
 31
0.0
  0
LINE
  5
39DE
  8
3
 10
185.50910772895591
 20
137.61033553411309
 30
0.0
 11
185.50910772895591
 21
137.6148426242253
 31
0.0
  0
LINE
  5
39DF
  8
3
 10
185.50910772895591
 20
137.6148426242253
 30
0.0
 11
185.50910772895591
 21
137.62385680444959
 31
0.0
  0
LINE
  5
39E0
  8
3
 10
185.31530285413331
 20
138.10611544645019
 30
0.0
 11
185.31530285413331
 21
138.03400200465569
 31
0.0
  0
LINE
  5
39E1
  8
3
 10
184.74740950000171
 20
138.7055584313668
 30
0.0
 11
184.7924804011233
 21
138.7055584313668
 31
0.0
  0
LINE
  5
39E2
  8
3
 10
184.60768970652489
 20
138.69654425114251
 30
0.0
 11
184.65276060764651
 21
138.7010513412547
 31
0.0
  0
LINE
  5
39E3
  8
3
 10
184.65276060764651
 20
138.7010513412547
 30
0.0
 11
184.69783150876799
 21
138.7010513412547
 31
0.0
  0
LINE
  5
39E4
  8
3
 10
184.69783150876799
 20
138.7010513412547
 30
0.0
 11
184.74740950000171
 21
138.7055584313668
 31
0.0
  0
LINE
  5
39E5
  8
3
 10
184.9412143748244
 20
139.03006891944199
 30
0.0
 11
184.9051576539272
 21
139.061618550227
 31
0.0
  0
LINE
  5
39E6
  8
3
 10
184.7924804011233
 20
138.7055584313668
 30
0.0
 11
184.83755130224489
 21
138.7055584313668
 31
0.0
  0
LINE
  5
39E7
  8
3
 10
184.83755130224489
 20
138.7055584313668
 30
0.0
 11
184.88712929347849
 21
138.7055584313668
 31
0.0
  0
LINE
  5
39E8
  8
3
 10
184.88712929347849
 20
138.7055584313668
 30
0.0
 11
184.93220019460011
 21
138.7010513412547
 31
0.0
  0
LINE
  5
39E9
  8
3
 10
184.93220019460011
 20
138.7010513412547
 30
0.0
 11
184.97727109572159
 21
138.7010513412547
 31
0.0
  0
LINE
  5
39EA
  8
3
 10
185.02684908695531
 20
138.9714767479839
 30
0.0
 11
185.01783490673111
 21
138.97598383809611
 31
0.0
  0
LINE
  5
39EB
  8
3
 10
185.01783490673111
 20
138.97598383809611
 30
0.0
 11
184.9817781858338
 21
139.00302637876899
 31
0.0
  0
LINE
  5
39EC
  8
3
 10
185.15755470020781
 20
138.92640584686239
 30
0.0
 11
185.1440334298714
 21
138.92640584686239
 31
0.0
  0
LINE
  5
39ED
  8
3
 10
185.1440334298714
 20
138.92640584686239
 30
0.0
 11
185.13501924964709
 21
138.93091293697461
 31
0.0
  0
LINE
  5
39EE
  8
3
 10
185.13501924964709
 20
138.93091293697461
 30
0.0
 11
185.12149797931059
 21
138.93542002708671
 31
0.0
  0
LINE
  5
39EF
  8
3
 10
185.18459724088069
 20
138.92189875675029
 30
0.0
 11
185.17107597054431
 21
138.92189875675029
 31
0.0
  0
LINE
  5
39F0
  8
3
 10
185.17107597054431
 20
138.92189875675029
 30
0.0
 11
185.15755470020781
 21
138.92640584686239
 31
0.0
  0
LINE
  5
39F1
  8
3
 10
185.11248379908619
 20
138.93992711719881
 30
0.0
 11
185.10346961886191
 21
138.9444342073111
 31
0.0
  0
LINE
  5
39F2
  8
3
 10
185.12149797931059
 20
138.93542002708671
 30
0.0
 11
185.11248379908619
 21
138.93992711719881
 31
0.0
  0
LINE
  5
39F3
  8
3
 10
185.10346961886191
 20
138.9444342073111
 30
0.0
 11
185.08093416830121
 21
138.95795547764749
 31
0.0
  0
LINE
  5
39F4
  8
3
 10
185.08093416830121
 20
138.95795547764749
 30
0.0
 11
185.07642707818911
 21
138.95795547764749
 31
0.0
  0
LINE
  5
39F5
  8
3
 10
185.07642707818911
 20
138.95795547764749
 30
0.0
 11
185.07191998807679
 21
138.95795547764749
 31
0.0
  0
LINE
  5
39F6
  8
3
 10
185.07191998807679
 20
138.95795547764749
 30
0.0
 11
185.0674128979648
 21
138.95795547764749
 31
0.0
  0
LINE
  5
39F7
  8
3
 10
185.0674128979648
 20
138.95795547764749
 30
0.0
 11
185.06290580785259
 21
138.95795547764749
 31
0.0
  0
LINE
  5
39F8
  8
3
 10
185.06290580785259
 20
138.95795547764749
 30
0.0
 11
185.05839871774049
 21
138.95795547764749
 31
0.0
  0
LINE
  5
39F9
  8
3
 10
185.05839871774049
 20
138.95795547764749
 30
0.0
 11
185.0538916276283
 21
138.96246256775959
 31
0.0
  0
LINE
  5
39FA
  8
3
 10
185.0538916276283
 20
138.96246256775959
 30
0.0
 11
185.0493845375162
 21
138.96246256775959
 31
0.0
  0
LINE
  5
39FB
  8
3
 10
185.0493845375162
 20
138.96246256775959
 30
0.0
 11
185.04487744740391
 21
138.96246256775959
 31
0.0
  0
LINE
  5
39FC
  8
3
 10
185.04487744740391
 20
138.96246256775959
 30
0.0
 11
185.04037035729181
 21
138.96246256775959
 31
0.0
  0
LINE
  5
39FD
  8
3
 10
185.04037035729181
 20
138.96246256775959
 30
0.0
 11
185.03586326717959
 21
138.96246256775959
 31
0.0
  0
LINE
  5
39FE
  8
3
 10
185.03586326717959
 20
138.96246256775959
 30
0.0
 11
185.03135617706749
 21
138.9669696578718
 31
0.0
  0
LINE
  5
39FF
  8
3
 10
185.03135617706749
 20
138.9669696578718
 30
0.0
 11
185.02684908695531
 21
138.9669696578718
 31
0.0
  0
LINE
  5
3A00
  8
3
 10
185.02684908695531
 20
138.9669696578718
 30
0.0
 11
185.02684908695531
 21
138.9714767479839
 31
0.0
  0
LINE
  5
3A01
  8
3
 10
185.31980994424541
 20
138.5568244576657
 30
0.0
 11
185.31980994424541
 21
138.4847110158712
 31
0.0
  0
LINE
  5
3A02
  8
3
 10
185.31980994424541
 20
138.4080904839646
 30
0.0
 11
185.31530285413331
 21
138.331469952058
 31
0.0
  0
LINE
  5
3A03
  8
3
 10
185.31980994424541
 20
138.4847110158712
 30
0.0
 11
185.31980994424541
 21
138.4080904839646
 31
0.0
  0
LINE
  5
3A04
  8
3
 10
185.07191998807679
 20
138.7010513412547
 30
0.0
 11
185.12149797931059
 21
138.69654425114251
 31
0.0
  0
LINE
  5
3A05
  8
3
 10
185.02684908695531
 20
138.7010513412547
 30
0.0
 11
185.07191998807679
 21
138.7010513412547
 31
0.0
  0
LINE
  5
3A06
  8
3
 10
185.62178498175979
 20
138.8948562160773
 30
0.0
 11
185.5722069905261
 21
138.88584203585299
 31
0.0
  0
LINE
  5
3A07
  8
3
 10
185.5722069905261
 20
138.88584203585299
 30
0.0
 11
185.52262899929229
 21
138.88133494574089
 31
0.0
  0
LINE
  5
3A08
  8
3
 10
185.52262899929229
 20
138.88133494574089
 30
0.0
 11
185.4730510080586
 21
138.8768278556287
 31
0.0
  0
LINE
  5
3A09
  8
3
 10
185.4730510080586
 20
138.8768278556287
 30
0.0
 11
185.423473016825
 21
138.8768278556287
 31
0.0
  0
LINE
  5
3A0A
  8
3
 10
185.423473016825
 20
138.8768278556287
 30
0.0
 11
185.3738950255912
 21
138.8768278556287
 31
0.0
  0
LINE
  5
3A0B
  8
3
 10
185.3738950255912
 20
138.8768278556287
 30
0.0
 11
185.2747390431239
 21
138.8948562160773
 31
0.0
  0
LINE
  5
3A0C
  8
3
 10
185.2747390431239
 20
138.8948562160773
 30
0.0
 11
185.2612177727874
 21
138.89936330618951
 31
0.0
  0
LINE
  5
3A0D
  8
3
 10
185.2612177727874
 20
138.89936330618951
 30
0.0
 11
185.24769650245091
 21
138.90387039630161
 31
0.0
  0
LINE
  5
3A0E
  8
3
 10
185.24769650245091
 20
138.90387039630161
 30
0.0
 11
185.23417523211461
 21
138.9083774864138
 31
0.0
  0
LINE
  5
3A0F
  8
3
 10
185.23417523211461
 20
138.9083774864138
 30
0.0
 11
185.22065396177791
 21
138.9128845765259
 31
0.0
  0
LINE
  5
3A10
  8
3
 10
185.22065396177791
 20
138.9128845765259
 30
0.0
 11
185.2071326914415
 21
138.9128845765259
 31
0.0
  0
LINE
  5
3A11
  8
3
 10
185.2071326914415
 20
138.9128845765259
 30
0.0
 11
185.193611421105
 21
138.91739166663811
 31
0.0
  0
LINE
  5
3A12
  8
3
 10
185.16656888043221
 20
138.7010513412547
 30
0.0
 11
185.2161468716659
 21
138.7010513412547
 31
0.0
  0
LINE
  5
3A13
  8
3
 10
185.2161468716659
 20
138.7010513412547
 30
0.0
 11
185.30628867390891
 21
138.71006552147901
 31
0.0
  0
LINE
  5
3A14
  8
3
 10
185.30628867390891
 20
138.71006552147901
 30
0.0
 11
185.31530285413331
 21
138.6334449895723
 31
0.0
  0
LINE
  5
3A15
  8
3
 10
185.50910772895591
 20
138.6154166291237
 30
0.0
 11
185.55417863007739
 21
138.6154166291237
 31
0.0
  0
LINE
  5
3A16
  8
3
 10
185.55417863007739
 20
138.6154166291237
 30
0.0
 11
185.59474244108679
 21
138.6154166291237
 31
0.0
  0
LINE
  5
3A17
  8
3
 10
185.59474244108679
 20
138.6154166291237
 30
0.0
 11
185.6307991619841
 21
138.61992371923591
 31
0.0
  0
LINE
  5
3A18
  8
3
 10
185.31530285413331
 20
138.6334449895723
 30
0.0
 11
185.31980994424541
 21
138.5568244576657
 31
0.0
  0
LINE
  5
3A19
  8
3
 10
185.12149797931059
 20
138.69654425114251
 30
0.0
 11
185.16656888043221
 21
138.7010513412547
 31
0.0
  0
LINE
  5
3A1A
  8
3
 10
185.193611421105
 20
138.91739166663811
 30
0.0
 11
185.18459724088069
 21
138.92189875675029
 31
0.0
  0
LINE
  5
3A1B
  8
3
 10
184.97727109572159
 20
138.7010513412547
 30
0.0
 11
185.02684908695531
 21
138.7010513412547
 31
0.0
  0
LINE
  5
3A1C
  8
3
 10
184.9817781858338
 20
139.00302637876899
 30
0.0
 11
184.9412143748244
 21
139.03006891944199
 31
0.0
  0
LINE
  5
3A1D
  8
3
 10
186.32489103925599
 20
138.245835239927
 30
0.0
 11
186.32489103925599
 21
138.32696286194579
 31
0.0
  0
LINE
  5
3A1E
  8
3
 10
186.05446563252659
 20
138.62443080934801
 30
0.0
 11
186.0589727226388
 21
137.59230717366449
 31
0.0
  0
LINE
  5
3A1F
  8
3
 10
186.3158768590317
 20
138.07907290577731
 30
0.0
 11
186.3203839491438
 21
138.16470761790819
 31
0.0
  0
LINE
  5
3A20
  8
3
 10
186.3203839491438
 20
138.16470761790819
 30
0.0
 11
186.32489103925599
 21
138.245835239927
 31
0.0
  0
LINE
  5
3A21
  8
3
 10
186.1896783358913
 20
137.6914631561319
 30
0.0
 11
186.20770669634001
 21
137.7094915165805
 31
0.0
  0
LINE
  5
3A22
  8
3
 10
186.20770669634001
 20
137.7094915165805
 30
0.0
 11
186.22122796667639
 21
137.73202696714139
 31
0.0
  0
LINE
  5
3A23
  8
3
 10
186.22122796667639
 20
137.73202696714139
 30
0.0
 11
186.23925632712499
 21
137.75005532758999
 31
0.0
  0
LINE
  5
3A24
  8
3
 10
186.23925632712499
 20
137.75005532758999
 30
0.0
 11
186.25277759746149
 21
137.77259077815069
 31
0.0
  0
LINE
  5
3A25
  8
3
 10
186.25277759746149
 20
137.77259077815069
 30
0.0
 11
186.26179177768589
 21
137.7906191385994
 31
0.0
  0
LINE
  5
3A26
  8
3
 10
186.12207198420899
 20
137.61934971433749
 30
0.0
 11
186.14010034465761
 21
137.63737807478611
 31
0.0
  0
LINE
  5
3A27
  8
3
 10
186.14010034465761
 20
137.63737807478611
 30
0.0
 11
186.15362161499411
 21
137.65089934512261
 31
0.0
  0
LINE
  5
3A28
  8
3
 10
186.15362161499411
 20
137.65089934512261
 30
0.0
 11
186.1716499754427
 21
137.67343479568331
 31
0.0
  0
LINE
  5
3A29
  8
3
 10
186.1716499754427
 20
137.67343479568331
 30
0.0
 11
186.1896783358913
 21
137.6914631561319
 31
0.0
  0
LINE
  5
3A2A
  8
3
 10
186.0724939929753
 20
137.59230717366449
 30
0.0
 11
186.09052235342389
 21
137.59681426377671
 31
0.0
  0
LINE
  5
3A2B
  8
3
 10
186.09052235342389
 20
137.59681426377671
 30
0.0
 11
186.10404362376039
 21
137.60582844400099
 31
0.0
  0
LINE
  5
3A2C
  8
3
 10
186.10404362376039
 20
137.60582844400099
 30
0.0
 11
186.12207198420899
 21
137.61934971433749
 31
0.0
  0
LINE
  5
3A2D
  8
3
 10
186.0589727226388
 20
137.59230717366449
 30
0.0
 11
186.0724939929753
 21
137.59230717366449
 31
0.0
  0
LINE
  5
3A2E
  8
3
 10
186.27531304802221
 20
137.80414040893581
 30
0.0
 11
186.28883431835879
 21
137.83118294960869
 31
0.0
  0
LINE
  5
3A2F
  8
3
 10
186.28883431835879
 20
137.83118294960869
 30
0.0
 11
186.30235558869521
 21
137.91231057162759
 31
0.0
  0
LINE
  5
3A30
  8
3
 10
186.30235558869521
 20
137.91231057162759
 30
0.0
 11
186.30686267880731
 21
137.9979452837585
 31
0.0
  0
LINE
  5
3A31
  8
3
 10
186.26179177768589
 20
137.7906191385994
 30
0.0
 11
186.27531304802221
 21
137.80414040893581
 31
0.0
  0
LINE
  5
3A32
  8
3
 10
186.30686267880731
 20
137.9979452837585
 30
0.0
 11
186.3158768590317
 21
138.07907290577731
 31
0.0
  0
LINE
  5
3A33
  8
3
 10
185.71643387411501
 20
138.91739166663811
 30
0.0
 11
185.67136297299351
 21
138.90387039630161
 31
0.0
  0
LINE
  5
3A34
  8
3
 10
185.66685588288129
 20
138.61992371923591
 30
0.0
 11
185.69840551366639
 21
138.61992371923591
 31
0.0
  0
LINE
  5
3A35
  8
3
 10
185.69840551366639
 20
138.61992371923591
 30
0.0
 11
185.72995514445159
 21
138.62443080934801
 31
0.0
  0
LINE
  5
3A36
  8
3
 10
185.93728128961061
 20
139.01204055899339
 30
0.0
 11
185.8967174786012
 21
138.9895051084325
 31
0.0
  0
LINE
  5
3A37
  8
3
 10
185.8967174786012
 20
138.9895051084325
 30
0.0
 11
185.8516465774797
 21
138.9669696578718
 31
0.0
  0
LINE
  5
3A38
  8
3
 10
185.8516465774797
 20
138.9669696578718
 30
0.0
 11
185.81108276647029
 21
138.9489412974232
 31
0.0
  0
LINE
  5
3A39
  8
3
 10
185.81108276647029
 20
138.9489412974232
 30
0.0
 11
185.76150477523669
 21
138.93091293697461
 31
0.0
  0
LINE
  5
3A3A
  8
3
 10
185.97333801050789
 20
139.0390830996663
 30
0.0
 11
185.93728128961061
 21
139.01204055899339
 31
0.0
  0
LINE
  5
3A3B
  8
3
 10
186.32939812936809
 20
138.4892181059833
 30
0.0
 11
186.32489103925599
 21
138.5703457280022
 31
0.0
  0
LINE
  5
3A3C
  8
3
 10
186.32489103925599
 20
138.32696286194579
 30
0.0
 11
186.32939812936809
 21
138.4080904839646
 31
0.0
  0
LINE
  5
3A3D
  8
3
 10
186.32939812936809
 20
138.4080904839646
 30
0.0
 11
186.32939812936809
 21
138.4892181059833
 31
0.0
  0
LINE
  5
3A3E
  8
3
 10
185.76150477523669
 20
138.62443080934801
 30
0.0
 11
185.78854731590951
 21
138.62443080934801
 31
0.0
  0
LINE
  5
3A3F
  8
3
 10
185.78854731590951
 20
138.62443080934801
 30
0.0
 11
185.81558985658239
 21
138.62443080934801
 31
0.0
  0
LINE
  5
3A40
  8
3
 10
185.81558985658239
 20
138.62443080934801
 30
0.0
 11
185.84263239725539
 21
138.62443080934801
 31
0.0
  0
LINE
  5
3A41
  8
3
 10
185.84263239725539
 20
138.62443080934801
 30
0.0
 11
185.86967493792829
 21
138.62443080934801
 31
0.0
  0
LINE
  5
3A42
  8
3
 10
185.86967493792829
 20
138.62443080934801
 30
0.0
 11
185.8967174786012
 21
138.62443080934801
 31
0.0
  0
LINE
  5
3A43
  8
3
 10
185.8967174786012
 20
138.62443080934801
 30
0.0
 11
185.9237600192742
 21
138.6289378994602
 31
0.0
  0
LINE
  5
3A44
  8
3
 10
185.9237600192742
 20
138.6289378994602
 30
0.0
 11
185.95080255994711
 21
138.6289378994602
 31
0.0
  0
LINE
  5
3A45
  8
3
 10
185.95080255994711
 20
138.6289378994602
 30
0.0
 11
186.0048876412929
 21
138.6334449895723
 31
0.0
  0
LINE
  5
3A46
  8
3
 10
186.0048876412929
 20
138.6334449895723
 30
0.0
 11
186.00939473140511
 21
138.6289378994602
 31
0.0
  0
LINE
  5
3A47
  8
3
 10
186.00939473140511
 20
138.6289378994602
 30
0.0
 11
186.01390182151721
 21
138.6289378994602
 31
0.0
  0
LINE
  5
3A48
  8
3
 10
186.01390182151721
 20
138.6289378994602
 30
0.0
 11
186.01840891162951
 21
138.6289378994602
 31
0.0
  0
LINE
  5
3A49
  8
3
 10
186.01840891162951
 20
138.6289378994602
 30
0.0
 11
186.02291600174161
 21
138.6289378994602
 31
0.0
  0
LINE
  5
3A4A
  8
3
 10
186.02291600174161
 20
138.6289378994602
 30
0.0
 11
186.02742309185379
 21
138.6289378994602
 31
0.0
  0
LINE
  5
3A4B
  8
3
 10
186.02742309185379
 20
138.6289378994602
 30
0.0
 11
186.031930181966
 21
138.6289378994602
 31
0.0
  0
LINE
  5
3A4C
  8
3
 10
186.031930181966
 20
138.6289378994602
 30
0.0
 11
186.0364372720781
 21
138.6289378994602
 31
0.0
  0
LINE
  5
3A4D
  8
3
 10
186.0364372720781
 20
138.6289378994602
 30
0.0
 11
186.0364372720781
 21
138.62443080934801
 31
0.0
  0
LINE
  5
3A4E
  8
3
 10
186.0364372720781
 20
138.62443080934801
 30
0.0
 11
186.0409443621902
 21
138.62443080934801
 31
0.0
  0
LINE
  5
3A4F
  8
3
 10
186.0409443621902
 20
138.62443080934801
 30
0.0
 11
186.04545145230239
 21
138.62443080934801
 31
0.0
  0
LINE
  5
3A50
  8
3
 10
186.04545145230239
 20
138.62443080934801
 30
0.0
 11
186.04995854241449
 21
138.62443080934801
 31
0.0
  0
LINE
  5
3A51
  8
3
 10
186.04995854241449
 20
138.62443080934801
 30
0.0
 11
186.05446563252659
 21
138.62443080934801
 31
0.0
  0
ARC
  5
3A52
  8
3
 10
186.4145650540529
 20
138.76701777520259
 30
0.0
 40
0.1008760780793214
 50
191.95483737982951
 51
264.96835913918909
  0
LINE
  5
3A53
  8
3
 10
186.3158768590317
 20
138.73260097203979
 30
0.0
 11
186.31136976891949
 21
138.81372859405849
 31
0.0
  0
LINE
  5
3A54
  8
3
 10
186.50066755363
 20
138.75062933248839
 30
0.0
 11
186.3158768590317
 21
138.7461222423762
 31
0.0
  0
LINE
  5
3A55
  8
3
 10
186.4601037426207
 20
138.66048753024529
 30
0.0
 11
186.50066755363
 21
138.65598044013311
 31
0.0
  0
LINE
  5
3A56
  8
3
 10
186.405717630347
 20
138.666530431609
 30
0.0
 11
186.4601037426207
 21
138.66048753024529
 31
0.0
  0
LINE
  5
3A57
  8
3
 10
186.3158768590317
 20
138.7461222423762
 30
0.0
 11
186.3158768590317
 21
138.73260097203979
 31
0.0
  0
LINE
  5
3A58
  8
3
 10
186.32489103925599
 20
138.65147335002089
 30
0.0
 11
186.3158768590317
 21
138.73260097203979
 31
0.0
  0
LINE
  5
3A59
  8
3
 10
186.32489103925599
 20
138.5703457280022
 30
0.0
 11
186.32489103925599
 21
138.65147335002089
 31
0.0
  0
LINE
  5
3A5A
  8
3
 10
186.31136976891949
 20
138.81372859405849
 30
0.0
 11
186.30235558869521
 21
138.8948562160773
 31
0.0
  0
LINE
  5
3A5B
  8
3
 10
186.30235558869521
 20
138.8948562160773
 30
0.0
 11
186.29334140847089
 21
138.9804909282083
 31
0.0
  0
LINE
  5
3A5C
  8
3
 10
185.76150477523669
 20
138.93091293697461
 30
0.0
 11
185.71643387411501
 21
138.91739166663811
 31
0.0
  0
LINE
  5
3A5D
  8
3
 10
185.72995514445159
 20
138.62443080934801
 30
0.0
 11
185.76150477523669
 21
138.62443080934801
 31
0.0
  0
LINE
  5
3A5E
  8
3
 10
185.6353062520962
 20
139.76472460772331
 30
0.0
 11
185.6488275224327
 21
139.77373878794751
 31
0.0
  0
LINE
  5
3A5F
  8
3
 10
185.36488084536691
 20
139.84134513962991
 30
0.0
 11
185.36488084536691
 21
139.8188096890691
 31
0.0
  0
LINE
  5
3A60
  8
3
 10
184.79698749123551
 20
139.16528162280659
 30
0.0
 11
184.76543786045039
 21
139.2013383437039
 31
0.0
  0
LINE
  5
3A61
  8
3
 10
184.76543786045039
 20
139.2013383437039
 30
0.0
 11
184.7338882296653
 21
139.2419021547133
 31
0.0
  0
LINE
  5
3A62
  8
3
 10
184.7338882296653
 20
139.2419021547133
 30
0.0
 11
184.7023385988802
 21
139.28246596572271
 31
0.0
  0
LINE
  5
3A63
  8
3
 10
184.7023385988802
 20
139.28246596572271
 30
0.0
 11
184.67529605820721
 21
139.323029776732
 31
0.0
  0
LINE
  5
3A64
  8
3
 10
184.65276060764651
 20
139.36810067785359
 30
0.0
 11
184.6302251570857
 21
139.4131715789751
 31
0.0
  0
LINE
  5
3A65
  8
3
 10
184.6302251570857
 20
139.4131715789751
 30
0.0
 11
184.60768970652489
 21
139.46274957020881
 31
0.0
  0
LINE
  5
3A66
  8
3
 10
184.60768970652489
 20
139.46274957020881
 30
0.0
 11
184.5941684361884
 21
139.51232756144259
 31
0.0
  0
LINE
  5
3A67
  8
3
 10
184.67529605820721
 20
139.323029776732
 30
0.0
 11
184.65276060764651
 21
139.36810067785359
 31
0.0
  0
LINE
  5
3A68
  8
3
 10
185.36488084536691
 20
139.8188096890691
 30
0.0
 11
185.36488084536691
 21
139.79627423850829
 31
0.0
  0
LINE
  5
3A69
  8
3
 10
184.82853712202049
 20
139.1292249019094
 30
0.0
 11
184.79698749123551
 21
139.16528162280659
 31
0.0
  0
LINE
  5
3A6A
  8
3
 10
184.8645938429178
 20
139.0931681810122
 30
0.0
 11
184.82853712202049
 21
139.1292249019094
 31
0.0
  0
LINE
  5
3A6B
  8
3
 10
185.3693879354791
 20
139.75120333738681
 30
0.0
 11
185.3738950255912
 21
139.70162534615309
 31
0.0
  0
LINE
  5
3A6C
  8
3
 10
185.55417863007739
 20
139.70162534615309
 30
0.0
 11
185.56769990041391
 21
139.71063952637741
 31
0.0
  0
LINE
  5
3A6D
  8
3
 10
185.3738950255912
 20
139.70162534615309
 30
0.0
 11
185.38290920581559
 21
139.69261116592881
 31
0.0
  0
LINE
  5
3A6E
  8
3
 10
185.38290920581559
 20
139.69261116592881
 30
0.0
 11
185.38741629592781
 21
139.6881040758166
 31
0.0
  0
LINE
  5
3A6F
  8
3
 10
185.38741629592781
 20
139.6881040758166
 30
0.0
 11
185.39192338603991
 21
139.67908989559231
 31
0.0
  0
LINE
  5
3A70
  8
3
 10
185.39192338603991
 20
139.67908989559231
 30
0.0
 11
185.40093756626419
 21
139.6745828054801
 31
0.0
  0
LINE
  5
3A71
  8
3
 10
185.40093756626419
 20
139.6745828054801
 30
0.0
 11
185.4099517464885
 21
139.670075715368
 31
0.0
  0
LINE
  5
3A72
  8
3
 10
185.4099517464885
 20
139.670075715368
 30
0.0
 11
185.41896592671279
 21
139.66556862525579
 31
0.0
  0
LINE
  5
3A73
  8
3
 10
185.41896592671279
 20
139.66556862525579
 30
0.0
 11
185.4279801069371
 21
139.66556862525579
 31
0.0
  0
LINE
  5
3A74
  8
3
 10
185.4279801069371
 20
139.66556862525579
 30
0.0
 11
185.43699428716141
 21
139.66106153514369
 31
0.0
  0
LINE
  5
3A75
  8
3
 10
185.43699428716141
 20
139.66106153514369
 30
0.0
 11
185.4460084673857
 21
139.66106153514369
 31
0.0
  0
LINE
  5
3A76
  8
3
 10
185.4460084673857
 20
139.66106153514369
 30
0.0
 11
185.45502264761009
 21
139.6565544450315
 31
0.0
  0
LINE
  5
3A77
  8
3
 10
185.45502264761009
 20
139.6565544450315
 30
0.0
 11
185.46403682783441
 21
139.6565544450315
 31
0.0
  0
LINE
  5
3A78
  8
3
 10
185.46403682783441
 20
139.6565544450315
 30
0.0
 11
185.47755809817079
 21
139.6565544450315
 31
0.0
  0
LINE
  5
3A79
  8
3
 10
185.47755809817079
 20
139.6565544450315
 30
0.0
 11
185.4865722783951
 21
139.66106153514369
 31
0.0
  0
LINE
  5
3A7A
  8
3
 10
185.4865722783951
 20
139.66106153514369
 30
0.0
 11
185.4955864586195
 21
139.66106153514369
 31
0.0
  0
LINE
  5
3A7B
  8
3
 10
185.4955864586195
 20
139.66106153514369
 30
0.0
 11
185.5136148190681
 21
139.670075715368
 31
0.0
  0
LINE
  5
3A7C
  8
3
 10
185.5136148190681
 20
139.670075715368
 30
0.0
 11
185.52713608940451
 21
139.67908989559231
 31
0.0
  0
LINE
  5
3A7D
  8
3
 10
185.52713608940451
 20
139.67908989559231
 30
0.0
 11
185.53615026962891
 21
139.6881040758166
 31
0.0
  0
LINE
  5
3A7E
  8
3
 10
185.53615026962891
 20
139.6881040758166
 30
0.0
 11
185.54516444985319
 21
139.69711825604091
 31
0.0
  0
LINE
  5
3A7F
  8
3
 10
185.54516444985319
 20
139.69711825604091
 30
0.0
 11
185.55417863007739
 21
139.70162534615309
 31
0.0
  0
LINE
  5
3A80
  8
3
 10
185.36488084536691
 20
139.77373878794751
 30
0.0
 11
185.3693879354791
 21
139.75120333738681
 31
0.0
  0
LINE
  5
3A81
  8
3
 10
185.56769990041391
 20
139.71063952637741
 30
0.0
 11
185.57671408063831
 21
139.71965370660169
 31
0.0
  0
LINE
  5
3A82
  8
3
 10
185.57671408063831
 20
139.71965370660169
 30
0.0
 11
185.59023535097469
 21
139.728667886826
 31
0.0
  0
LINE
  5
3A83
  8
3
 10
185.59023535097469
 20
139.728667886826
 30
0.0
 11
185.59924953119901
 21
139.73768206705029
 31
0.0
  0
LINE
  5
3A84
  8
3
 10
185.59924953119901
 20
139.73768206705029
 30
0.0
 11
185.6127708015355
 21
139.7466962472746
 31
0.0
  0
LINE
  5
3A85
  8
3
 10
185.6127708015355
 20
139.7466962472746
 30
0.0
 11
185.62629207187189
 21
139.75571042749891
 31
0.0
  0
LINE
  5
3A86
  8
3
 10
185.62629207187189
 20
139.75571042749891
 30
0.0
 11
185.6353062520962
 21
139.76472460772331
 31
0.0
  0
LINE
  5
3A87
  8
3
 10
185.36488084536691
 20
139.79627423850829
 30
0.0
 11
185.36488084536691
 21
139.77373878794751
 31
0.0
  0
LINE
  5
3A88
  8
3
 10
185.36488084536691
 20
139.91345858142441
 30
0.0
 11
185.36488084536691
 21
139.8909231308636
 31
0.0
  0
LINE
  5
3A89
  8
3
 10
185.36488084536691
 20
139.8909231308636
 30
0.0
 11
185.36488084536691
 21
139.8638805901906
 31
0.0
  0
LINE
  5
3A8A
  8
3
 10
185.36488084536691
 20
139.8638805901906
 30
0.0
 11
185.36488084536691
 21
139.84134513962991
 31
0.0
  0
LINE
  5
3A8B
  8
3
 10
187.04602545720081
 20
139.07964691067571
 30
0.0
 11
187.05053254731291
 21
139.0435901897784
 31
0.0
  0
LINE
  5
3A8C
  8
3
 10
186.9603907450699
 20
136.0148256344103
 30
0.0
 11
186.7801071405836
 21
135.9291909222793
 31
0.0
  0
LINE
  5
3A8D
  8
3
 10
187.00546164619141
 20
135.29369121646539
 30
0.0
 11
187.00996873630351
 21
135.21256359444669
 31
0.0
  0
LINE
  5
3A8E
  8
3
 10
187.00996873630351
 20
135.13143597242791
 30
0.0
 11
187.01447582641569
 21
135.0503083504091
 31
0.0
  0
LINE
  5
3A8F
  8
3
 10
187.01447582641569
 20
135.0503083504091
 30
0.0
 11
187.01447582641569
 21
134.97368781850241
 31
0.0
  0
LINE
  5
3A90
  8
3
 10
187.01447582641569
 20
134.97368781850241
 30
0.0
 11
187.00996873630351
 21
134.89256019648371
 31
0.0
  0
LINE
  5
3A91
  8
3
 10
187.00996873630351
 20
135.21256359444669
 30
0.0
 11
187.00996873630351
 21
135.13143597242791
 31
0.0
  0
LINE
  5
3A92
  8
3
 10
186.54573845475161
 20
135.6632726056622
 30
0.0
 11
186.59080935587309
 21
135.65876551554999
 31
0.0
  0
LINE
  5
3A93
  8
3
 10
186.59080935587309
 20
135.65876551554999
 30
0.0
 11
186.6313731668825
 21
135.65425842543789
 31
0.0
  0
LINE
  5
3A94
  8
3
 10
186.6313731668825
 20
135.65425842543789
 30
0.0
 11
186.67644406800409
 21
135.6452442452136
 31
0.0
  0
LINE
  5
3A95
  8
3
 10
186.67644406800409
 20
135.6452442452136
 30
0.0
 11
186.71700787901341
 21
135.64073715510139
 31
0.0
  0
LINE
  5
3A96
  8
3
 10
186.71700787901341
 20
135.64073715510139
 30
0.0
 11
186.75757169002279
 21
135.63172297487711
 31
0.0
  0
LINE
  5
3A97
  8
3
 10
186.75757169002279
 20
135.63172297487711
 30
0.0
 11
186.8341922219295
 21
135.61369461442851
 31
0.0
  0
LINE
  5
3A98
  8
3
 10
186.8341922219295
 20
135.61369461442851
 30
0.0
 11
186.8522205823781
 21
135.60017334409201
 31
0.0
  0
LINE
  5
3A99
  8
3
 10
186.7801071405836
 20
135.9291909222793
 30
0.0
 11
186.60433062620959
 21
135.86158457059699
 31
0.0
  0
LINE
  5
3A9A
  8
3
 10
186.87024894282669
 20
135.5911591638677
 30
0.0
 11
186.88377021316319
 21
135.58214498364339
 31
0.0
  0
LINE
  5
3A9B
  8
3
 10
186.88377021316319
 20
135.58214498364339
 30
0.0
 11
186.8972914834996
 21
135.56862371330689
 31
0.0
  0
LINE
  5
3A9C
  8
3
 10
186.8972914834996
 20
135.56862371330689
 30
0.0
 11
186.91081275383621
 21
135.55510244297051
 31
0.0
  0
LINE
  5
3A9D
  8
3
 10
186.91081275383621
 20
135.55510244297051
 30
0.0
 11
186.92433402417259
 21
135.54158117263401
 31
0.0
  0
LINE
  5
3A9E
  8
3
 10
186.92433402417259
 20
135.54158117263401
 30
0.0
 11
186.93785529450909
 21
135.52805990229751
 31
0.0
  0
LINE
  5
3A9F
  8
3
 10
186.93785529450909
 20
135.52805990229751
 30
0.0
 11
186.9468694747334
 21
135.51003154184889
 31
0.0
  0
LINE
  5
3AA0
  8
3
 10
186.9468694747334
 20
135.51003154184889
 30
0.0
 11
186.95588365495769
 21
135.49651027151251
 31
0.0
  0
LINE
  5
3AA1
  8
3
 10
186.95588365495769
 20
135.49651027151251
 30
0.0
 11
186.964897835182
 21
135.4784819110638
 31
0.0
  0
LINE
  5
3AA2
  8
3
 10
186.964897835182
 20
135.4784819110638
 30
0.0
 11
186.97391201540631
 21
135.4604535506152
 31
0.0
  0
LINE
  5
3AA3
  8
3
 10
186.97391201540631
 20
135.4604535506152
 30
0.0
 11
186.9829261956306
 21
135.4424251901666
 31
0.0
  0
LINE
  5
3AA4
  8
3
 10
186.8522205823781
 20
135.60017334409201
 30
0.0
 11
186.87024894282669
 21
135.5911591638677
 31
0.0
  0
LINE
  5
3AA5
  8
3
 10
186.99644746596709
 20
135.4063684692693
 30
0.0
 11
187.00095455607919
 21
135.3748188384842
 31
0.0
  0
LINE
  5
3AA6
  8
3
 10
187.00095455607919
 20
135.3748188384842
 30
0.0
 11
187.00546164619141
 21
135.29369121646539
 31
0.0
  0
LINE
  5
3AA7
  8
3
 10
186.98743328574281
 20
135.42439682971801
 30
0.0
 11
186.99644746596709
 21
135.4063684692693
 31
0.0
  0
LINE
  5
3AA8
  8
3
 10
186.9829261956306
 20
135.4424251901666
 30
0.0
 11
186.98743328574281
 21
135.42439682971801
 31
0.0
  0
LINE
  5
3AA9
  8
3
 10
186.9829261956306
 20
137.5427291824308
 30
0.0
 11
186.9694049252941
 21
137.5156866417579
 31
0.0
  0
LINE
  5
3AAA
  8
3
 10
186.66292279766759
 20
136.76750968314019
 30
0.0
 11
186.69447242845271
 21
136.78553804358879
 31
0.0
  0
LINE
  5
3AAB
  8
3
 10
187.00996873630351
 20
137.04694927009371
 30
0.0
 11
187.00996873630351
 21
136.06440362564399
 31
0.0
  0
LINE
  5
3AAC
  8
3
 10
186.55925972508811
 20
136.71793169190639
 30
0.0
 11
186.5953164459853
 21
136.73145296224291
 31
0.0
  0
LINE
  5
3AAD
  8
3
 10
186.5953164459853
 20
136.73145296224291
 30
0.0
 11
186.6313731668825
 21
136.74948132269151
 31
0.0
  0
LINE
  5
3AAE
  8
3
 10
186.6313731668825
 20
136.74948132269151
 30
0.0
 11
186.66292279766759
 21
136.76750968314019
 31
0.0
  0
LINE
  5
3AAF
  8
3
 10
186.51869591407859
 20
136.69088915123351
 30
0.0
 11
186.55925972508811
 21
136.71793169190639
 31
0.0
  0
LINE
  5
3AB0
  8
3
 10
187.00996873630351
 20
136.06440362564399
 30
0.0
 11
187.00996873630351
 21
136.05989653553181
 31
0.0
  0
LINE
  5
3AB1
  8
3
 10
187.00996873630351
 20
136.05989653553181
 30
0.0
 11
187.00546164619141
 21
136.05538944541971
 31
0.0
  0
LINE
  5
3AB2
  8
3
 10
187.00546164619141
 20
136.05538944541971
 30
0.0
 11
187.00095455607919
 21
136.05538944541971
 31
0.0
  0
LINE
  5
3AB3
  8
3
 10
187.00095455607919
 20
136.05538944541971
 30
0.0
 11
186.99644746596709
 21
136.05538944541971
 31
0.0
  0
LINE
  5
3AB4
  8
3
 10
186.99644746596709
 20
136.05538944541971
 30
0.0
 11
186.99194037585499
 21
136.05088235530749
 31
0.0
  0
LINE
  5
3AB5
  8
3
 10
186.99194037585499
 20
136.05088235530749
 30
0.0
 11
186.98743328574281
 21
136.05088235530749
 31
0.0
  0
LINE
  5
3AB6
  8
3
 10
186.98743328574281
 20
136.05088235530749
 30
0.0
 11
186.9829261956306
 21
136.04637526519531
 31
0.0
  0
LINE
  5
3AB7
  8
3
 10
186.9829261956306
 20
136.04637526519531
 30
0.0
 11
186.97841910551841
 21
136.04637526519531
 31
0.0
  0
LINE
  5
3AB8
  8
3
 10
186.97841910551841
 20
136.04637526519531
 30
0.0
 11
186.9694049252941
 21
136.04637526519531
 31
0.0
  0
LINE
  5
3AB9
  8
3
 10
186.9694049252941
 20
136.04637526519531
 30
0.0
 11
186.9694049252941
 21
136.04186817508321
 31
0.0
  0
LINE
  5
3ABA
  8
3
 10
186.9694049252941
 20
136.04186817508321
 30
0.0
 11
186.9694049252941
 21
136.037361084971
 31
0.0
  0
LINE
  5
3ABB
  8
3
 10
186.9694049252941
 20
136.037361084971
 30
0.0
 11
186.9694049252941
 21
136.0328539948589
 31
0.0
  0
LINE
  5
3ABC
  8
3
 10
186.9694049252941
 20
136.0328539948589
 30
0.0
 11
186.964897835182
 21
136.0328539948589
 31
0.0
  0
LINE
  5
3ABD
  8
3
 10
186.964897835182
 20
136.0328539948589
 30
0.0
 11
186.964897835182
 21
136.02834690474671
 31
0.0
  0
LINE
  5
3ABE
  8
3
 10
186.964897835182
 20
136.02834690474671
 30
0.0
 11
186.964897835182
 21
136.02383981463461
 31
0.0
  0
LINE
  5
3ABF
  8
3
 10
186.964897835182
 20
136.02383981463461
 30
0.0
 11
186.964897835182
 21
136.0193327245224
 31
0.0
  0
LINE
  5
3AC0
  8
3
 10
186.964897835182
 20
136.0193327245224
 30
0.0
 11
186.9603907450699
 21
136.0148256344103
 31
0.0
  0
LINE
  5
3AC1
  8
3
 10
186.9603907450699
 20
137.4886441010849
 30
0.0
 11
186.9513765648455
 21
137.46160156041199
 31
0.0
  0
LINE
  5
3AC2
  8
3
 10
186.93785529450909
 20
137.43455901973911
 30
0.0
 11
186.92884111428481
 21
137.4120235691783
 31
0.0
  0
LINE
  5
3AC3
  8
3
 10
186.92884111428481
 20
137.4120235691783
 30
0.0
 11
186.91531984394831
 21
137.38498102850539
 31
0.0
  0
LINE
  5
3AC4
  8
3
 10
186.91531984394831
 20
137.38498102850539
 30
0.0
 11
186.90179857361181
 21
137.36244557794461
 31
0.0
  0
LINE
  5
3AC5
  8
3
 10
186.90179857361181
 20
137.36244557794461
 30
0.0
 11
186.8882773032754
 21
137.3354030372717
 31
0.0
  0
LINE
  5
3AC6
  8
3
 10
186.8882773032754
 20
137.3354030372717
 30
0.0
 11
186.8747560329389
 21
137.31286758671089
 31
0.0
  0
LINE
  5
3AC7
  8
3
 10
186.8747560329389
 20
137.31286758671089
 30
0.0
 11
186.86123476260241
 21
137.29033213615011
 31
0.0
  0
LINE
  5
3AC8
  8
3
 10
186.86123476260241
 20
137.29033213615011
 30
0.0
 11
186.847713492266
 21
137.2632895954772
 31
0.0
  0
LINE
  5
3AC9
  8
3
 10
186.847713492266
 20
137.2632895954772
 30
0.0
 11
186.82968513181731
 21
137.24075414491639
 31
0.0
  0
LINE
  5
3ACA
  8
3
 10
186.82968513181731
 20
137.24075414491639
 30
0.0
 11
186.79813550103219
 21
137.19568324379489
 31
0.0
  0
LINE
  5
3ACB
  8
3
 10
186.9513765648455
 20
137.46160156041199
 30
0.0
 11
186.93785529450909
 21
137.43455901973911
 31
0.0
  0
LINE
  5
3ACC
  8
3
 10
186.9694049252941
 20
137.5156866417579
 30
0.0
 11
186.9603907450699
 21
137.4886441010849
 31
0.0
  0
LINE
  5
3ACD
  8
3
 10
186.64489443721891
 20
137.0018783689722
 30
0.0
 11
186.5998235360974
 21
136.96131455796279
 31
0.0
  0
LINE
  5
3ACE
  8
3
 10
186.5998235360974
 20
136.96131455796279
 30
0.0
 11
186.5547526349759
 21
136.92075074695339
 31
0.0
  0
LINE
  5
3ACF
  8
3
 10
186.72602205923781
 20
137.0920201712153
 30
0.0
 11
186.6854582482284
 21
137.04694927009371
 31
0.0
  0
LINE
  5
3AD0
  8
3
 10
186.76207878013511
 20
137.14159816244899
 30
0.0
 11
186.72602205923781
 21
137.0920201712153
 31
0.0
  0
LINE
  5
3AD1
  8
3
 10
186.6854582482284
 20
137.04694927009371
 30
0.0
 11
186.64489443721891
 21
137.0018783689722
 31
0.0
  0
LINE
  5
3AD2
  8
3
 10
186.69447242845271
 20
136.78553804358879
 30
0.0
 11
186.72151496912559
 21
136.80356640403741
 31
0.0
  0
LINE
  5
3AD3
  8
3
 10
186.72151496912559
 20
136.80356640403741
 30
0.0
 11
186.75306459991069
 21
136.82610185459819
 31
0.0
  0
LINE
  5
3AD4
  8
3
 10
186.75306459991069
 20
136.82610185459819
 30
0.0
 11
186.7801071405836
 21
136.84413021504679
 31
0.0
  0
LINE
  5
3AD5
  8
3
 10
186.7801071405836
 20
136.84413021504679
 30
0.0
 11
186.8071496812565
 21
136.86666566560751
 31
0.0
  0
LINE
  5
3AD6
  8
3
 10
186.8071496812565
 20
136.86666566560751
 30
0.0
 11
186.82968513181731
 21
136.8846940260562
 31
0.0
  0
LINE
  5
3AD7
  8
3
 10
186.82968513181731
 20
136.8846940260562
 30
0.0
 11
186.85672767249019
 21
136.90722947661689
 31
0.0
  0
LINE
  5
3AD8
  8
3
 10
186.85672767249019
 20
136.90722947661689
 30
0.0
 11
186.88377021316319
 21
136.9297649271777
 31
0.0
  0
LINE
  5
3AD9
  8
3
 10
186.88377021316319
 20
136.9297649271777
 30
0.0
 11
186.906305663724
 21
136.95230037773851
 31
0.0
  0
LINE
  5
3ADA
  8
3
 10
186.906305663724
 20
136.95230037773851
 30
0.0
 11
186.93334820439691
 21
136.97483582829929
 31
0.0
  0
LINE
  5
3ADB
  8
3
 10
186.93334820439691
 20
136.97483582829929
 30
0.0
 11
186.9603907450699
 21
136.9973712788601
 31
0.0
  0
LINE
  5
3ADC
  8
3
 10
186.9603907450699
 20
136.9973712788601
 30
0.0
 11
187.00996873630351
 21
137.04694927009371
 31
0.0
  0
LINE
  5
3ADD
  8
3
 10
186.79813550103219
 20
137.19568324379489
 30
0.0
 11
186.76207878013511
 21
137.14159816244899
 31
0.0
  0
LINE
  5
3ADE
  8
3
 10
187.0415183670886
 20
138.32696286194579
 30
0.0
 11
187.05053254731291
 21
138.26837069048781
 31
0.0
  0
LINE
  5
3ADF
  8
3
 10
187.05503963742521
 20
138.1466792574596
 30
0.0
 11
187.05503963742521
 21
138.08357999588941
 31
0.0
  0
LINE
  5
3AE0
  8
3
 10
187.05053254731291
 20
138.26837069048781
 30
0.0
 11
187.05053254731291
 21
138.2052714289176
 31
0.0
  0
LINE
  5
3AE1
  8
3
 10
187.05053254731291
 20
138.2052714289176
 30
0.0
 11
187.05503963742521
 21
138.1466792574596
 31
0.0
  0
LINE
  5
3AE2
  8
3
 10
187.03250418686429
 20
137.8356900397209
 30
0.0
 11
187.02349000664
 21
137.7770978682629
 31
0.0
  0
LINE
  5
3AE3
  8
3
 10
187.02349000664
 20
137.7770978682629
 30
0.0
 11
187.01447582641569
 21
137.71850569680481
 31
0.0
  0
LINE
  5
3AE4
  8
3
 10
187.01447582641569
 20
137.71850569680481
 30
0.0
 11
186.99644746596709
 21
137.60132135388881
 31
0.0
  0
LINE
  5
3AE5
  8
3
 10
186.99644746596709
 20
137.60132135388881
 30
0.0
 11
186.99194037585499
 21
137.56977172310371
 31
0.0
  0
LINE
  5
3AE6
  8
3
 10
186.99194037585499
 20
137.56977172310371
 30
0.0
 11
186.9829261956306
 21
137.5427291824308
 31
0.0
  0
LINE
  5
3AE7
  8
3
 10
187.05053254731291
 20
138.02048073431919
 30
0.0
 11
187.04602545720081
 21
137.96188856286119
 31
0.0
  0
LINE
  5
3AE8
  8
3
 10
187.04602545720081
 20
137.96188856286119
 30
0.0
 11
187.0415183670886
 21
137.89878930129109
 31
0.0
  0
LINE
  5
3AE9
  8
3
 10
187.0415183670886
 20
137.89878930129109
 30
0.0
 11
187.03250418686429
 21
137.8356900397209
 31
0.0
  0
LINE
  5
3AEA
  8
3
 10
187.05503963742521
 20
138.08357999588941
 30
0.0
 11
187.05053254731291
 21
138.02048073431919
 31
0.0
  0
LINE
  5
3AEB
  8
3
 10
187.05053254731291
 20
139.00753346888121
 30
0.0
 11
187.05053254731291
 21
138.97598383809611
 31
0.0
  0
LINE
  5
3AEC
  8
3
 10
187.05053254731291
 20
138.97598383809611
 30
0.0
 11
187.05053254731291
 21
138.93992711719881
 31
0.0
  0
LINE
  5
3AED
  8
3
 10
187.05053254731291
 20
139.0435901897784
 30
0.0
 11
187.05053254731291
 21
139.00753346888121
 31
0.0
  0
LINE
  5
3AEE
  8
3
 10
186.97391201540631
 20
138.5613315477778
 30
0.0
 11
186.99644746596709
 21
138.50273937631979
 31
0.0
  0
LINE
  5
3AEF
  8
3
 10
186.99644746596709
 20
138.50273937631979
 30
0.0
 11
187.01447582641569
 21
138.44414720486179
 31
0.0
  0
LINE
  5
3AF0
  8
3
 10
187.03250418686429
 20
138.39006212351589
 30
0.0
 11
187.0415183670886
 21
138.32696286194579
 31
0.0
  0
LINE
  5
3AF1
  8
3
 10
187.01447582641569
 20
138.44414720486179
 30
0.0
 11
187.03250418686429
 21
138.39006212351589
 31
0.0
  0
LINE
  5
3AF2
  8
3
 10
187.05053254731291
 20
138.90387039630161
 30
0.0
 11
187.04602545720081
 21
138.8723207655166
 31
0.0
  0
LINE
  5
3AF3
  8
3
 10
186.68095115811619
 20
138.7551364226006
 30
0.0
 11
186.6313731668825
 21
138.7551364226006
 31
0.0
  0
LINE
  5
3AF4
  8
3
 10
186.6313731668825
 20
138.7551364226006
 30
0.0
 11
186.57278099542449
 21
138.7551364226006
 31
0.0
  0
LINE
  5
3AF5
  8
3
 10
186.54573845475161
 20
138.65598044013311
 30
0.0
 11
186.58630226576099
 21
138.65147335002089
 31
0.0
  0
LINE
  5
3AF6
  8
3
 10
186.58630226576099
 20
138.65147335002089
 30
0.0
 11
186.6268660767704
 21
138.65147335002089
 31
0.0
  0
LINE
  5
3AF7
  8
3
 10
186.6268660767704
 20
138.65147335002089
 30
0.0
 11
186.6719369778919
 21
138.64696625990879
 31
0.0
  0
LINE
  5
3AF8
  8
3
 10
187.00095455607919
 20
138.7641506028248
 30
0.0
 11
186.9603907450699
 21
138.7596435127127
 31
0.0
  0
LINE
  5
3AF9
  8
3
 10
186.9603907450699
 20
138.7596435127127
 30
0.0
 11
186.92433402417259
 21
138.7551364226006
 31
0.0
  0
LINE
  5
3AFA
  8
3
 10
186.92433402417259
 20
138.7551364226006
 30
0.0
 11
186.8972914834996
 21
138.7551364226006
 31
0.0
  0
LINE
  5
3AFB
  8
3
 10
186.8972914834996
 20
138.7551364226006
 30
0.0
 11
186.87024894282669
 21
138.7551364226006
 31
0.0
  0
LINE
  5
3AFC
  8
3
 10
186.87024894282669
 20
138.7551364226006
 30
0.0
 11
186.84320640215381
 21
138.7551364226006
 31
0.0
  0
LINE
  5
3AFD
  8
3
 10
186.84320640215381
 20
138.7551364226006
 30
0.0
 11
186.8161638614809
 21
138.7551364226006
 31
0.0
  0
LINE
  5
3AFE
  8
3
 10
186.8161638614809
 20
138.7551364226006
 30
0.0
 11
186.78912132080791
 21
138.7551364226006
 31
0.0
  0
LINE
  5
3AFF
  8
3
 10
186.78912132080791
 20
138.7551364226006
 30
0.0
 11
186.75757169002279
 21
138.7551364226006
 31
0.0
  0
LINE
  5
3B00
  8
3
 10
186.75757169002279
 20
138.7551364226006
 30
0.0
 11
186.72151496912559
 21
138.7551364226006
 31
0.0
  0
LINE
  5
3B01
  8
3
 10
186.7125007889012
 20
138.64245916979661
 30
0.0
 11
186.75306459991069
 21
138.63795207968451
 31
0.0
  0
LINE
  5
3B02
  8
3
 10
186.75306459991069
 20
138.63795207968451
 30
0.0
 11
186.79362841092009
 21
138.6334449895723
 31
0.0
  0
LINE
  5
3B03
  8
3
 10
186.79362841092009
 20
138.6334449895723
 30
0.0
 11
186.82968513181731
 21
138.62443080934801
 31
0.0
  0
LINE
  5
3B04
  8
3
 10
186.82968513181731
 20
138.62443080934801
 30
0.0
 11
186.87024894282669
 21
138.6109095390116
 31
0.0
  0
LINE
  5
3B05
  8
3
 10
186.87024894282669
 20
138.6109095390116
 30
0.0
 11
186.906305663724
 21
138.5973882686751
 31
0.0
  0
LINE
  5
3B06
  8
3
 10
187.04602545720081
 20
138.76865769293701
 30
0.0
 11
187.00095455607919
 21
138.7641506028248
 31
0.0
  0
LINE
  5
3B07
  8
3
 10
186.906305663724
 20
138.5973882686751
 30
0.0
 11
186.97391201540631
 21
138.5613315477778
 31
0.0
  0
LINE
  5
3B08
  8
3
 10
187.04602545720081
 20
138.8362640446193
 30
0.0
 11
187.04602545720081
 21
138.76865769293701
 31
0.0
  0
LINE
  5
3B09
  8
3
 10
186.72151496912559
 20
138.7551364226006
 30
0.0
 11
186.68095115811619
 21
138.7551364226006
 31
0.0
  0
LINE
  5
3B0A
  8
3
 10
186.6719369778919
 20
138.64696625990879
 30
0.0
 11
186.7125007889012
 21
138.64245916979661
 31
0.0
  0
LINE
  5
3B0B
  8
3
 10
187.04602545720081
 20
138.8723207655166
 30
0.0
 11
187.04602545720081
 21
138.8362640446193
 31
0.0
  0
LINE
  5
3B0C
  8
3
 10
187.05053254731291
 20
138.93992711719881
 30
0.0
 11
187.05053254731291
 21
138.90387039630161
 31
0.0
  0
LINE
  5
3B0D
  8
3
 10
186.56376681520021
 20
139.84585222974201
 30
0.0
 11
186.60433062620959
 21
139.8233167791812
 31
0.0
  0
LINE
  5
3B0E
  8
3
 10
186.60433062620959
 20
139.8233167791812
 30
0.0
 11
186.64489443721891
 21
139.8007813286205
 31
0.0
  0
LINE
  5
3B0F
  8
3
 10
186.9829261956306
 20
139.408664488863
 30
0.0
 11
187.00996873630351
 21
139.32753686684421
 31
0.0
  0
LINE
  5
3B10
  8
3
 10
187.0415183670886
 20
139.1833099832553
 30
0.0
 11
187.0415183670886
 21
139.14725326235799
 31
0.0
  0
LINE
  5
3B11
  8
3
 10
187.0415183670886
 20
139.14725326235799
 30
0.0
 11
187.04602545720081
 21
139.1157036315729
 31
0.0
  0
LINE
  5
3B12
  8
3
 10
187.04602545720081
 20
139.1157036315729
 30
0.0
 11
187.04602545720081
 21
139.07964691067571
 31
0.0
  0
LINE
  5
3B13
  8
3
 10
187.02799709675219
 20
139.25542342504971
 30
0.0
 11
187.0370112769765
 21
139.21936670415249
 31
0.0
  0
LINE
  5
3B14
  8
3
 10
187.0370112769765
 20
139.21936670415249
 30
0.0
 11
187.0415183670886
 21
139.1833099832553
 31
0.0
  0
LINE
  5
3B15
  8
3
 10
187.02349000664
 20
139.29148014594699
 30
0.0
 11
187.02799709675219
 21
139.25542342504971
 31
0.0
  0
LINE
  5
3B16
  8
3
 10
187.00996873630351
 20
139.32753686684421
 30
0.0
 11
187.02349000664
 21
139.29148014594699
 31
0.0
  0
LINE
  5
3B17
  8
3
 10
186.75306459991069
 20
139.7241607967139
 30
0.0
 11
186.78461423069581
 21
139.69261116592881
 31
0.0
  0
LINE
  5
3B18
  8
3
 10
186.78461423069581
 20
139.69261116592881
 30
0.0
 11
186.8161638614809
 21
139.66106153514369
 31
0.0
  0
LINE
  5
3B19
  8
3
 10
186.8161638614809
 20
139.66106153514369
 30
0.0
 11
186.84320640215381
 21
139.62951190435859
 31
0.0
  0
LINE
  5
3B1A
  8
3
 10
186.84320640215381
 20
139.62951190435859
 30
0.0
 11
186.8747560329389
 21
139.5979622735735
 31
0.0
  0
LINE
  5
3B1B
  8
3
 10
186.8747560329389
 20
139.5979622735735
 30
0.0
 11
186.8972914834996
 21
139.56190555267631
 31
0.0
  0
LINE
  5
3B1C
  8
3
 10
186.8972914834996
 20
139.56190555267631
 30
0.0
 11
186.92433402417259
 21
139.525848831779
 31
0.0
  0
LINE
  5
3B1D
  8
3
 10
186.92433402417259
 20
139.525848831779
 30
0.0
 11
186.9423623846213
 21
139.4852850207696
 31
0.0
  0
LINE
  5
3B1E
  8
3
 10
186.9423623846213
 20
139.4852850207696
 30
0.0
 11
186.964897835182
 21
139.4492282998724
 31
0.0
  0
LINE
  5
3B1F
  8
3
 10
186.964897835182
 20
139.4492282998724
 30
0.0
 11
186.9829261956306
 21
139.408664488863
 31
0.0
  0
LINE
  5
3B20
  8
3
 10
186.71700787901341
 20
139.75120333738681
 30
0.0
 11
186.75306459991069
 21
139.7241607967139
 31
0.0
  0
LINE
  5
3B21
  8
3
 10
186.68095115811619
 20
139.77824587805969
 30
0.0
 11
186.71700787901341
 21
139.75120333738681
 31
0.0
  0
LINE
  5
3B22
  8
3
 10
186.64489443721891
 20
139.8007813286205
 30
0.0
 11
186.68095115811619
 21
139.77824587805969
 31
0.0
  0
LINE
  5
3B23
  8
3
 10
184.5671258955156
 20
141.05375237979959
 30
0.0
 11
184.5716329856277
 21
141.13938709193059
 31
0.0
  0
LINE
  5
3B24
  8
3
 10
184.57614007573989
 20
140.97713184789291
 30
0.0
 11
184.5671258955156
 21
141.05375237979959
 31
0.0
  0
CIRCLE
  5
3B25
  8
3
 10
184.74372665985621
 20
142.3989960839213
 30
0.0
 40
0.180725893852164
  0
LINE
  5
3B26
  8
3
 10
184.5671258955156
 20
140.10726345624701
 30
0.0
 11
185.35135957503061
 21
140.10726345624701
 31
0.0
  0
LINE
  5
3B27
  8
3
 10
184.5671258955156
 20
139.92247276164869
 30
0.0
 11
184.5671258955156
 21
139.95402239243381
 31
0.0
  0
LINE
  5
3B28
  8
3
 10
184.5671258955156
 20
140.0441641946768
 30
0.0
 11
184.5671258955156
 21
140.10726345624701
 31
0.0
  0
LINE
  5
3B29
  8
3
 10
184.5671258955156
 20
139.95402239243381
 30
0.0
 11
184.5671258955156
 21
139.98106493310669
 31
0.0
  0
LINE
  5
3B2A
  8
3
 10
184.5671258955156
 20
139.98106493310669
 30
0.0
 11
184.5671258955156
 21
140.01261456389179
 31
0.0
  0
LINE
  5
3B2B
  8
3
 10
184.5671258955156
 20
140.01261456389179
 30
0.0
 11
184.5671258955156
 21
140.0441641946768
 31
0.0
  0
LINE
  5
3B2C
  8
3
 10
185.2071326914415
 20
140.17937689804151
 30
0.0
 11
185.17107597054431
 21
140.18839107826579
 31
0.0
  0
LINE
  5
3B2D
  8
3
 10
185.62629207187189
 20
140.20641943871439
 30
0.0
 11
185.5586857201896
 21
140.26050452006029
 31
0.0
  0
LINE
  5
3B2E
  8
3
 10
185.5586857201896
 20
140.26050452006029
 30
0.0
 11
185.5586857201896
 21
140.26501161017239
 31
0.0
  0
LINE
  5
3B2F
  8
3
 10
185.5586857201896
 20
140.26501161017239
 30
0.0
 11
185.55417863007739
 21
140.26501161017239
 31
0.0
  0
LINE
  5
3B30
  8
3
 10
185.55417863007739
 20
140.26501161017239
 30
0.0
 11
185.55417863007739
 21
140.26951870028461
 31
0.0
  0
LINE
  5
3B31
  8
3
 10
185.55417863007739
 20
140.26951870028461
 30
0.0
 11
185.55417863007739
 21
140.27402579039671
 31
0.0
  0
LINE
  5
3B32
  8
3
 10
185.55417863007739
 20
140.27402579039671
 30
0.0
 11
185.54967153996529
 21
140.27853288050889
 31
0.0
  0
LINE
  5
3B33
  8
3
 10
185.54967153996529
 20
140.27853288050889
 30
0.0
 11
185.54967153996529
 21
140.2830399706211
 31
0.0
  0
LINE
  5
3B34
  8
3
 10
185.54967153996529
 20
140.2830399706211
 30
0.0
 11
185.54967153996529
 21
140.2875470607332
 31
0.0
  0
LINE
  5
3B35
  8
3
 10
185.54967153996529
 20
140.2875470607332
 30
0.0
 11
185.54516444985319
 21
140.29205415084539
 31
0.0
  0
LINE
  5
3B36
  8
3
 10
185.36037375525481
 20
140.1523343573686
 30
0.0
 11
185.36488084536691
 21
140.10726345624701
 31
0.0
  0
LINE
  5
3B37
  8
3
 10
185.36488084536691
 20
140.10726345624701
 30
0.0
 11
185.3693879354791
 21
140.06669964523761
 31
0.0
  0
LINE
  5
3B38
  8
3
 10
185.3693879354791
 20
140.0306429243403
 30
0.0
 11
185.3693879354791
 21
139.99909329355529
 31
0.0
  0
LINE
  5
3B39
  8
3
 10
185.3693879354791
 20
139.99909329355529
 30
0.0
 11
185.3693879354791
 21
139.9675436627702
 31
0.0
  0
LINE
  5
3B3A
  8
3
 10
185.3693879354791
 20
140.06669964523761
 30
0.0
 11
185.3693879354791
 21
140.0306429243403
 31
0.0
  0
LINE
  5
3B3B
  8
3
 10
185.38290920581559
 20
140.31458960140611
 30
0.0
 11
185.36037375525481
 21
140.1523343573686
 31
0.0
  0
LINE
  5
3B3C
  8
3
 10
185.17107597054431
 20
140.18839107826579
 30
0.0
 11
185.1305121595349
 21
140.19740525849011
 31
0.0
  0
LINE
  5
3B3D
  8
3
 10
185.38290920581559
 20
140.40022431353711
 30
0.0
 11
185.38290920581559
 21
140.31458960140611
 31
0.0
  0
LINE
  5
3B3E
  8
3
 10
185.0133278166189
 20
140.2109265288266
 30
0.0
 11
184.97727109572159
 21
140.21994070905089
 31
0.0
  0
LINE
  5
3B3F
  8
3
 10
185.73896932467579
 20
140.14332017714429
 30
0.0
 11
185.69840551366639
 21
140.16585562770501
 31
0.0
  0
LINE
  5
3B40
  8
3
 10
185.69840551366639
 20
140.16585562770501
 30
0.0
 11
185.66234879276919
 21
140.1838839881537
 31
0.0
  0
LINE
  5
3B41
  8
3
 10
186.0409443621902
 20
140.05768546501329
 30
0.0
 11
185.9958734610687
 21
140.06669964523761
 31
0.0
  0
LINE
  5
3B42
  8
3
 10
185.9958734610687
 20
140.06669964523761
 30
0.0
 11
185.95080255994711
 21
140.07571382546189
 31
0.0
  0
LINE
  5
3B43
  8
3
 10
185.95080255994711
 20
140.07571382546189
 30
0.0
 11
185.9057316588256
 21
140.0847280056862
 31
0.0
  0
LINE
  5
3B44
  8
3
 10
185.9057316588256
 20
140.0847280056862
 30
0.0
 11
185.86066075770401
 21
140.0982492760227
 31
0.0
  0
LINE
  5
3B45
  8
3
 10
185.86066075770401
 20
140.0982492760227
 30
0.0
 11
185.8200969466946
 21
140.1117705463592
 31
0.0
  0
LINE
  5
3B46
  8
3
 10
185.8200969466946
 20
140.1117705463592
 30
0.0
 11
185.7795331356852
 21
140.12979890680779
 31
0.0
  0
LINE
  5
3B47
  8
3
 10
186.1896783358913
 20
139.92697985176079
 30
0.0
 11
186.2437634172372
 21
139.92697985176079
 31
0.0
  0
LINE
  5
3B48
  8
3
 10
186.22122796667639
 20
140.04867128478901
 30
0.0
 11
186.17615706555489
 21
140.04867128478901
 31
0.0
  0
LINE
  5
3B49
  8
3
 10
186.1310861644333
 20
139.92697985176079
 30
0.0
 11
186.1896783358913
 21
139.92697985176079
 31
0.0
  0
LINE
  5
3B4A
  8
3
 10
186.17615706555489
 20
140.04867128478901
 30
0.0
 11
186.1310861644333
 21
140.04867128478901
 31
0.0
  0
LINE
  5
3B4B
  8
3
 10
186.08601526331171
 20
140.05317837490111
 30
0.0
 11
186.0409443621902
 21
140.05768546501329
 31
0.0
  0
LINE
  5
3B4C
  8
3
 10
186.0770010830874
 20
139.92247276164869
 30
0.0
 11
186.1310861644333
 21
139.92697985176079
 31
0.0
  0
LINE
  5
3B4D
  8
3
 10
186.1310861644333
 20
140.04867128478901
 30
0.0
 11
186.08601526331171
 21
140.05317837490111
 31
0.0
  0
LINE
  5
3B4E
  8
3
 10
186.4060186612748
 20
140.0847280056862
 30
0.0
 11
186.34742648981671
 21
140.07120673534979
 31
0.0
  0
LINE
  5
3B4F
  8
3
 10
186.4646108327328
 20
140.10275636613491
 30
0.0
 11
186.4060186612748
 21
140.0847280056862
 31
0.0
  0
LINE
  5
3B50
  8
3
 10
186.34742648981671
 20
140.07120673534979
 30
0.0
 11
186.22122796667639
 21
140.04867128478901
 31
0.0
  0
LINE
  5
3B51
  8
3
 10
185.7795331356852
 20
140.12979890680779
 30
0.0
 11
185.73896932467579
 21
140.14332017714429
 31
0.0
  0
LINE
  5
3B52
  8
3
 10
184.5941684361884
 20
141.31516360630459
 30
0.0
 11
184.61219679663711
 21
141.40079831843551
 31
0.0
  0
LINE
  5
3B53
  8
3
 10
185.45952973772231
 20
141.38276995798691
 30
0.0
 11
185.423473016825
 21
141.31516360630459
 31
0.0
  0
LINE
  5
3B54
  8
3
 10
184.58064716585201
 20
140.6751568103785
 30
0.0
 11
184.58064716585201
 21
140.7112135312758
 31
0.0
  0
LINE
  5
3B55
  8
3
 10
184.58064716585201
 20
140.7112135312758
 30
0.0
 11
184.58064716585201
 21
140.75177734228521
 31
0.0
  0
LINE
  5
3B56
  8
3
 10
184.58064716585201
 20
140.7878340631824
 30
0.0
 11
184.58064716585201
 21
140.82389078407971
 31
0.0
  0
LINE
  5
3B57
  8
3
 10
184.58064716585201
 20
140.90051131598631
 30
0.0
 11
184.58064716585201
 21
140.94107512699571
 31
0.0
  0
LINE
  5
3B58
  8
3
 10
184.58064716585201
 20
140.86445459508909
 30
0.0
 11
184.58064716585201
 21
140.90051131598631
 31
0.0
  0
LINE
  5
3B59
  8
3
 10
184.58064716585201
 20
140.82389078407971
 30
0.0
 11
184.58064716585201
 21
140.86445459508909
 31
0.0
  0
LINE
  5
3B5A
  8
3
 10
184.58064716585201
 20
140.94107512699571
 30
0.0
 11
184.57614007573989
 21
140.97713184789291
 31
0.0
  0
LINE
  5
3B5B
  8
3
 10
184.58064716585201
 20
141.2295288941736
 30
0.0
 11
184.5941684361884
 21
141.31516360630459
 31
0.0
  0
LINE
  5
3B5C
  8
3
 10
184.5716329856277
 20
141.13938709193059
 30
0.0
 11
184.58064716585201
 21
141.2295288941736
 31
0.0
  0
LINE
  5
3B5D
  8
3
 10
184.58064716585201
 20
140.75177734228521
 30
0.0
 11
184.58064716585201
 21
140.7878340631824
 31
0.0
  0
LINE
  5
3B5E
  8
3
 10
184.5851542559642
 20
140.5985362784719
 30
0.0
 11
184.5851542559642
 21
140.6391000894813
 31
0.0
  0
LINE
  5
3B5F
  8
3
 10
184.5851542559642
 20
140.6391000894813
 30
0.0
 11
184.58064716585201
 21
140.6751568103785
 31
0.0
  0
LINE
  5
3B60
  8
3
 10
185.36488084536691
 20
140.82839787419181
 30
0.0
 11
185.3693879354791
 21
140.7427631620609
 31
0.0
  0
LINE
  5
3B61
  8
3
 10
185.37840211570341
 20
141.16192254249131
 30
0.0
 11
185.3693879354791
 21
141.0807949204725
 31
0.0
  0
LINE
  5
3B62
  8
3
 10
185.36488084536691
 20
140.99966729845369
 30
0.0
 11
185.36488084536691
 21
140.91403258632269
 31
0.0
  0
LINE
  5
3B63
  8
3
 10
185.36488084536691
 20
140.91403258632269
 30
0.0
 11
185.36488084536691
 21
140.82839787419181
 31
0.0
  0
LINE
  5
3B64
  8
3
 10
185.3693879354791
 20
141.0807949204725
 30
0.0
 11
185.36488084536691
 21
140.99966729845369
 31
0.0
  0
LINE
  5
3B65
  8
3
 10
185.423473016825
 20
141.31516360630459
 30
0.0
 11
185.39643047615209
 21
141.23854307439791
 31
0.0
  0
LINE
  5
3B66
  8
3
 10
185.39643047615209
 20
141.23854307439791
 30
0.0
 11
185.37840211570341
 21
141.16192254249131
 31
0.0
  0
LINE
  5
3B67
  8
3
 10
185.3693879354791
 20
140.7427631620609
 30
0.0
 11
185.3738950255912
 21
140.65712844993001
 31
0.0
  0
LINE
  5
3B68
  8
3
 10
184.76543786045039
 20
141.7884080680808
 30
0.0
 11
184.8105087615719
 21
141.8560144197632
 31
0.0
  0
LINE
  5
3B69
  8
3
 10
184.69332441865581
 20
141.6396740943797
 30
0.0
 11
184.7248740494409
 21
141.71629462628641
 31
0.0
  0
LINE
  5
3B6A
  8
3
 10
184.6617747878708
 20
141.5630535624731
 30
0.0
 11
184.69332441865581
 21
141.6396740943797
 31
0.0
  0
LINE
  5
3B6B
  8
3
 10
184.7248740494409
 20
141.71629462628641
 30
0.0
 11
184.76543786045039
 21
141.7884080680808
 31
0.0
  0
LINE
  5
3B6C
  8
3
 10
184.61219679663711
 20
141.40079831843551
 30
0.0
 11
184.6347322471978
 21
141.48192594045429
 31
0.0
  0
LINE
  5
3B6D
  8
3
 10
184.6347322471978
 20
141.48192594045429
 30
0.0
 11
184.6617747878708
 21
141.5630535624731
 31
0.0
  0
LINE
  5
3B6E
  8
3
 10
184.8105087615719
 20
141.8560144197632
 30
0.0
 11
184.8555796626934
 21
141.92362077144551
 31
0.0
  0
LINE
  5
3B6F
  8
3
 10
184.8555796626934
 20
141.92362077144551
 30
0.0
 11
184.9051576539272
 21
141.98221294290349
 31
0.0
  0
LINE
  5
3B70
  8
3
 10
184.9051576539272
 20
141.98221294290349
 30
0.0
 11
184.95924273527299
 21
142.04080511436149
 31
0.0
  0
LINE
  5
3B71
  8
3
 10
185.53164317951681
 20
141.4503763096692
 30
0.0
 11
185.52713608940451
 21
141.4503763096692
 31
0.0
  0
LINE
  5
3B72
  8
3
 10
185.52713608940451
 20
141.4503763096692
 30
0.0
 11
185.52262899929229
 21
141.4503763096692
 31
0.0
  0
LINE
  5
3B73
  8
3
 10
185.52262899929229
 20
141.4503763096692
 30
0.0
 11
185.51812190918019
 21
141.4503763096692
 31
0.0
  0
LINE
  5
3B74
  8
3
 10
185.51812190918019
 20
141.4503763096692
 30
0.0
 11
185.5136148190681
 21
141.4503763096692
 31
0.0
  0
LINE
  5
3B75
  8
3
 10
185.5136148190681
 20
141.4503763096692
 30
0.0
 11
185.50910772895591
 21
141.4503763096692
 31
0.0
  0
LINE
  5
3B76
  8
3
 10
185.50910772895591
 20
141.4503763096692
 30
0.0
 11
185.5000935487316
 21
141.45488339978141
 31
0.0
  0
LINE
  5
3B77
  8
3
 10
185.5000935487316
 20
141.45488339978141
 30
0.0
 11
185.45952973772231
 21
141.38276995798691
 31
0.0
  0
LINE
  5
3B78
  8
3
 10
184.95924273527299
 20
142.04080511436149
 30
0.0
 11
185.01783490673111
 21
142.09489019570739
 31
0.0
  0
POLYLINE
  5
3B79
  8
3
 66
     1
 10
0.0
 20
0.0
 30
0.0
 70
     1
  0
VERTEX
  5
3DCB
  8
3
 10
186.08150817319961
 20
140.8554404148648
 30
0.0
  0
VERTEX
  5
3DCC
  8
3
 10
186.08150817319961
 20
141.4864330305665
 30
0.0
  0
VERTEX
  5
3DCD
  8
3
 10
186.09052235342389
 20
141.4909401206786
 30
0.0
  0
VERTEX
  5
3DCE
  8
3
 10
186.09953653364821
 20
141.49544721079079
 30
0.0
  0
VERTEX
  5
3DCF
  8
3
 10
186.10404362376039
 20
141.49544721079079
 30
0.0
  0
VERTEX
  5
3DD0
  8
3
 10
186.1130578039847
 20
141.49544721079079
 30
0.0
  0
VERTEX
  5
3DD1
  8
3
 10
186.1175648940968
 20
141.4909401206786
 30
0.0
  0
VERTEX
  5
3DD2
  8
3
 10
186.12657907432111
 20
141.4864330305665
 30
0.0
  0
VERTEX
  5
3DD3
  8
3
 10
186.13559325454551
 20
141.48192594045429
 30
0.0
  0
VERTEX
  5
3DD4
  8
3
 10
186.1446074347698
 20
141.47291176023001
 30
0.0
  0
VERTEX
  5
3DD5
  8
3
 10
186.1491145248819
 20
141.46389758000569
 30
0.0
  0
VERTEX
  5
3DD6
  8
3
 10
186.15812870510621
 20
141.45488339978141
 30
0.0
  0
VERTEX
  5
3DD7
  8
3
 10
186.16714288533061
 20
141.4458692195571
 30
0.0
  0
VERTEX
  5
3DD8
  8
3
 10
186.17615706555489
 20
141.43685503933281
 30
0.0
  0
VERTEX
  5
3DD9
  8
3
 10
186.18066415566699
 20
141.42784085910839
 30
0.0
  0
VERTEX
  5
3DDA
  8
3
 10
186.1896783358913
 20
141.4188266788841
 30
0.0
  0
VERTEX
  5
3DDB
  8
3
 10
186.20319960622771
 20
141.40530540854769
 30
0.0
  0
VERTEX
  5
3DDC
  8
3
 10
186.22122796667639
 20
141.3782628678747
 30
0.0
  0
VERTEX
  5
3DDD
  8
3
 10
186.23925632712499
 20
141.3467132370896
 30
0.0
  0
VERTEX
  5
3DDE
  8
3
 10
186.25277759746149
 20
141.31967069641681
 30
0.0
  0
VERTEX
  5
3DDF
  8
3
 10
186.26179177768589
 20
141.29262815574381
 30
0.0
  0
VERTEX
  5
3DE0
  8
3
 10
186.27080595791011
 20
141.26107852495869
 30
0.0
  0
VERTEX
  5
3DE1
  8
3
 10
186.2798201381344
 20
141.23403598428581
 30
0.0
  0
VERTEX
  5
3DE2
  8
3
 10
186.28883431835879
 20
141.20248635350069
 30
0.0
  0
VERTEX
  5
3DE3
  8
3
 10
186.29334140847089
 20
141.1709367227156
 30
0.0
  0
VERTEX
  5
3DE4
  8
3
 10
186.29784849858299
 20
141.13938709193059
 30
0.0
  0
VERTEX
  5
3DE5
  8
3
 10
186.29784849858299
 20
141.10783746114549
 30
0.0
  0
VERTEX
  5
3DE6
  8
3
 10
186.29784849858299
 20
141.07628783036029
 30
0.0
  0
VERTEX
  5
3DE7
  8
3
 10
186.29784849858299
 20
141.04473819957531
 30
0.0
  0
VERTEX
  5
3DE8
  8
3
 10
186.29334140847089
 20
141.01769565890231
 30
0.0
  0
VERTEX
  5
3DE9
  8
3
 10
186.28883431835879
 20
140.98614602811719
 30
0.0
  0
VERTEX
  5
3DEA
  8
3
 10
186.27531304802221
 20
140.9275538566593
 30
0.0
  0
VERTEX
  5
3DEB
  8
3
 10
186.27080595791011
 20
140.91403258632269
 30
0.0
  0
VERTEX
  5
3DEC
  8
3
 10
186.26629886779801
 20
140.90501840609841
 30
0.0
  0
VERTEX
  5
3DED
  8
3
 10
186.26179177768589
 20
140.89149713576199
 30
0.0
  0
VERTEX
  5
3DEE
  8
3
 10
186.25277759746149
 20
140.88248295553771
 30
0.0
  0
VERTEX
  5
3DEF
  8
3
 10
186.24827050734939
 20
140.87346877531331
 30
0.0
  0
VERTEX
  5
3DF0
  8
3
 10
186.23925632712499
 20
140.86445459508909
 30
0.0
  0
VERTEX
  5
3DF1
  8
3
 10
186.23024214690071
 20
140.8554404148648
 30
0.0
  0
VERTEX
  5
3DF2
  8
3
 10
186.22122796667639
 20
140.85093332475259
 30
0.0
  0
VERTEX
  5
3DF3
  8
3
 10
186.21221378645211
 20
140.8419191445283
 30
0.0
  0
VERTEX
  5
3DF4
  8
3
 10
186.20319960622771
 20
140.83741205441621
 30
0.0
  0
VERTEX
  5
3DF5
  8
3
 10
186.1941854260034
 20
140.83290496430399
 30
0.0
  0
VERTEX
  5
3DF6
  8
3
 10
186.1851712457792
 20
140.82839787419181
 30
0.0
  0
VERTEX
  5
3DF7
  8
3
 10
186.17615706555489
 20
140.82389078407971
 30
0.0
  0
VERTEX
  5
3DF8
  8
3
 10
186.16263579521839
 20
140.8193836939675
 30
0.0
  0
VERTEX
  5
3DF9
  8
3
 10
186.14010034465761
 20
140.8148766038554
 30
0.0
  0
VERTEX
  5
3DFA
  8
3
 10
186.08601526331171
 20
140.84642623464049
 30
0.0
  0
VERTEX
  5
3DFB
  8
3
 10
186.08601526331171
 20
140.85093332475259
 30
0.0
  0
VERTEX
  5
3DFC
  8
3
 10
186.08150817319961
 20
140.8554404148648
 30
0.0
  0
SEQEND
  5
3DFD
  8
3
  0
LINE
  5
3B7A
  8
3
 10
185.59023535097469
 20
142.38334396288531
 30
0.0
 11
185.71643387411501
 21
142.4013723233339
 31
0.0
  0
LINE
  5
3B7B
  8
3
 10
185.35586666514271
 20
142.31573761120299
 30
0.0
 11
185.4730510080586
 21
142.3563014222124
 31
0.0
  0
LINE
  5
3B7C
  8
3
 10
185.24769650245091
 20
142.26165252985709
 30
0.0
 11
185.35586666514271
 21
142.31573761120299
 31
0.0
  0
LINE
  5
3B7D
  8
3
 10
185.13952633975919
 20
142.1895390880627
 30
0.0
 11
185.24769650245091
 21
142.26165252985709
 31
0.0
  0
LINE
  5
3B7E
  8
3
 10
185.4730510080586
 20
142.3563014222124
 30
0.0
 11
185.59023535097469
 21
142.38334396288531
 31
0.0
  0
LINE
  5
3B7F
  8
3
 10
186.09502944353611
 20
142.41038650355819
 30
0.0
 11
186.22122796667639
 21
142.41038650355819
 31
0.0
  0
LINE
  5
3B80
  8
3
 10
185.9643238302836
 20
142.41038650355819
 30
0.0
 11
186.09502944353611
 21
142.41038650355819
 31
0.0
  0
LINE
  5
3B81
  8
3
 10
185.8381253071432
 20
142.41038650355819
 30
0.0
 11
185.9643238302836
 21
142.41038650355819
 31
0.0
  0
LINE
  5
3B82
  8
3
 10
186.34742648981671
 20
142.41038650355819
 30
0.0
 11
186.47362501295709
 21
142.4148935936704
 31
0.0
  0
LINE
  5
3B83
  8
3
 10
186.22122796667639
 20
142.41038650355819
 30
0.0
 11
186.34742648981671
 21
142.41038650355819
 31
0.0
  0
LINE
  5
3B84
  8
3
 10
185.71643387411501
 20
142.4013723233339
 30
0.0
 11
185.8381253071432
 21
142.41038650355819
 31
0.0
  0
LINE
  5
3B85
  8
3
 10
186.51869591407859
 20
140.12529181669561
 30
0.0
 11
186.4646108327328
 21
140.10275636613491
 31
0.0
  0
LINE
  5
3B86
  8
3
 10
186.47362501295709
 20
142.4148935936704
 30
0.0
 11
186.5998235360974
 21
142.42390777389471
 31
0.0
  0
LINE
  5
3B87
  8
3
 10
186.6719369778919
 20
140.20641943871439
 30
0.0
 11
186.6268660767704
 21
140.17486980792941
 31
0.0
  0
LINE
  5
3B88
  8
3
 10
186.6268660767704
 20
140.17486980792941
 30
0.0
 11
186.57278099542449
 21
140.14782726725639
 31
0.0
  0
LINE
  5
3B89
  8
3
 10
186.57278099542449
 20
140.14782726725639
 30
0.0
 11
186.51869591407859
 21
140.12529181669561
 31
0.0
  0
LINE
  5
3B8A
  8
3
 10
186.847713492266
 20
140.34613923219121
 30
0.0
 11
186.8071496812565
 21
140.3055754211818
 31
0.0
  0
LINE
  5
3B8B
  8
3
 10
186.7665858702473
 20
140.26951870028461
 30
0.0
 11
186.72151496912559
 21
140.23796906949951
 31
0.0
  0
LINE
  5
3B8C
  8
3
 10
186.8071496812565
 20
140.3055754211818
 30
0.0
 11
186.7665858702473
 21
140.26951870028461
 31
0.0
  0
LINE
  5
3B8D
  8
3
 10
186.72151496912559
 20
140.23796906949951
 30
0.0
 11
186.6719369778919
 21
140.20641943871439
 31
0.0
  0
LINE
  5
3B8E
  8
3
 10
186.88377021316319
 20
140.38670304320061
 30
0.0
 11
186.847713492266
 21
140.34613923219121
 31
0.0
  0
LINE
  5
3B8F
  8
3
 10
187.02349000664
 20
141.36474159753831
 30
0.0
 11
187.0370112769765
 21
141.31065651619249
 31
0.0
  0
LINE
  5
3B90
  8
3
 10
187.05954672753731
 20
141.152908362267
 30
0.0
 11
187.06405381764949
 21
141.10333037103331
 31
0.0
  0
LINE
  5
3B91
  8
3
 10
187.06856090776159
 20
140.95008930722
 30
0.0
 11
187.06405381764949
 21
140.90051131598631
 31
0.0
  0
LINE
  5
3B92
  8
3
 10
187.06405381764949
 20
140.90051131598631
 30
0.0
 11
187.05954672753731
 21
140.85093332475259
 31
0.0
  0
LINE
  5
3B93
  8
3
 10
187.06856090776159
 20
141.05375237979959
 30
0.0
 11
187.06856090776159
 21
141.0041743885659
 31
0.0
  0
LINE
  5
3B94
  8
3
 10
187.06856090776159
 20
141.0041743885659
 30
0.0
 11
187.06856090776159
 21
140.95008930722
 31
0.0
  0
LINE
  5
3B95
  8
3
 10
187.06405381764949
 20
141.10333037103331
 30
0.0
 11
187.06856090776159
 21
141.05375237979959
 31
0.0
  0
LINE
  5
3B96
  8
3
 10
187.0370112769765
 20
141.31065651619249
 30
0.0
 11
187.04602545720081
 21
141.25657143484659
 31
0.0
  0
LINE
  5
3B97
  8
3
 10
187.04602545720081
 20
141.25657143484659
 30
0.0
 11
187.05503963742521
 21
141.20699344361279
 31
0.0
  0
LINE
  5
3B98
  8
3
 10
187.05503963742521
 20
141.20699344361279
 30
0.0
 11
187.05954672753731
 21
141.152908362267
 31
0.0
  0
LINE
  5
3B99
  8
3
 10
187.05503963742521
 20
140.8013553335189
 30
0.0
 11
187.04602545720081
 21
140.75177734228521
 31
0.0
  0
LINE
  5
3B9A
  8
3
 10
187.04602545720081
 20
140.75177734228521
 30
0.0
 11
187.03250418686429
 21
140.70219935105149
 31
0.0
  0
LINE
  5
3B9B
  8
3
 10
187.05954672753731
 20
140.85093332475259
 30
0.0
 11
187.05503963742521
 21
140.8013553335189
 31
0.0
  0
LINE
  5
3B9C
  8
3
 10
187.00546164619141
 20
140.60304336858411
 30
0.0
 11
187.00546164619141
 21
140.5940291883598
 31
0.0
  0
LINE
  5
3B9D
  8
3
 10
187.00546164619141
 20
140.5940291883598
 30
0.0
 11
187.00095455607919
 21
140.58952209824761
 31
0.0
  0
LINE
  5
3B9E
  8
3
 10
187.03250418686429
 20
140.70219935105149
 30
0.0
 11
187.00546164619141
 21
140.60304336858411
 31
0.0
  0
LINE
  5
3B9F
  8
3
 10
187.01447582641569
 20
141.6531953647162
 30
0.0
 11
187.00546164619141
 21
141.64868827460401
 31
0.0
  0
LINE
  5
3BA0
  8
3
 10
187.00546164619141
 20
141.64868827460401
 30
0.0
 11
187.00095455607919
 21
141.64418118449191
 31
0.0
  0
LINE
  5
3BA1
  8
3
 10
187.00095455607919
 20
141.64418118449191
 30
0.0
 11
186.99194037585499
 21
141.6396740943797
 31
0.0
  0
LINE
  5
3BA2
  8
3
 10
186.99194037585499
 20
141.6396740943797
 30
0.0
 11
186.9829261956306
 21
141.6396740943797
 31
0.0
  0
LINE
  5
3BA3
  8
3
 10
186.9829261956306
 20
141.6396740943797
 30
0.0
 11
186.97391201540631
 21
141.6351670042676
 31
0.0
  0
LINE
  5
3BA4
  8
3
 10
186.97391201540631
 20
141.6351670042676
 30
0.0
 11
186.964897835182
 21
141.63065991415539
 31
0.0
  0
LINE
  5
3BA5
  8
3
 10
186.964897835182
 20
141.63065991415539
 30
0.0
 11
186.9423623846213
 21
141.62615282404329
 31
0.0
  0
LINE
  5
3BA6
  8
3
 10
186.9423623846213
 20
141.62615282404329
 30
0.0
 11
186.9423623846213
 21
141.6216457339311
 31
0.0
  0
LINE
  5
3BA7
  8
3
 10
186.9423623846213
 20
141.6216457339311
 30
0.0
 11
186.9423623846213
 21
141.617138643819
 31
0.0
  0
LINE
  5
3BA8
  8
3
 10
186.9423623846213
 20
141.617138643819
 30
0.0
 11
186.93785529450909
 21
141.617138643819
 31
0.0
  0
LINE
  5
3BA9
  8
3
 10
186.93785529450909
 20
141.617138643819
 30
0.0
 11
186.93785529450909
 21
141.61263155370679
 31
0.0
  0
LINE
  5
3BAA
  8
3
 10
186.93785529450909
 20
141.61263155370679
 30
0.0
 11
186.93334820439691
 21
141.60812446359469
 31
0.0
  0
LINE
  5
3BAB
  8
3
 10
186.93334820439691
 20
141.60812446359469
 30
0.0
 11
186.93334820439691
 21
141.60361737348251
 31
0.0
  0
LINE
  5
3BAC
  8
3
 10
186.93334820439691
 20
141.60361737348251
 30
0.0
 11
186.93334820439691
 21
141.59911028337029
 31
0.0
  0
LINE
  5
3BAD
  8
3
 10
186.93334820439691
 20
141.59911028337029
 30
0.0
 11
186.93334820439691
 21
141.59460319325819
 31
0.0
  0
LINE
  5
3BAE
  8
3
 10
186.93334820439691
 20
141.59460319325819
 30
0.0
 11
186.93334820439691
 21
141.59009610314601
 31
0.0
  0
LINE
  5
3BAF
  8
3
 10
186.93334820439691
 20
141.59009610314601
 30
0.0
 11
186.93334820439691
 21
141.58558901303391
 31
0.0
  0
LINE
  5
3BB0
  8
3
 10
186.93334820439691
 20
141.58558901303391
 30
0.0
 11
186.93334820439691
 21
141.5810819229217
 31
0.0
  0
LINE
  5
3BB1
  8
3
 10
186.93334820439691
 20
141.5810819229217
 30
0.0
 11
186.93334820439691
 21
141.57657483280951
 31
0.0
  0
LINE
  5
3BB2
  8
3
 10
186.93334820439691
 20
141.57657483280951
 30
0.0
 11
186.93334820439691
 21
141.57206774269741
 31
0.0
  0
LINE
  5
3BB3
  8
3
 10
186.93334820439691
 20
141.57206774269741
 30
0.0
 11
186.92884111428481
 21
141.5675606525852
 31
0.0
  0
LINE
  5
3BB4
  8
3
 10
186.92884111428481
 20
141.5675606525852
 30
0.0
 11
186.93785529450909
 21
141.55854647236089
 31
0.0
  0
LINE
  5
3BB5
  8
3
 10
186.93785529450909
 20
141.55854647236089
 30
0.0
 11
186.9423623846213
 21
141.5495322921366
 31
0.0
  0
LINE
  5
3BB6
  8
3
 10
186.9423623846213
 20
141.5495322921366
 30
0.0
 11
186.9468694747334
 21
141.54051811191229
 31
0.0
  0
LINE
  5
3BB7
  8
3
 10
187.02349000664
 20
141.65770245482841
 30
0.0
 11
187.01447582641569
 21
141.6531953647162
 31
0.0
  0
LINE
  5
3BB8
  8
3
 10
187.05954672753731
 20
141.69826626583779
 30
0.0
 11
187.05954672753731
 21
141.68925208561339
 31
0.0
  0
LINE
  5
3BB9
  8
3
 10
187.05954672753731
 20
141.68925208561339
 30
0.0
 11
187.05053254731291
 21
141.68474499550129
 31
0.0
  0
LINE
  5
3BBA
  8
3
 10
187.05053254731291
 20
141.68474499550129
 30
0.0
 11
187.04602545720081
 21
141.67573081527701
 31
0.0
  0
LINE
  5
3BBB
  8
3
 10
187.04602545720081
 20
141.67573081527701
 30
0.0
 11
187.0415183670886
 21
141.67122372516479
 31
0.0
  0
LINE
  5
3BBC
  8
3
 10
187.0415183670886
 20
141.67122372516479
 30
0.0
 11
187.0370112769765
 21
141.66671663505269
 31
0.0
  0
LINE
  5
3BBD
  8
3
 10
187.0370112769765
 20
141.66671663505269
 30
0.0
 11
187.02799709675219
 21
141.66220954494051
 31
0.0
  0
LINE
  5
3BBE
  8
3
 10
187.02799709675219
 20
141.66220954494051
 30
0.0
 11
187.02349000664
 21
141.65770245482841
 31
0.0
  0
LINE
  5
3BBF
  8
3
 10
187.05954672753731
 20
141.92362077144551
 30
0.0
 11
187.05954672753731
 21
141.69826626583779
 31
0.0
  0
LINE
  5
3BC0
  8
3
 10
186.9513765648455
 20
141.52699684157591
 30
0.0
 11
186.9603907450699
 21
141.5179826613516
 31
0.0
  0
LINE
  5
3BC1
  8
3
 10
186.9603907450699
 20
141.5179826613516
 30
0.0
 11
186.964897835182
 21
141.5089684811272
 31
0.0
  0
LINE
  5
3BC2
  8
3
 10
186.964897835182
 20
141.5089684811272
 30
0.0
 11
186.9694049252941
 21
141.49995430090291
 31
0.0
  0
LINE
  5
3BC3
  8
3
 10
186.9694049252941
 20
141.49995430090291
 30
0.0
 11
186.97391201540631
 21
141.4909401206786
 31
0.0
  0
LINE
  5
3BC4
  8
3
 10
186.97391201540631
 20
141.4909401206786
 30
0.0
 11
186.97841910551841
 21
141.47741885034219
 31
0.0
  0
LINE
  5
3BC5
  8
3
 10
186.97841910551841
 20
141.47741885034219
 30
0.0
 11
186.9829261956306
 21
141.46840467011791
 31
0.0
  0
LINE
  5
3BC6
  8
3
 10
186.9829261956306
 20
141.46840467011791
 30
0.0
 11
186.98743328574281
 21
141.45939048989359
 31
0.0
  0
LINE
  5
3BC7
  8
3
 10
186.98743328574281
 20
141.45939048989359
 30
0.0
 11
186.99194037585499
 21
141.4503763096692
 31
0.0
  0
LINE
  5
3BC8
  8
3
 10
186.99194037585499
 20
141.4503763096692
 30
0.0
 11
186.99644746596709
 21
141.44136212944491
 31
0.0
  0
LINE
  5
3BC9
  8
3
 10
186.99644746596709
 20
141.44136212944491
 30
0.0
 11
187.00095455607919
 21
141.4323479492206
 31
0.0
  0
LINE
  5
3BCA
  8
3
 10
187.00095455607919
 20
141.4323479492206
 30
0.0
 11
187.00996873630351
 21
141.4188266788841
 31
0.0
  0
LINE
  5
3BCB
  8
3
 10
187.00996873630351
 20
141.4188266788841
 30
0.0
 11
187.02349000664
 21
141.36474159753831
 31
0.0
  0
LINE
  5
3BCC
  8
3
 10
186.9468694747334
 20
141.54051811191229
 30
0.0
 11
186.9513765648455
 21
141.52699684157591
 31
0.0
  0
LINE
  5
3BCD
  8
3
 10
186.72151496912559
 20
142.43742904423121
 30
0.0
 11
186.83869931204171
 21
142.46447158490409
 31
0.0
  0
LINE
  5
3BCE
  8
3
 10
186.5998235360974
 20
142.42390777389471
 30
0.0
 11
186.72151496912559
 21
142.43742904423121
 31
0.0
  0
LINE
  5
3BCF
  8
3
 10
186.83869931204171
 20
142.46447158490409
 30
0.0
 11
187.05954672753731
 21
142.5636275673715
 31
0.0
  0
LINE
  5
3BD0
  8
3
 10
185.01783490673111
 20
142.09489019570739
 30
0.0
 11
185.13952633975919
 21
142.1895390880627
 31
0.0
  0
LINE
  5
3BD1
  8
3
 10
184.5851542559642
 20
140.5624795575747
 30
0.0
 11
184.5851542559642
 21
140.5985362784719
 31
0.0
  0
LINE
  5
3BD2
  8
3
 10
185.3738950255912
 20
140.65712844993001
 30
0.0
 11
185.37840211570341
 21
140.57149373779899
 31
0.0
  0
LINE
  5
3BD3
  8
3
 10
185.54516444985319
 20
140.29205415084539
 30
0.0
 11
185.53164317951681
 21
141.4503763096692
 31
0.0
  0
LINE
  5
3BD4
  8
3
 10
185.66234879276919
 20
140.1838839881537
 30
0.0
 11
185.62629207187189
 21
140.20641943871439
 31
0.0
  0
LINE
  5
3BD5
  8
3
 10
184.82403003190839
 20
140.25149033983601
 30
0.0
 11
184.75191659011389
 21
140.2830399706211
 31
0.0
  0
LINE
  5
3BD6
  8
3
 10
184.5941684361884
 20
140.49036611578029
 30
0.0
 11
184.5896613460763
 21
140.5264228366774
 31
0.0
  0
LINE
  5
3BD7
  8
3
 10
184.5986755263005
 20
140.4543093948829
 30
0.0
 11
184.5941684361884
 21
140.49036611578029
 31
0.0
  0
LINE
  5
3BD8
  8
3
 10
184.5896613460763
 20
140.5264228366774
 30
0.0
 11
184.5851542559642
 21
140.5624795575747
 31
0.0
  0
LINE
  5
3BD9
  8
3
 10
184.75191659011389
 20
140.2830399706211
 30
0.0
 11
184.5986755263005
 21
140.4543093948829
 31
0.0
  0
LINE
  5
3BDA
  8
3
 10
184.97727109572159
 20
140.21994070905089
 30
0.0
 11
184.93670728471221
 21
140.22444779916299
 31
0.0
  0
LINE
  5
3BDB
  8
3
 10
184.93670728471221
 20
140.22444779916299
 30
0.0
 11
184.90065056381491
 21
140.2289548892752
 31
0.0
  0
LINE
  5
3BDC
  8
3
 10
184.90065056381491
 20
140.2289548892752
 30
0.0
 11
184.86008675280561
 21
140.23796906949951
 31
0.0
  0
LINE
  5
3BDD
  8
3
 10
184.86008675280561
 20
140.23796906949951
 30
0.0
 11
184.82403003190839
 21
140.25149033983601
 31
0.0
  0
LINE
  5
3BDE
  8
3
 10
185.37840211570341
 20
140.57149373779899
 30
0.0
 11
185.38290920581559
 21
140.48585902566799
 31
0.0
  0
LINE
  5
3BDF
  8
3
 10
185.38290920581559
 20
140.48585902566799
 30
0.0
 11
185.38290920581559
 21
140.40022431353711
 31
0.0
  0
LINE
  5
3BE0
  8
3
 10
185.09445543863771
 20
140.20191234860221
 30
0.0
 11
185.0538916276283
 21
140.20641943871439
 31
0.0
  0
LINE
  5
3BE1
  8
3
 10
185.0538916276283
 20
140.20641943871439
 30
0.0
 11
185.0133278166189
 21
140.2109265288266
 31
0.0
  0
LINE
  5
3BE2
  8
3
 10
185.1305121595349
 20
140.19740525849011
 30
0.0
 11
185.09445543863771
 21
140.20191234860221
 31
0.0
  0
LINE
  5
3BE3
  8
3
 10
185.3693879354791
 20
139.9675436627702
 30
0.0
 11
185.3693879354791
 21
139.94050112209729
 31
0.0
  0
LINE
  5
3BE4
  8
3
 10
185.35135957503061
 20
140.10726345624701
 30
0.0
 11
185.35586666514271
 21
140.10726345624701
 31
0.0
  0
LINE
  5
3BE5
  8
3
 10
185.35586666514271
 20
140.10726345624701
 30
0.0
 11
185.35586666514271
 21
140.1117705463592
 31
0.0
  0
LINE
  5
3BE6
  8
3
 10
185.35586666514271
 20
140.1117705463592
 30
0.0
 11
185.35135957503061
 21
140.12078472658351
 31
0.0
  0
LINE
  5
3BE7
  8
3
 10
185.35135957503061
 20
140.12078472658351
 30
0.0
 11
185.31980994424541
 21
140.1388130870321
 31
0.0
  0
LINE
  5
3BE8
  8
3
 10
185.31980994424541
 20
140.1388130870321
 30
0.0
 11
185.28375322334821
 21
140.1568414474807
 31
0.0
  0
LINE
  5
3BE9
  8
3
 10
185.28375322334821
 20
140.1568414474807
 30
0.0
 11
185.24769650245091
 21
140.1703627178172
 31
0.0
  0
LINE
  5
3BEA
  8
3
 10
185.24769650245091
 20
140.1703627178172
 30
0.0
 11
185.2071326914415
 21
140.17937689804151
 31
0.0
  0
LINE
  5
3BEB
  8
3
 10
187.05954672753731
 20
142.5636275673715
 30
0.0
 11
187.05954672753731
 21
141.92362077144551
 31
0.0
  0
LINE
  5
3BEC
  8
3
 10
187.00095455607919
 20
140.58952209824761
 30
0.0
 11
187.00095455607919
 21
140.58501500813551
 31
0.0
  0
LINE
  5
3BED
  8
3
 10
186.97391201540631
 20
140.53092992678961
 30
0.0
 11
186.9468694747334
 21
140.48135193555589
 31
0.0
  0
LINE
  5
3BEE
  8
3
 10
186.91531984394831
 20
140.4317739443222
 30
0.0
 11
186.88377021316319
 21
140.38670304320061
 31
0.0
  0
LINE
  5
3BEF
  8
3
 10
186.9468694747334
 20
140.48135193555589
 30
0.0
 11
186.91531984394831
 21
140.4317739443222
 31
0.0
  0
LINE
  5
3BF0
  8
3
 10
187.00095455607919
 20
140.58501500813551
 30
0.0
 11
186.99644746596709
 21
140.5805079180233
 31
0.0
  0
LINE
  5
3BF1
  8
3
 10
186.99644746596709
 20
140.5805079180233
 30
0.0
 11
186.99644746596709
 21
140.57600082791109
 31
0.0
  0
LINE
  5
3BF2
  8
3
 10
186.99194037585499
 20
140.57149373779899
 30
0.0
 11
186.98743328574281
 21
140.5669866476868
 31
0.0
  0
LINE
  5
3BF3
  8
3
 10
186.98743328574281
 20
140.5669866476868
 30
0.0
 11
186.98743328574281
 21
140.5624795575747
 31
0.0
  0
LINE
  5
3BF4
  8
3
 10
186.98743328574281
 20
140.5624795575747
 30
0.0
 11
186.9829261956306
 21
140.55797246746249
 31
0.0
  0
LINE
  5
3BF5
  8
3
 10
186.9829261956306
 20
140.55797246746249
 30
0.0
 11
186.9829261956306
 21
140.55346537735039
 31
0.0
  0
LINE
  5
3BF6
  8
3
 10
186.9829261956306
 20
140.55346537735039
 30
0.0
 11
186.9829261956306
 21
140.54895828723821
 31
0.0
  0
LINE
  5
3BF7
  8
3
 10
186.9829261956306
 20
140.54895828723821
 30
0.0
 11
186.97841910551841
 21
140.54895828723821
 31
0.0
  0
LINE
  5
3BF8
  8
3
 10
186.97841910551841
 20
140.54895828723821
 30
0.0
 11
186.97841910551841
 21
140.54445119712611
 31
0.0
  0
LINE
  5
3BF9
  8
3
 10
186.97841910551841
 20
140.53994410701389
 30
0.0
 11
186.97391201540631
 21
140.53092992678961
 31
0.0
  0
LINE
  5
3BFA
  8
3
 10
186.97841910551841
 20
140.54445119712611
 30
0.0
 11
186.97841910551841
 21
140.53994410701389
 31
0.0
  0
LINE
  5
3BFB
  8
3
 10
186.99644746596709
 20
140.57600082791109
 30
0.0
 11
186.99194037585499
 21
140.57149373779899
 31
0.0
  0
ARC
  5
3BFC
  8
0
 10
174.32483691244309
 20
147.2535575460534
 30
0.0
 40
0.609375
 50
0.0
 51
90.0
  0
ARC
  5
3BFD
  8
0
 10
174.32483691244309
 20
153.3473075460534
 30
0.0
 40
0.609375
 50
270.0
 51
0.0
  0
LINE
  5
3BFE
  8
0
 10
181.06379397494311
 20
147.86293254605349
 30
0.0
 11
181.06379397494311
 21
152.7379325460534
 31
0.0
  0
LINE
  5
3BFF
  8
0
 10
159.059211912443
 20
157.46293254605339
 30
0.0
 11
174.32483691244309
 21
157.46293254605339
 31
0.0
  0
LINE
  5
3C00
  8
0
 10
161.12171191244309
 20
157.46293254605339
 30
0.0
 11
161.12171191244309
 21
157.8629325460534
 31
0.0
  0
LINE
  5
3C01
  8
0
 10
166.40296191244309
 20
157.8629325460534
 30
0.0
 11
166.40296191244309
 21
157.46293254605339
 31
0.0
  0
LINE
  5
3C02
  8
0
 10
173.71546191244309
 20
157.8629325460534
 30
0.0
 11
186.87171191244309
 21
157.8629325460534
 31
0.0
  0
ARC
  5
3C03
  8
0
 10
174.32483691244309
 20
156.85355754605351
 30
0.0
 40
0.609375
 50
0.0
 51
90.0
  0
LINE
  5
3C04
  8
0
 10
173.71546191244309
 20
157.8629325460534
 30
0.0
 11
173.71546191244309
 21
157.46293254605339
 31
0.0
  0
LINE
  5
3C05
  8
0
 10
189.30921191244309
 20
120.79418254605341
 30
0.0
 11
189.30921191244309
 21
155.43168254605351
 31
0.0
  0
LINE
  5
3C0B
  8
0
 10
161.059211912443
 20
76.34489786938741
 30
0.0
 11
166.40296191244309
 21
72.085995498161523
 31
0.0
  0
LINE
  5
3C0C
  8
0
 10
179.05921191244329
 20
76.34489786938741
 30
0.0
 11
173.71546191244309
 21
72.085995498161594
 31
0.0
  0
LINE
  5
3C0D
  8
0
 10
87.056981117363563
 20
76.344897869388035
 30
0.0
 11
87.056981117363577
 21
79.844897869388035
 31
0.0
  0
TEXT
  5
3D3A
  8
0
 62
     3
 10
0.0
 20
0.0
 30
0.0
 40
10.0
  1
EFH4040SS
  7
STANDARD1
  0
ENDSEC
  0
EOF
