  0
SECTION
  2
HEADER
  9
$ACADVER
  1
AC1009
  9
$INSBASE
 10
0.0
 20
0.0
 30
0.0
  9
$EXTMIN
 10
0.0
 20
-2.960436562073669
 30
0.0
  9
$EXTMAX
 10
128.3478750338891
 20
111.7340272639367
 30
0.0
  9
$LIMMIN
 10
0.0
 20
0.0
  9
$LIMMAX
 10
375.0
 20
278.0
  9
$ORTHOMODE
 70
     1
  9
$REGENMODE
 70
     1
  9
$FILLMODE
 70
     1
  9
$QTEXTMODE
 70
     0
  9
$MIRRTEXT
 70
     0
  9
$DRAGMODE
 70
     2
  9
$LTSCALE
 40
5.0
  9
$OSMODE
 70
  3071
  9
$ATTMODE
 70
     1
  9
$TEXTSIZE
 40
0.2
  9
$TRACEWID
 40
0.05
  9
$TEXTSTYLE
  7
STANDARD
  9
$CLAYER
  8
0
  9
$CELTYPE
  6
BYLAYER
  9
$CECOLOR
 62
   256
  9
$DIMSCALE
 40
1.0
  9
$DIMASZ
 40
3.0
  9
$DIMEXO
 40
1.0
  9
$DIMDLI
 40
6.0
  9
$DIMRND
 40
0.0
  9
$DIMDLE
 40
0.0
  9
$DIMEXE
 40
1.0
  9
$DIMTP
 40
495.0
  9
$DIMTM
 40
0.0
  9
$DIMTXT
 40
3.0
  9
$DIMCEN
 40
0.0
  9
$DIMTSZ
 40
0.0
  9
$DIMTOL
 70
     0
  9
$DIMLIM
 70
     0
  9
$DIMTIH
 70
     0
  9
$DIMTOH
 70
     0
  9
$DIMSE1
 70
     0
  9
$DIMSE2
 70
     0
  9
$DIMTAD
 70
     1
  9
$DIMZIN
 70
     0
  9
$DIMBLK
  1

  9
$DIMASO
 70
     1
  9
$DIMSHO
 70
     0
  9
$DIMPOST
  1

  9
$DIMAPOST
  1

  9
$DIMALT
 70
     0
  9
$DIMALTD
 70
     2
  9
$DIMALTF
 40
25.399999999999999
  9
$DIMLFAC
 40
1.0
  9
$DIMTOFL
 70
     1
  9
$DIMTVP
 40
0.0
  9
$DIMTIX
 70
     1
  9
$DIMSOXD
 70
     0
  9
$DIMSAH
 70
     0
  9
$DIMBLK1
  1

  9
$DIMBLK2
  1

  9
$DIMSTYLE
  2
STANDARD
  9
$DIMCLRD
 70
     0
  9
$DIMCLRE
 70
     0
  9
$DIMCLRT
 70
     4
  9
$DIMTFAC
 40
1.0
  9
$DIMGAP
 40
1.0
  9
$LUNITS
 70
     2
  9
$LUPREC
 70
     4
  9
$SKETCHINC
 40
0.1
  9
$FILLETRAD
 40
0.0
  9
$AUNITS
 70
     0
  9
$AUPREC
 70
     3
  9
$MENU
  1
C:\R13\WIN\SUPPORT\ACAD-I
  9
$ELEVATION
 40
0.0
  9
$PELEVATION
 40
0.0
  9
$THICKNESS
 40
0.0
  9
$LIMCHECK
 70
     0
  9
$BLIPMODE
 70
     0
  9
$CHAMFERA
 40
0.0
  9
$CHAMFERB
 40
0.0
  9
$SKPOLY
 70
     0
  9
$TDCREATE
 40
2450834.4199027782
  9
$TDUPDATE
 40
2456598.656682801
  9
$TDINDWG
 40
0.2102597685
  9
$TDUSRTIMER
 40
0.2102597685
  9
$USRTIMER
 70
     1
  9
$ANGBASE
 50
0.0
  9
$ANGDIR
 70
     0
  9
$PDMODE
 70
     0
  9
$PDSIZE
 40
0.0
  9
$PLINEWID
 40
0.0
  9
$COORDS
 70
     1
  9
$SPLFRAME
 70
     0
  9
$SPLINETYPE
 70
     6
  9
$SPLINESEGS
 70
     8
  9
$ATTDIA
 70
     0
  9
$ATTREQ
 70
     1
  9
$HANDLING
 70
     1
  9
$HANDSEED
  5
138ED
  9
$SURFTAB1
 70
     6
  9
$SURFTAB2
 70
     6
  9
$SURFTYPE
 70
     6
  9
$SURFU
 70
     6
  9
$SURFV
 70
     6
  9
$UCSNAME
  2

  9
$UCSORG
 10
0.0
 20
0.0
 30
0.0
  9
$UCSXDIR
 10
1.0
 20
0.0
 30
0.0
  9
$UCSYDIR
 10
0.0
 20
1.0
 30
0.0
  9
$PUCSNAME
  2

  9
$PUCSORG
 10
0.0
 20
0.0
 30
0.0
  9
$PUCSXDIR
 10
1.0
 20
0.0
 30
0.0
  9
$PUCSYDIR
 10
0.0
 20
1.0
 30
0.0
  9
$USERI1
 70
     4
  9
$USERI2
 70
     1
  9
$USERI3
 70
     1
  9
$USERI4
 70
     0
  9
$USERI5
 70
     0
  9
$USERR1
 40
1.0
  9
$USERR2
 40
3.0
  9
$USERR3
 40
3.0
  9
$USERR4
 40
3.0
  9
$USERR5
 40
10.0
  9
$WORLDVIEW
 70
     1
  9
$SHADEDGE
 70
     3
  9
$SHADEDIF
 70
    70
  9
$TILEMODE
 70
     1
  9
$MAXACTVP
 70
    16
  9
$PLIMCHECK
 70
     0
  9
$PEXTMIN
 10
1.0000000000000000E+020
 20
1.0000000000000000E+020
 30
1.0000000000000000E+020
  9
$PEXTMAX
 10
-1.0000000000000000E+020
 20
-1.0000000000000000E+020
 30
-1.0000000000000000E+020
  9
$PLIMMIN
 10
0.0
 20
0.0
  9
$PLIMMAX
 10
12.0
 20
9.0
  9
$UNITMODE
 70
     0
  9
$VISRETAIN
 70
     0
  9
$PLINEGEN
 70
     0
  9
$PSLTSCALE
 70
     0
  0
ENDSEC
  0
SECTION
  2
TABLES
  0
TABLE
  2
VPORT
 70
     1
  0
VPORT
  2
*ACTIVE
 70
     0
 10
0.0
 20
0.0
 11
1.0
 21
1.0
 12
187.49427839065231
 22
174.97168974450321
 13
0.0
 23
0.0
 14
10.0
 24
10.0
 15
10.0
 25
10.0
 16
0.0
 26
0.0
 36
1.0
 17
0.0
 27
0.0
 37
0.0
 40
359.12869706410731
 41
1.831871345029239
 42
50.0
 43
0.0
 44
0.0
 50
0.0
 51
0.0
 71
     0
 72
   100
 73
     1
 74
     0
 75
     0
 76
     0
 77
     0
 78
     0
  0
ENDTAB
  0
TABLE
  2
LTYPE
 70
     4
  0
LTYPE
  2
CONTINUOUS
 70
     0
  3
Solid Line
 72
    65
 73
     0
 40
0.0
  0
LTYPE
  2
CENTER
 70
     0
  3
____ _ ____ _ ____ _ ____ _ ____ _ ____ _ ____
 72
    65
 73
     4
 40
2.0
 49
1.25
 49
-0.25
 49
0.25
 49
-0.25
  0
LTYPE
  2
HIDDEN
 70
     0
  3
__ __ __ __ __ __ __ __ __ __ __ __ __ __ __ __
 72
    65
 73
     2
 40
0.375
 49
0.25
 49
-0.125
  0
LTYPE
  2
PHANTOM2
 70
     0
  3
___ _ _ ___ _ _ ___ _ _ ___ _ _
 72
    65
 73
     6
 40
1.25
 49
0.625
 49
-0.125
 49
0.125
 49
-0.125
 49
0.125
 49
-0.125
  0
ENDTAB
  0
TABLE
  2
LAYER
 70
     4
  0
LAYER
  2
0
 70
     0
 62
     7
  6
CONTINUOUS
  0
LAYER
  2
1
 70
     0
 62
     1
  6
CENTER
  0
LAYER
  2
3
 70
     0
 62
     3
  6
CONTINUOUS
  0
LAYER
  2
2
 70
     0
 62
     2
  6
HIDDEN
  0
ENDTAB
  0
TABLE
  2
STYLE
 70
     2
  0
STYLE
  2
STANDARD
 70
     0
 40
0.0
 41
1.0
 50
0.0
 71
     0
 42
0.2
  3
SIMPLEX
  4
BIGFONT
  0
STYLE
  2
STANDARD1
 70
     0
 40
0.0
 41
1.0
 50
0.0
 71
     0
 42
3.0
  3
txt
  4

  0
ENDTAB
  0
TABLE
  2
VIEW
 70
     0
  0
ENDTAB
  0
TABLE
  2
UCS
 70
     0
  0
ENDTAB
  0
TABLE
  2
APPID
 70
    39
  0
APPID
  2
ACAD
 70
     0
  0
APPID
  2
GENIUS_GENOBJ_13
 70
     0
  0
APPID
  2
GENIUS_GENODEF_13
 70
     0
  0
APPID
  2
GENIUS_GENOENT_13
 70
     0
  0
APPID
  2
GENIUS_GENOLIS_13
 70
     0
  0
APPID
  2
GENIUS_GENOREF_13
 70
     0
  0
APPID
  2
GENIUS_GENOBJ-N-TIT_13
 70
     0
  0
APPID
  2
GENIUS_GENTITLE_13
 70
     0
  0
APPID
  2
GENIUS_GENZVEED_13
 70
     0
  0
APPID
  2
GENIUS_GENOBJ-N-FIL_13
 70
     0
  0
APPID
  2
GENIUS_GENOBJ-N-CRS_13
 70
     0
  0
APPID
  2
GENIUS_GEFINERT_13
 70
     0
  0
APPID
  2
GENIUS_GENOBJ-F-INER_13
 70
     0
  0
APPID
  2
GENIUS_GENOBJ-N-ZOO_13
 70
     0
  0
APPID
  2
GENIUS_GENZOO_13
 70
     0
  0
APPID
  2
GENIUS_GENOBJ-F-TOL_13
 70
     0
  0
APPID
  2
GENIUS_GENOBJ-N-RSSYM_13
 70
     0
  0
APPID
  2
GENIUS_GENSYMENT_13
 70
     0
  0
APPID
  2
GENIUS_GENBH_13
 70
     0
  0
APPID
  2
GENIUS_GENOBJ-NBEHI-BHF_13
 70
     0
  0
APPID
  2
GENIUS_GENOBJ-NBEHI-BHB_13
 70
     0
  0
APPID
  2
GENIUS_GENOBJ-F-PART_13
 70
     0
  0
APPID
  2
GENIUS_GEFSTDP_13
 70
     0
  0
APPID
  2
GENIUS_GENOBJ-N-LEADER_13
 70
     0
  0
APPID
  2
GENIUS_GENOBJ-N-REV_13
 70
     0
  0
APPID
  2
GENIUS_GENCFG_13
 70
     0
  0
APPID
  2
GENIUS_GENCFG0_13
 70
     0
  0
APPID
  2
GENIUS_GENCFG1_13
 70
     0
  0
APPID
  2
GENIUS_GENCFG2_13
 70
     0
  0
APPID
  2
GENIUS_GENCFG3_13
 70
     0
  0
APPID
  2
GENIUS_GEVCFG0_13
 70
     0
  0
APPID
  2
GENIUS_GENCFG4_13
 70
     0
  0
APPID
  2
GENIUS_GENOBJ-N-REC_13
 70
     0
  0
APPID
  2
GENIUS_GENFIL_13
 70
     0
  0
APPID
  2
GENIUS_GENOBJ-N-CHA_13
 70
     0
  0
APPID
  2
GENIUS_GENREC_13
 70
     0
  0
APPID
  2
ACAD_EXEMPT_FROM_CAD_STANDARDS
 70
     0
  0
APPID
  2
ACAD_MLEADERVER
 70
     0
  0
APPID
  2
ACAD_NAV_VCDISPLAY
 70
     0
  0
ENDTAB
  0
TABLE
  2
DIMSTYLE
 70
     1
  0
DIMSTYLE
  2
STANDARD
 70
     0
  3

  4

  5

  6

  7

 40
1.0
 41
0.18
 42
0.0625
 43
0.38
 44
0.18
 45
0.0
 46
0.0
 47
0.0
 48
0.0
140
0.18
141
0.09
142
0.0
143
25.399999999999999
144
1.0
145
0.0
146
1.0
147
0.09
 71
     0
 72
     0
 73
     1
 74
     1
 75
     0
 76
     0
 77
     0
 78
     0
170
     0
171
     2
172
     0
173
     0
174
     0
175
     0
176
     0
177
     0
178
     0
  0
ENDTAB
  0
ENDSEC
  0
SECTION
  2
BLOCKS
  0
BLOCK
  8
0
  2
$MODEL_SPACE
 70
     0
 10
0.0
 20
0.0
 30
0.0
  3
$MODEL_SPACE
  1

  0
ENDBLK
  5
13613
  8
0
  0
BLOCK
 67
     1
  8
0
  2
$PAPER_SPACE
 70
     0
 10
0.0
 20
0.0
 30
0.0
  3
$PAPER_SPACE
  1

  0
ENDBLK
  5
13611
 67
     1
  8
0
  0
ENDSEC
  0
SECTION
  2
ENTITIES
  0
LINE
  5
12976
  8
1
 10
36.102160033889128
 20
86.23402826393675
 30
0.0
 11
45.102160033889128
 21
86.23402826393675
 31
0.0
  0
LINE
  5
12977
  8
1
 10
29.852159033889141
 20
93.73402826393675
 30
0.0
 11
81.352159033889194
 21
93.734028263936764
 31
0.0
  0
LINE
  5
12978
  8
0
 10
58.98059937017382
 20
52.089535029100219
 30
0.0
 11
55.602159033889187
 21
52.64633881607115
 31
0.0
  0
CIRCLE
  5
12979
  8
0
 10
55.602159033889158
 20
55.734029263936819
 30
0.0
 40
1.25
  0
LINE
  5
1297A
  8
0
 10
63.329818391437641
 20
58.734029263936819
 30
0.0
 11
55.602161033889161
 21
58.734029263936819
 31
0.0
  0
LINE
  5
1297B
  8
0
 10
53.11161849437125
 20
83.742779263936725
 30
0.0
 11
62.352159033889158
 21
83.742779263936768
 31
0.0
  0
LINE
  5
1297C
  8
0
 10
53.11161849437125
 20
93.734028263936693
 30
0.0
 11
62.352159033889158
 21
93.73402826393675
 31
0.0
  0
LINE
  5
1297D
  8
0
 10
53.111618494371257
 20
88.847779263936715
 30
0.0
 11
62.352159033889187
 21
88.847779263936715
 31
0.0
  0
LINE
  5
1297E
  8
0
 10
48.852159033889173
 20
93.846528263936705
 30
0.0
 11
58.092699573407089
 21
93.846528263936705
 31
0.0
  0
LINE
  5
1297F
  8
0
 10
48.852159033889173
 20
83.855279263936723
 30
0.0
 11
58.092699573407039
 21
83.855279263936694
 31
0.0
  0
LINE
  5
12980
  8
0
 10
48.852159033889173
 20
88.735279263936718
 30
0.0
 11
58.092699573407089
 21
88.735279263936718
 31
0.0
  0
LINE
  5
12982
  8
0
 10
33.602159033889137
 20
108.7340272639367
 30
0.0
 11
58.092699573407089
 21
108.7340272639367
 31
0.0
  0
LINE
  5
12983
  8
0
 10
53.111618494371257
 20
103.62277826393669
 30
0.0
 11
62.352159033889158
 21
103.62277826393669
 31
0.0
  0
LINE
  5
12984
  8
0
 10
53.11161849437125
 20
98.852778263936727
 30
0.0
 11
62.352159033889187
 21
98.852778263936685
 31
0.0
  0
LINE
  5
12985
  8
0
 10
48.852159033889173
 20
103.73527826393671
 30
0.0
 11
58.09269957340706
 21
103.73527826393671
 31
0.0
  0
LINE
  5
12986
  8
0
 10
48.852159033889173
 20
98.740278263936716
 30
0.0
 11
58.092699573407089
 21
98.740278263936716
 31
0.0
  0
LINE
  5
12989
  8
3
 10
47.292156824860022
 20
108.7340272639367
 30
0.0
 11
47.292156824860022
 21
78.734029263936748
 31
0.0
  0
LINE
  5
1298A
  8
1
 10
55.602159033889158
 20
111.7340272639367
 30
0.0
 11
55.602159033889158
 21
75.734029263936748
 31
0.0
  0
LINE
  5
1298B
  8
0
 10
32.852159033889137
 20
107.9840272639367
 30
0.0
 11
32.852159033889137
 21
79.484029263936748
 31
0.0
  0
LINE
  5
1298C
  8
0
 10
33.602159033889137
 20
78.734029263936748
 30
0.0
 11
50.89501803388913
 21
78.734029263936748
 31
0.0
  0
ARC
  5
12990
  8
0
 10
33.602159033889137
 20
79.484029263936748
 30
0.0
 40
0.75
 50
180.0
 51
270.0
  0
LINE
  5
12991
  8
1
 10
40.602160033889128
 20
90.73402826393675
 30
0.0
 11
40.602160033889128
 21
81.734028263936736
 31
0.0
  0
ARC
  5
12D36
  8
0
 10
53.111618494371257
 20
82.992779263936711
 30
0.0
 40
0.75
 50
90.0
 51
180.0
  0
ARC
  5
12D37
  8
0
 10
53.111618494371257
 20
79.484029263936748
 30
0.0
 40
0.75
 50
180.0
 51
270.0
  0
LINE
  5
12D38
  8
0
 10
48.852159033889173
 20
83.855279263936723
 30
0.0
 11
48.852159033889173
 21
78.734029263936748
 31
0.0
  0
LINE
  5
12D39
  8
0
 10
50.89501803388913
 20
78.734029263936748
 30
0.0
 11
50.895018033889158
 21
83.855279263936723
 31
0.0
  0
LINE
  5
12D3A
  8
0
 10
52.361618494371257
 20
82.992779263936711
 30
0.0
 11
52.361618494371257
 21
79.484029263936748
 31
0.0
  0
ARC
  5
12D3B
  8
0
 10
53.111618494371257
 20
92.984028263936736
 30
0.0
 40
0.75
 50
90.0
 51
180.0
  0
ARC
  5
12D3C
  8
0
 10
53.111618494371257
 20
89.597779263936729
 30
0.0
 40
0.75
 50
180.0
 51
270.0
  0
LINE
  5
12D3D
  8
0
 10
48.852159033889173
 20
93.846528263936705
 30
0.0
 11
48.852159033889173
 21
88.735279263936718
 31
0.0
  0
LINE
  5
12D3E
  8
0
 10
50.89501803388913
 20
88.735279263936718
 30
0.0
 11
50.895018033889102
 21
93.846528263936762
 31
0.0
  0
LINE
  5
12D3F
  8
0
 10
52.361618494371257
 20
92.984028263936736
 30
0.0
 11
52.361618494371257
 21
89.597779263936729
 31
0.0
  0
LINE
  5
12D40
  8
2
 10
37.602160033889142
 20
50.234030263936873
 30
0.0
 11
43.602160033889128
 21
50.234030263936809
 31
0.0
  0
LINE
  5
12D42
  8
0
 10
34.357294546544132
 20
51.672590543893371
 30
0.0
 11
46.74949967634069
 21
58.432586263936813
 31
0.0
  0
LINE
  5
12D43
  8
0
 10
32.852159033889137
 20
46.234030263936809
 30
0.0
 11
48.992159033889152
 21
46.234030263936809
 31
0.0
  0
LINE
  5
12D46
  8
2
 10
38.852160033889142
 20
46.234030263936809
 30
0.0
 11
38.852160033889142
 21
50.234030263936809
 31
0.0
  0
LINE
  5
12D47
  8
1
 10
40.602159033889158
 20
44.734030263936823
 30
0.0
 11
40.602159033889158
 21
56.552588403915102
 31
0.0
  0
LINE
  5
12D48
  8
0
 10
32.852159033889137
 20
46.234030263936809
 30
0.0
 11
32.977910164959347
 21
49.296546527268347
 31
0.0
  0
ARC
  5
12D49
  8
0
 10
33.602159033889137
 20
107.9840272639367
 30
0.0
 40
0.75
 50
90.0
 51
180.0
  0
ARC
  5
12D7E
  8
0
 10
35.974107957993027
 20
49.145553861817071
 30
0.0
 40
3.0
 50
122.61135978685709
 51
177.11503360335479
1001
GENIUS_GENODEF_13
1002
{
1000
HIER
1070
     0
1002
}
1002
{
1000
MANEDIT
1070
     0
1002
}
1002
{
1000
NOSEL
1070
     0
1002
}
1002
{
1000
BEHIND
1070
     0
1002
}
1002
{
1000
REACTOR
1002
}
1001
GENIUS_GENOBJ-N-FIL_13
1002
{
1000
OWNER
1000
GEN
1002
}
  0
LINE
  5
12D7F
  8
2
 10
37.602160033889142
 20
50.234030263936809
 30
0.0
 11
37.602160033889113
 21
53.442677189233542
 31
0.0
  0
LINE
  5
12D80
  8
2
 10
42.352160033889128
 20
46.234030263936809
 30
0.0
 11
42.352160033889128
 21
50.234030263936809
 31
0.0
  0
LINE
  5
12D81
  8
0
 10
48.992159033889152
 20
46.234030263936809
 30
0.0
 11
49.148021761196503
 21
48.824768824048149
 31
0.0
  0
ARC
  5
12D82
  8
0
 10
53.111618494371257
 20
102.87277826393669
 30
0.0
 40
0.75
 50
90.0
 51
180.0
  0
ARC
  5
12D83
  8
0
 10
53.111618494371257
 20
99.602778263936727
 30
0.0
 40
0.75
 50
180.0
 51
270.0
  0
LINE
  5
12D84
  8
0
 10
50.89501803388913
 20
108.7340272639367
 30
0.0
 11
50.89501803388913
 21
108.7340272639367
 31
0.0
  0
LINE
  5
12D85
  8
0
 10
48.852159033889173
 20
103.73527826393671
 30
0.0
 11
48.852159033889173
 21
98.740278263936716
 31
0.0
  0
LINE
  5
12D86
  8
0
 10
50.89501803388913
 20
108.7340272639367
 30
0.0
 11
50.89501803388913
 21
108.7340272639367
 31
0.0
  0
LINE
  5
12D87
  8
0
 10
50.895018033889073
 20
98.740278263936716
 30
0.0
 11
50.895018033889073
 21
103.73527826393661
 31
0.0
  0
LINE
  5
12D88
  8
0
 10
52.361618494371257
 20
102.8727782639366
 30
0.0
 11
52.361618494371257
 21
99.602778263936727
 31
0.0
  0
LINE
  5
12D89
  8
0
 10
47.87449967634069
 20
58.734029263936819
 30
0.0
 11
55.602157033889171
 21
58.734029263936819
 31
0.0
  0
LINE
  5
12D8A
  8
0
 10
50.895017033889133
 20
55.392553863971457
 30
0.0
 11
48.795850097472233
 21
58.271790896727637
 31
0.0
  0
ARC
  5
12D8B
  8
0
 10
52.64170494197657
 20
48.614583590660303
 30
0.0
 40
3.5
 50
96.858898165249116
 51
176.55714944288519
1001
GENIUS_GENODEF_13
1002
{
1000
HIER
1070
     0
1002
}
1002
{
1000
MANEDIT
1070
     0
1002
}
1002
{
1000
NOSEL
1070
     0
1002
}
1002
{
1000
BEHIND
1070
     0
1002
}
1002
{
1000
REACTOR
1002
}
1001
GENIUS_GENOBJ-N-FIL_13
1002
{
1000
OWNER
1000
GEN
1002
}
  0
ARC
  5
12D8C
  8
0
 10
47.886800033889131
 20
57.609029263936819
 30
0.0
 40
1.125
 50
36.09468848340893
 51
90.0
  0
LINE
  5
12D8D
  8
2
 10
43.602160033889128
 20
50.234030263936809
 30
0.0
 11
43.60216003388912
 21
56.715700343339989
 31
0.0
  0
ARC
  5
12D8E
  8
0
 10
47.87449967634069
 20
56.484029263936819
 30
0.0
 40
2.25
 50
90.0
 51
120.0
  0
ARC
  5
12D8F
  8
0
 10
55.37054612186143
 20
55.734029263936819
 30
0.0
 40
3.0089276274901691
 50
94.414761323006786
 51
260.68551032355452
  0
LINE
  5
12D90
  8
0
 10
52.223718697604511
 20
52.089535029100219
 30
0.0
 11
55.001533531852772
 21
52.547349187486141
 31
0.0
  0
LINE
  5
12D91
  8
0
 10
49.274918100984223
 20
50.934030263936798
 30
0.0
 11
50.895017033889133
 21
55.392553863971457
 31
0.0
  0
LINE
  5
12D92
  8
0
 10
49.274918100984223
 20
50.934030263936798
 30
0.0
 11
49.14802176119656
 21
48.82476882404962
 31
0.0
  0
LINE
  5
12D94
  8
0
 10
55.001533531852402
 20
52.547349187486141
 30
0.0
 11
56.20278453592627
 21
52.547349187486141
 31
0.0
  0
LINE
  5
12D95
  8
0
 10
55.602159033889329
 20
52.646338816071093
 30
0.0
 11
54.883541001961362
 21
52.764774899510499
 31
0.0
  0
LINE
  5
12D98
  8
3
 10
63.912161242918302
 20
108.7340272639367
 30
0.0
 11
63.912161242918302
 21
78.734029263936748
 31
0.0
  0
LINE
  5
12D99
  8
0
 10
58.842699573407089
 20
97.990278263936773
 30
0.0
 11
58.842699573407089
 21
94.596528263936705
 31
0.0
  0
LINE
  5
12D9A
  8
0
 10
78.352159033889194
 20
107.9840272639367
 30
0.0
 11
78.352159033889194
 21
79.484029263936748
 31
0.0
  0
LINE
  5
12D9B
  8
0
 10
60.309300033889173
 20
93.73402826393675
 30
0.0
 11
60.30930003388923
 21
98.852778263936685
 31
0.0
  0
LINE
  5
12D9C
  8
0
 10
62.352159033889187
 20
98.852778263936685
 30
0.0
 11
62.352159033889222
 21
93.73402826393675
 31
0.0
  0
LINE
  5
12D9D
  8
0
 10
77.602159033889194
 20
78.734029263936748
 30
0.0
 11
53.111618494371257
 21
78.734029263936748
 31
0.0
  0
ARC
  5
12D9F
  8
0
 10
57.88876110187698
 20
84.787574944819596
 30
0.0
 40
0.9543406817080038
 50
282.33901639002852
 51
1.663518724962642
  0
LINE
  5
12DA0
  8
0
 10
60.309300033889201
 20
83.742778263936785
 30
0.0
 11
60.309300033889173
 21
88.847779263936786
 31
0.0
  0
LINE
  5
12DA1
  8
0
 10
62.352159033889187
 20
88.847779263936715
 30
0.0
 11
62.352159033889158
 21
83.742779263936768
 31
0.0
  0
ARC
  5
12DA2
  8
0
 10
58.092699573407089
 20
94.596528263936705
 30
0.0
 40
0.75
 50
270.0
 51
0.0
  0
ARC
  5
12DA3
  8
0
 10
58.092699573407089
 20
87.985279263936718
 30
0.0
 40
0.75
 50
359.99999000000003
 51
90.0
  0
LINE
  5
12DA4
  8
0
 10
58.842699573407089
 20
87.985279263936718
 30
0.0
 11
58.842699573407089
 21
84.815279263935835
 31
0.0
  0
ARC
  5
12DA7
  8
0
 10
77.602159033889194
 20
79.484029263936748
 30
0.0
 40
0.75
 50
270.0
 51
0.000000000000007
  0
LINE
  5
13170
  8
2
 10
73.602158033889197
 20
50.234030263936873
 30
0.0
 11
67.602158033889197
 21
50.234030263936809
 31
0.0
  0
LINE
  5
13171
  8
0
 10
76.847023521234206
 20
51.672590543893371
 30
0.0
 11
64.454818391437641
 21
58.432586263936813
 31
0.0
  0
LINE
  5
13172
  8
0
 10
78.352159033889194
 20
46.234030263936809
 30
0.0
 11
62.212159033889179
 21
46.234030263936809
 31
0.0
  0
LINE
  5
13173
  8
0
 10
77.602159033889194
 20
108.7340272639367
 30
0.0
 11
60.309300033889201
 21
108.7340272639367
 31
0.0
  0
LINE
  5
13175
  8
2
 10
68.852158033889197
 20
46.234030263936809
 30
0.0
 11
68.852158033889197
 21
50.234030263936809
 31
0.0
  0
LINE
  5
13176
  8
2
 10
72.352158033889197
 20
46.234030263936809
 30
0.0
 11
72.352158033889197
 21
50.234030263936809
 31
0.0
  0
LINE
  5
13177
  8
1
 10
70.602159033889166
 20
44.734030263936823
 30
0.0
 11
70.602159033889166
 21
56.552588403915102
 31
0.0
  0
LINE
  5
13178
  8
0
 10
62.212159033889179
 20
46.234030263936809
 30
0.0
 11
62.056296306581828
 21
48.824768824048149
 31
0.0
  0
LINE
  5
13179
  8
0
 10
58.842699573407089
 20
107.9840272639367
 30
0.0
 11
58.84269957340706
 21
104.48527826393671
 31
0.0
  0
ARC
  5
1317A
  8
0
 10
58.092699573407089
 20
97.990278263936773
 30
0.0
 40
0.75
 50
359.99999000000003
 51
90.0
  0
ARC
  5
1317B
  8
0
 10
58.092699573407089
 20
107.9840272639367
 30
0.0
 40
0.75
 50
0.0
 51
90.0
  0
LINE
  5
1317C
  8
0
 10
60.309300033889201
 20
103.62277826393669
 30
0.0
 11
60.309300033889201
 21
108.7340272639367
 31
0.0
  0
ARC
  5
1317D
  8
0
 10
58.09269957340706
 20
104.48527826393671
 30
0.0
 40
0.75
 50
270.0
 51
0.0
1001
GENIUS_GENODEF_13
1002
{
1000
HIER
1070
     0
1002
}
1002
{
1000
MANEDIT
1070
     0
1002
}
1002
{
1000
NOSEL
1070
     0
1002
}
1002
{
1000
BEHIND
1070
     0
1002
}
1002
{
1000
REACTOR
1002
}
1001
GENIUS_GENOBJ-N-FIL_13
1002
{
1000
OWNER
1000
GEN
1002
}
  0
LINE
  5
1317E
  8
0
 10
62.352159033889158
 20
103.62277826393669
 30
0.0
 11
62.352159033889158
 21
108.7340272639367
 31
0.0
  0
LINE
  5
13181
  8
3
 10
61.929399966794101
 20
50.934030263936798
 30
0.0
 11
60.309301033889199
 21
55.392553863971457
 31
0.0
  0
LINE
  5
13182
  8
3
 10
60.309301033889199
 20
55.392553863971457
 30
0.0
 11
62.408467970306098
 21
58.271790896727637
 31
0.0
  0
ARC
  5
13183
  8
0
 10
58.562613125801761
 20
48.614583590660303
 30
0.0
 40
3.5
 50
3.442850557114729
 51
83.141101834750927
1001
GENIUS_GENODEF_13
1002
{
1000
HIER
1070
     0
1002
}
1002
{
1000
MANEDIT
1070
     0
1002
}
1002
{
1000
NOSEL
1070
     0
1002
}
1002
{
1000
BEHIND
1070
     0
1002
}
1002
{
1000
REACTOR
1002
}
1001
GENIUS_GENOBJ-N-FIL_13
1002
{
1000
OWNER
1000
GEN
1002
}
  0
LINE
  5
13184
  8
3
 10
61.929399966794101
 20
50.934030263936798
 30
0.0
 11
62.056296306581771
 21
48.82476882404962
 31
0.0
  0
ARC
  5
13185
  8
3
 10
63.317518033889201
 20
57.609029263936819
 30
0.0
 40
1.125
 50
90.0
 51
143.90531151659101
  0
ARC
  5
13186
  8
0
 10
63.329818391437641
 20
56.484029263936819
 30
0.0
 40
2.25
 50
60.0
 51
90.0
  0
LINE
  5
13187
  8
2
 10
67.602158033889197
 20
50.234030263936809
 30
0.0
 11
67.602158033889197
 21
56.715700343339989
 31
0.0
  0
LINE
  5
13188
  8
0
 10
78.352159033889194
 20
46.234030263936809
 30
0.0
 11
78.226407902818977
 21
49.296546527268347
 31
0.0
  0
ARC
  5
13199
  8
0
 10
77.602159033889194
 20
107.9840272639367
 30
0.0
 40
0.75
 50
0.000000000000007
 51
90.0
  0
LINE
  5
1319A
  8
2
 10
73.602158033889197
 20
50.234030263936809
 30
0.0
 11
73.602158033889225
 21
53.442677189233549
 31
0.0
  0
ARC
  5
1319B
  8
0
 10
75.230210109785304
 20
49.145553861817071
 30
0.0
 40
3.0
 50
2.8849663966451411
 51
57.388640213142843
1001
GENIUS_GENODEF_13
1002
{
1000
HIER
1070
     0
1002
}
1002
{
1000
MANEDIT
1070
     0
1002
}
1002
{
1000
NOSEL
1070
     0
1002
}
1002
{
1000
BEHIND
1070
     0
1002
}
1002
{
1000
REACTOR
1002
}
1001
GENIUS_GENOBJ-N-FIL_13
1002
{
1000
OWNER
1000
GEN
1002
}
  0
LINE
  5
1319C
  8
3
 10
128.26429228102
 20
50.65175292389177
 30
0.0
 11
98.431457786758244
 21
50.65175292389177
 31
0.0
  0
LINE
  5
1319D
  8
0
 10
128.3478750338891
 20
46.234030263936809
 30
0.0
 11
98.347875033889125
 21
46.234030263936809
 31
0.0
  0
ARC
  5
1319E
  8
0
 10
99.565632522364353
 20
57.734029263936762
 30
0.0
 40
1.0
 50
89.999999999999758
 51
178.91610043182951
1001
GENIUS_GENODEF_13
1002
{
1000
HIER
1070
     0
1002
}
1002
{
1000
MANEDIT
1070
     0
1002
}
1002
{
1000
NOSEL
1070
     0
1002
}
1002
{
1000
BEHIND
1070
     0
1002
}
1002
{
1000
REACTOR
1002
}
1001
GENIUS_GENOBJ-N-FIL_13
1002
{
1000
OWNER
1000
GEN
1002
}
  0
LINE
  5
1319F
  8
0
 10
98.347875033889125
 20
46.234030263936809
 30
0.0
 11
98.565811455129761
 21
57.752945751821713
 31
0.0
  0
LINE
  5
131A4
  8
0
 10
127.1301175454138
 20
58.734029263936698
 30
0.0
 11
99.565632522364353
 21
58.734029263936762
 31
0.0
  0
LINE
  5
131A5
  8
2
 10
104.0978750338889
 20
46.234030263936809
 30
0.0
 11
104.0978750338889
 21
50.234030263936809
 31
0.0
  0
LINE
  5
131A6
  8
2
 10
107.5978750338889
 20
46.234030263936823
 30
0.0
 11
107.5978750338889
 21
50.234030263936823
 31
0.0
  0
LINE
  5
131A7
  8
1
 10
113.3478750338889
 20
61.734029263936741
 30
0.0
 11
113.3478750338891
 21
43.234030263936809
 31
0.0
  0
LINE
  5
131A8
  8
1
 10
105.8478750338891
 20
44.734030263936802
 30
0.0
 11
105.8478750338891
 21
58.161149411934339
 31
0.0
  0
LINE
  5
131A9
  8
2
 10
108.8478750338889
 20
50.234030263936873
 30
0.0
 11
102.8478750338889
 21
50.234030263936809
 31
0.0
  0
LINE
  5
131AB
  8
2
 10
102.8478750338889
 20
50.234030263936809
 30
0.0
 11
102.8478750338889
 21
55.07918822078291
 31
0.0
  0
LINE
  5
1328E
  8
2
 10
108.8478750338889
 20
50.234030263936809
 30
0.0
 11
108.8478750338889
 21
55.07918822078291
 31
0.0
  0
LINE
  5
134E3
  8
2
 10
122.5978750338889
 20
46.234030263936809
 30
0.0
 11
122.5978750338889
 21
50.234030263936809
 31
0.0
  0
LINE
  5
134E4
  8
2
 10
119.0978750338889
 20
46.234030263936809
 30
0.0
 11
119.0978750338889
 21
50.234030263936809
 31
0.0
  0
LINE
  5
134E5
  8
1
 10
120.8478750338891
 20
44.734030263936823
 30
0.0
 11
120.8478750338891
 21
58.161149411934339
 31
0.0
  0
LINE
  5
134E6
  8
0
 10
128.3478750338891
 20
46.234030263936809
 30
0.0
 11
128.1299386126484
 21
57.752945751821649
 31
0.0
  0
LINE
  5
134E7
  8
2
 10
117.8478750338889
 20
50.234030263936873
 30
0.0
 11
123.8478750338889
 21
50.234030263936809
 31
0.0
  0
LINE
  5
13589
  8
2
 10
117.8478750338889
 20
50.234030263936809
 30
0.0
 11
117.8478750338889
 21
55.07918822078291
 31
0.0
  0
ARC
  5
1358A
  8
0
 10
127.1301175454138
 20
57.734029263936712
 30
0.0
 40
1.0
 50
1.08389956817063
 51
89.999999999999915
1001
GENIUS_GENODEF_13
1002
{
1000
HIER
1070
     0
1002
}
1002
{
1000
MANEDIT
1070
     0
1002
}
1002
{
1000
NOSEL
1070
     0
1002
}
1002
{
1000
BEHIND
1070
     0
1002
}
1002
{
1000
REACTOR
1002
}
1001
GENIUS_GENOBJ-N-FIL_13
1002
{
1000
OWNER
1000
GEN
1002
}
  0
LINE
  5
1358B
  8
2
 10
123.8478750338889
 20
50.234030263936809
 30
0.0
 11
123.847875033889
 21
55.07918822078291
 31
0.0
  0
LINE
  5
13596
  8
1
 10
59.852159033889158
 20
55.734029263936819
 30
0.0
 11
51.352159033889173
 21
55.734029263936819
 31
0.0
  0
LINE
  5
13597
  8
1
 10
55.602159033889158
 20
59.984029263936819
 30
0.0
 11
55.602159033889151
 21
51.484029263936819
 31
0.0
  0
CIRCLE
  5
136E5
  8
0
 10
40.602160033889128
 20
86.23402826393675
 30
0.0
 40
1.75
  0
CIRCLE
  5
136E6
  8
0
 10
40.602160033889128
 20
86.23402826393675
 30
0.0
 40
3.0
  0
LINE
  5
136F5
  8
1
 10
36.102160033889128
 20
101.23402826393669
 30
0.0
 11
45.102160033889128
 21
101.23402826393669
 31
0.0
  0
LINE
  5
136F6
  8
1
 10
40.602160033889128
 20
105.73402826393669
 30
0.0
 11
40.602160033889128
 21
96.734028263936764
 31
0.0
  0
CIRCLE
  5
136F7
  8
0
 10
40.602160033889128
 20
101.23402826393669
 30
0.0
 40
1.75
  0
CIRCLE
  5
136F8
  8
0
 10
40.602160033889128
 20
101.23402826393669
 30
0.0
 40
3.0
  0
LINE
  5
136F9
  8
1
 10
66.102158033889197
 20
101.23402826393669
 30
0.0
 11
75.102158033889197
 21
101.23402826393669
 31
0.0
  0
LINE
  5
136FA
  8
1
 10
70.602158033889197
 20
105.73402826393669
 30
0.0
 11
70.602158033889197
 21
96.734028263936764
 31
0.0
  0
CIRCLE
  5
136FB
  8
0
 10
70.602158033889197
 20
101.23402826393669
 30
0.0
 40
1.75
  0
CIRCLE
  5
136FC
  8
0
 10
70.602158033889197
 20
101.23402826393669
 30
0.0
 40
3.0
  0
LINE
  5
136FD
  8
1
 10
66.102158033889197
 20
86.23402826393675
 30
0.0
 11
75.102158033889197
 21
86.23402826393675
 31
0.0
  0
LINE
  5
136FE
  8
1
 10
70.602158033889197
 20
90.73402826393675
 30
0.0
 11
70.602158033889197
 21
81.734028263936736
 31
0.0
  0
CIRCLE
  5
136FF
  8
0
 10
70.602158033889197
 20
86.23402826393675
 30
0.0
 40
1.75
  0
CIRCLE
  5
13700
  8
0
 10
70.602158033889197
 20
86.23402826393675
 30
0.0
 40
3.0
  0
POLYLINE
  5
1376E
  8
0
 66
     1
 10
0.0
 20
0.0
 30
0.0
 70
     1
  0
VERTEX
  5
13770
  8
0
 10
108.8478750338889
 20
55.079188220782918
 30
0.0
 42
0.1638020916826243
  0
VERTEX
  5
1377E
  8
0
 10
108.6576861672287
 20
55.644156236326722
 30
0.0
 42
0.1058857112971467
  0
VERTEX
  5
13771
  8
0
 10
107.9691953774486
 20
56.236377040137008
 30
0.0
 42
0.0694014707233502
 70
     2
 50
151.38735476699139
  0
VERTEX
  5
1377F
  8
0
 10
107.0561379103049
 20
56.580892973606637
 30
0.0
 42
0.0556130781528869
 50
151.38735476699139
  0
VERTEX
  5
13772
  8
0
 10
105.8478750338891
 20
56.715700343339982
 30
0.0
 42
0.0556130781528898
  0
VERTEX
  5
13778
  8
0
 10
104.63961215747319
 20
56.580892973606637
 30
0.0
 42
0.0694014707233535
  0
VERTEX
  5
13773
  8
0
 10
103.72655469032949
 20
56.236377040137008
 30
0.0
 42
0.1058857112971408
 70
     2
 50
208.61264523300849
  0
VERTEX
  5
13779
  8
0
 10
103.0380639005495
 20
55.644156236326729
 30
0.0
 42
0.1638020916826204
 50
208.61264523300849
  0
VERTEX
  5
13774
  8
0
 10
102.8478750338892
 20
55.079188220782918
 30
0.0
 42
0.1638020916826127
  0
VERTEX
  5
1377A
  8
0
 10
103.0380639005495
 20
54.514220205239127
 30
0.0
 42
0.1058857112971415
  0
VERTEX
  5
13775
  8
0
 10
103.72655469032949
 20
53.921999401428842
 30
0.0
 42
0.0694014707233588
 70
     2
 50
331.38735476699139
  0
VERTEX
  5
1377B
  8
0
 10
104.63961215747329
 20
53.577483467959212
 30
0.0
 42
0.0556130781528911
 50
331.38735476699139
  0
VERTEX
  5
13776
  8
0
 10
105.8478750338891
 20
53.442676098225867
 30
0.0
 42
0.0556130781528872
  0
VERTEX
  5
1377C
  8
0
 10
107.056137910305
 20
53.577483467959212
 30
0.0
 42
0.069401470723343
  0
VERTEX
  5
13777
  8
0
 10
107.9691953774486
 20
53.921999401428842
 30
0.0
 42
0.1058857112971551
 70
     2
 50
28.612645233008529
  0
VERTEX
  5
1377D
  8
0
 10
108.6576861672287
 20
54.514220205239141
 30
0.0
 42
0.1638020916826379
 50
28.612645233008529
  0
SEQEND
  5
1376F
  8
0
  0
POLYLINE
  5
13780
  8
0
 66
     1
 10
0.0
 20
0.0
 30
0.0
 70
     1
  0
VERTEX
  5
13781
  8
0
 10
123.8478750338889
 20
55.079188220782918
 30
0.0
 42
0.1638020916826243
  0
VERTEX
  5
13782
  8
0
 10
123.6576861672287
 20
55.644156236326722
 30
0.0
 42
0.1058857112971467
  0
VERTEX
  5
13783
  8
0
 10
122.9691953774486
 20
56.236377040137008
 30
0.0
 42
0.0694014707233502
 70
     2
 50
151.38735476699139
  0
VERTEX
  5
13784
  8
0
 10
122.0561379103049
 20
56.580892973606637
 30
0.0
 42
0.0556130781528869
 50
151.38735476699139
  0
VERTEX
  5
13785
  8
0
 10
120.8478750338891
 20
56.715700343339982
 30
0.0
 42
0.0556130781528898
  0
VERTEX
  5
13786
  8
0
 10
119.63961215747319
 20
56.580892973606637
 30
0.0
 42
0.0694014707233535
  0
VERTEX
  5
13787
  8
0
 10
118.72655469032949
 20
56.236377040137008
 30
0.0
 42
0.1058857112971408
 70
     2
 50
208.61264523300861
  0
VERTEX
  5
13788
  8
0
 10
118.0380639005495
 20
55.644156236326729
 30
0.0
 42
0.1638020916826204
 50
208.61264523300849
  0
VERTEX
  5
13789
  8
0
 10
117.8478750338892
 20
55.079188220782918
 30
0.0
 42
0.1638020916826127
  0
VERTEX
  5
1378A
  8
0
 10
118.0380639005495
 20
54.514220205239127
 30
0.0
 42
0.1058857112971415
  0
VERTEX
  5
1378B
  8
0
 10
118.72655469032949
 20
53.921999401428842
 30
0.0
 42
0.0694014707233588
 70
     2
 50
331.38735476699139
  0
VERTEX
  5
1378C
  8
0
 10
119.63961215747329
 20
53.577483467959212
 30
0.0
 42
0.0556130781528911
 50
331.38735476699139
  0
VERTEX
  5
1378D
  8
0
 10
120.8478750338891
 20
53.442676098225867
 30
0.0
 42
0.0556130781528872
  0
VERTEX
  5
1378E
  8
0
 10
122.056137910305
 20
53.577483467959212
 30
0.0
 42
0.069401470723343
  0
VERTEX
  5
1378F
  8
0
 10
122.9691953774486
 20
53.921999401428842
 30
0.0
 42
0.1058857112971551
 70
     2
 50
28.612645233008529
  0
VERTEX
  5
13790
  8
0
 10
123.6576861672286
 20
54.514220205239141
 30
0.0
 42
0.1638020916826379
 50
28.612645233008529
  0
SEQEND
  5
13791
  8
0
  0
TEXT
  5
1388A
  8
0
 62
     3
 10
0.0
 20
0.0
 30
0.0
 40
10.0
  1
EFH4530HH
  7
STANDARD1
  0
ENDSEC
  0
EOF
