  0
SECTION
  2
HEADER
  9
$ACADVER
  1
AC1009
  9
$INSBASE
 10
0.0
 20
0.0
 30
0.0
  9
$EXTMIN
 10
0.0
 20
-2.960436562073669
 30
0.0
  9
$EXTMAX
 10
142.6633810406297
 20
117.35899949006451
 30
0.0
  9
$LIMMIN
 10
0.0
 20
0.0
  9
$LIMMAX
 10
375.0
 20
278.0
  9
$ORTHOMODE
 70
     1
  9
$REGENMODE
 70
     1
  9
$FILLMODE
 70
     1
  9
$QTEXTMODE
 70
     0
  9
$MIRRTEXT
 70
     0
  9
$DRAGMODE
 70
     2
  9
$LTSCALE
 40
5.0
  9
$OSMODE
 70
  3071
  9
$ATTMODE
 70
     1
  9
$TEXTSIZE
 40
0.2
  9
$TRACEWID
 40
0.05
  9
$TEXTSTYLE
  7
STANDARD
  9
$CLAYER
  8
0
  9
$CELTYPE
  6
BYLAYER
  9
$CECOLOR
 62
   256
  9
$DIMSCALE
 40
1.0
  9
$DIMASZ
 40
3.0
  9
$DIMEXO
 40
1.0
  9
$DIMDLI
 40
6.0
  9
$DIMRND
 40
0.0
  9
$DIMDLE
 40
0.0
  9
$DIMEXE
 40
1.0
  9
$DIMTP
 40
495.0
  9
$DIMTM
 40
0.0
  9
$DIMTXT
 40
3.0
  9
$DIMCEN
 40
0.0
  9
$DIMTSZ
 40
0.0
  9
$DIMTOL
 70
     0
  9
$DIMLIM
 70
     0
  9
$DIMTIH
 70
     0
  9
$DIMTOH
 70
     0
  9
$DIMSE1
 70
     0
  9
$DIMSE2
 70
     0
  9
$DIMTAD
 70
     1
  9
$DIMZIN
 70
     0
  9
$DIMBLK
  1

  9
$DIMASO
 70
     1
  9
$DIMSHO
 70
     0
  9
$DIMPOST
  1

  9
$DIMAPOST
  1

  9
$DIMALT
 70
     0
  9
$DIMALTD
 70
     2
  9
$DIMALTF
 40
25.399999999999999
  9
$DIMLFAC
 40
1.0
  9
$DIMTOFL
 70
     1
  9
$DIMTVP
 40
0.0
  9
$DIMTIX
 70
     1
  9
$DIMSOXD
 70
     0
  9
$DIMSAH
 70
     0
  9
$DIMBLK1
  1

  9
$DIMBLK2
  1

  9
$DIMSTYLE
  2
STANDARD
  9
$DIMCLRD
 70
     0
  9
$DIMCLRE
 70
     0
  9
$DIMCLRT
 70
     4
  9
$DIMTFAC
 40
1.0
  9
$DIMGAP
 40
1.0
  9
$LUNITS
 70
     2
  9
$LUPREC
 70
     4
  9
$SKETCHINC
 40
0.1
  9
$FILLETRAD
 40
0.0
  9
$AUNITS
 70
     0
  9
$AUPREC
 70
     0
  9
$MENU
  1
C:\R13\WIN\SUPPORT\ACAD-I
  9
$ELEVATION
 40
0.0
  9
$PELEVATION
 40
0.0
  9
$THICKNESS
 40
0.0
  9
$LIMCHECK
 70
     0
  9
$BLIPMODE
 70
     0
  9
$CHAMFERA
 40
0.0
  9
$CHAMFERB
 40
0.0
  9
$SKPOLY
 70
     0
  9
$TDCREATE
 40
2450834.4199027782
  9
$TDUPDATE
 40
2456598.6570819332
  9
$TDINDWG
 40
0.2415537153
  9
$TDUSRTIMER
 40
0.2415537153
  9
$USRTIMER
 70
     1
  9
$ANGBASE
 50
0.0
  9
$ANGDIR
 70
     0
  9
$PDMODE
 70
     0
  9
$PDSIZE
 40
0.0
  9
$PLINEWID
 40
0.0
  9
$COORDS
 70
     1
  9
$SPLFRAME
 70
     0
  9
$SPLINETYPE
 70
     6
  9
$SPLINESEGS
 70
     8
  9
$ATTDIA
 70
     0
  9
$ATTREQ
 70
     1
  9
$HANDLING
 70
     1
  9
$HANDSEED
  5
122ED
  9
$SURFTAB1
 70
     6
  9
$SURFTAB2
 70
     6
  9
$SURFTYPE
 70
     6
  9
$SURFU
 70
     6
  9
$SURFV
 70
     6
  9
$UCSNAME
  2

  9
$UCSORG
 10
0.0
 20
0.0
 30
0.0
  9
$UCSXDIR
 10
1.0
 20
0.0
 30
0.0
  9
$UCSYDIR
 10
0.0
 20
1.0
 30
0.0
  9
$PUCSNAME
  2

  9
$PUCSORG
 10
0.0
 20
0.0
 30
0.0
  9
$PUCSXDIR
 10
1.0
 20
0.0
 30
0.0
  9
$PUCSYDIR
 10
0.0
 20
1.0
 30
0.0
  9
$USERI1
 70
     4
  9
$USERI2
 70
     1
  9
$USERI3
 70
     1
  9
$USERI4
 70
     0
  9
$USERI5
 70
     0
  9
$USERR1
 40
1.0
  9
$USERR2
 40
3.0
  9
$USERR3
 40
3.0
  9
$USERR4
 40
3.0
  9
$USERR5
 40
10.0
  9
$WORLDVIEW
 70
     1
  9
$SHADEDGE
 70
     3
  9
$SHADEDIF
 70
    70
  9
$TILEMODE
 70
     1
  9
$MAXACTVP
 70
    16
  9
$PLIMCHECK
 70
     0
  9
$PEXTMIN
 10
1.0000000000000000E+020
 20
1.0000000000000000E+020
 30
1.0000000000000000E+020
  9
$PEXTMAX
 10
-1.0000000000000000E+020
 20
-1.0000000000000000E+020
 30
-1.0000000000000000E+020
  9
$PLIMMIN
 10
0.0
 20
0.0
  9
$PLIMMAX
 10
12.0
 20
9.0
  9
$UNITMODE
 70
     0
  9
$VISRETAIN
 70
     0
  9
$PLINEGEN
 70
     0
  9
$PSLTSCALE
 70
     0
  0
ENDSEC
  0
SECTION
  2
TABLES
  0
TABLE
  2
VPORT
 70
     1
  0
VPORT
  2
*ACTIVE
 70
     0
 10
0.0
 20
0.0
 11
1.0
 21
1.0
 12
187.49427839065231
 22
174.97168974450321
 13
0.0
 23
0.0
 14
10.0
 24
10.0
 15
10.0
 25
10.0
 16
0.0
 26
0.0
 36
1.0
 17
0.0
 27
0.0
 37
0.0
 40
359.12869706410731
 41
1.831871345029239
 42
50.0
 43
0.0
 44
0.0
 50
0.0
 51
0.0
 71
     0
 72
   100
 73
     1
 74
     0
 75
     0
 76
     0
 77
     0
 78
     0
  0
ENDTAB
  0
TABLE
  2
LTYPE
 70
     4
  0
LTYPE
  2
CONTINUOUS
 70
     0
  3
Solid Line
 72
    65
 73
     0
 40
0.0
  0
LTYPE
  2
CENTER
 70
     0
  3
____ _ ____ _ ____ _ ____ _ ____ _ ____ _ ____
 72
    65
 73
     4
 40
2.0
 49
1.25
 49
-0.25
 49
0.25
 49
-0.25
  0
LTYPE
  2
HIDDEN
 70
     0
  3
__ __ __ __ __ __ __ __ __ __ __ __ __ __ __ __
 72
    65
 73
     2
 40
0.375
 49
0.25
 49
-0.125
  0
LTYPE
  2
PHANTOM2
 70
     0
  3
___ _ _ ___ _ _ ___ _ _ ___ _ _
 72
    65
 73
     6
 40
1.25
 49
0.625
 49
-0.125
 49
0.125
 49
-0.125
 49
0.125
 49
-0.125
  0
ENDTAB
  0
TABLE
  2
LAYER
 70
     5
  0
LAYER
  2
0
 70
     0
 62
     7
  6
CONTINUOUS
  0
LAYER
  2
1
 70
     0
 62
     1
  6
CENTER
  0
LAYER
  2
3
 70
     0
 62
     3
  6
CONTINUOUS
  0
LAYER
  2
2
 70
     0
 62
     2
  6
HIDDEN
  0
LAYER
  2
DEFPOINTS
 70
     0
 62
     7
  6
CONTINUOUS
  0
ENDTAB
  0
TABLE
  2
STYLE
 70
     2
  0
STYLE
  2
STANDARD
 70
     0
 40
0.0
 41
1.0
 50
0.0
 71
     0
 42
0.2
  3
SIMPLEX
  4
BIGFONT
  0
STYLE
  2
STANDARD1
 70
     0
 40
0.0
 41
1.0
 50
0.0
 71
     0
 42
3.0
  3
txt
  4

  0
ENDTAB
  0
TABLE
  2
VIEW
 70
     0
  0
ENDTAB
  0
TABLE
  2
UCS
 70
     0
  0
ENDTAB
  0
TABLE
  2
APPID
 70
    39
  0
APPID
  2
ACAD
 70
     0
  0
APPID
  2
GENIUS_GENOBJ_13
 70
     0
  0
APPID
  2
GENIUS_GENODEF_13
 70
     0
  0
APPID
  2
GENIUS_GENOENT_13
 70
     0
  0
APPID
  2
GENIUS_GENOLIS_13
 70
     0
  0
APPID
  2
GENIUS_GENOREF_13
 70
     0
  0
APPID
  2
GENIUS_GENOBJ-N-TIT_13
 70
     0
  0
APPID
  2
GENIUS_GENTITLE_13
 70
     0
  0
APPID
  2
GENIUS_GENZVEED_13
 70
     0
  0
APPID
  2
GENIUS_GENOBJ-N-FIL_13
 70
     0
  0
APPID
  2
GENIUS_GENOBJ-N-CRS_13
 70
     0
  0
APPID
  2
GENIUS_GEFINERT_13
 70
     0
  0
APPID
  2
GENIUS_GENOBJ-F-INER_13
 70
     0
  0
APPID
  2
GENIUS_GENOBJ-N-ZOO_13
 70
     0
  0
APPID
  2
GENIUS_GENZOO_13
 70
     0
  0
APPID
  2
GENIUS_GENOBJ-F-TOL_13
 70
     0
  0
APPID
  2
GENIUS_GENOBJ-N-RSSYM_13
 70
     0
  0
APPID
  2
GENIUS_GENSYMENT_13
 70
     0
  0
APPID
  2
GENIUS_GENBH_13
 70
     0
  0
APPID
  2
GENIUS_GENOBJ-NBEHI-BHF_13
 70
     0
  0
APPID
  2
GENIUS_GENOBJ-NBEHI-BHB_13
 70
     0
  0
APPID
  2
GENIUS_GENOBJ-F-PART_13
 70
     0
  0
APPID
  2
GENIUS_GEFSTDP_13
 70
     0
  0
APPID
  2
GENIUS_GENOBJ-N-LEADER_13
 70
     0
  0
APPID
  2
GENIUS_GENOBJ-N-REV_13
 70
     0
  0
APPID
  2
GENIUS_GENCFG_13
 70
     0
  0
APPID
  2
GENIUS_GENCFG0_13
 70
     0
  0
APPID
  2
GENIUS_GENCFG1_13
 70
     0
  0
APPID
  2
GENIUS_GENCFG2_13
 70
     0
  0
APPID
  2
GENIUS_GENCFG3_13
 70
     0
  0
APPID
  2
GENIUS_GEVCFG0_13
 70
     0
  0
APPID
  2
GENIUS_GENCFG4_13
 70
     0
  0
APPID
  2
GENIUS_GENOBJ-N-REC_13
 70
     0
  0
APPID
  2
GENIUS_GENFIL_13
 70
     0
  0
APPID
  2
GENIUS_GENOBJ-N-CHA_13
 70
     0
  0
APPID
  2
GENIUS_GENREC_13
 70
     0
  0
APPID
  2
ACAD_EXEMPT_FROM_CAD_STANDARDS
 70
     0
  0
APPID
  2
ACAD_MLEADERVER
 70
     0
  0
APPID
  2
ACAD_NAV_VCDISPLAY
 70
     0
  0
ENDTAB
  0
TABLE
  2
DIMSTYLE
 70
     1
  0
DIMSTYLE
  2
STANDARD
 70
     0
  3

  4

  5

  6

  7

 40
1.0
 41
0.18
 42
0.0625
 43
0.38
 44
0.18
 45
0.0
 46
0.0
 47
0.0
 48
0.0
140
0.18
141
0.09
142
0.0
143
25.399999999999999
144
1.0
145
0.0
146
1.0
147
0.09
 71
     0
 72
     0
 73
     1
 74
     1
 75
     0
 76
     0
 77
     0
 78
     0
170
     0
171
     2
172
     0
173
     0
174
     0
175
     0
176
     0
177
     0
178
     0
  0
ENDTAB
  0
ENDSEC
  0
SECTION
  2
BLOCKS
  0
BLOCK
  8
0
  2
$MODEL_SPACE
 70
     0
 10
0.0
 20
0.0
 30
0.0
  3
$MODEL_SPACE
  1

  0
ENDBLK
  5
11D88
  8
0
  0
BLOCK
 67
     1
  8
0
  2
$PAPER_SPACE
 70
     0
 10
0.0
 20
0.0
 30
0.0
  3
$PAPER_SPACE
  1

  0
ENDBLK
  5
11D86
 67
     1
  8
0
  0
ENDSEC
  0
SECTION
  2
ENTITIES
  0
LINE
  5
110C6
  8
0
 10
24.92547208525383
 20
44.337431479850501
 30
0.0
 11
42.034552213240431
 21
54.022912557396687
 31
0.0
  0
LINE
  5
110C7
  8
0
 10
23.518119126956059
 20
37.861184190569702
 30
0.0
 11
43.850795364949413
 21
37.861184190569702
 31
0.0
  0
LINE
  5
110CA
  8
1
 10
20.517462226060388
 20
94.358423784761314
 30
0.0
 11
85.517462178474347
 21
94.35842378476147
 31
0.0
  0
LINE
  5
110CC
  8
0
 10
24.486741306941141
 20
74.108423784769997
 30
0.0
 11
47.184128604505368
 21
74.108423784770181
 31
0.0
  0
LINE
  5
110CD
  8
0
 10
24.48674107594411
 20
114.6084237847613
 30
0.0
 11
56.214851848398652
 21
114.6084237847615
 31
0.0
  0
LINE
  5
110D2
  8
0
 10
23.517462226060371
 20
113.63914493487761
 30
0.0
 11
23.517462226060388
 21
75.077126929346932
 31
0.0
  0
ARC
  5
110D4
  8
0
 10
24.48674135949857
 20
75.077703089449017
 30
0.0
 40
0.9692793046790627
 50
180.03405782443539
 51
269.99998886439118
  0
LINE
  5
1116B
  8
1
 10
32.817462226060421
 20
88.758142740928463
 30
0.0
 11
32.817462226060421
 21
79.958704828594108
 31
0.0
  0
ARC
  5
113E3
  8
0
 10
24.48674107594411
 20
113.63914493487761
 30
0.0
 40
0.9692788498837348
 50
90.0
 51
180.0
  0
LINE
  5
113E4
  8
1
 10
32.817462226060421
 20
99.958423784761294
 30
0.0
 11
32.817462226060421
 21
108.75842378476131
 31
0.0
  0
LINE
  5
114AD
  8
0
 10
23.51746222605486
 20
37.861184190569752
 30
0.0
 11
23.676994432323841
 21
42.259617067059757
 31
0.0
  0
ARC
  5
114AE
  8
0
 10
26.17547196025383
 20
42.17236818689576
 30
0.0
 40
2.4999997499999989
 50
120.0
 51
178.0
  0
LINE
  5
114AF
  8
2
 10
30.81746222606041
 20
37.918919217488678
 30
0.0
 11
30.81746222606041
 21
43.361184190569702
 31
0.0
  0
LINE
  5
114B0
  8
2
 10
29.917462226060429
 20
37.861184190569702
 30
0.0
 11
29.917462226060429
 21
41.861184190569702
 31
0.0
  0
LINE
  5
114B1
  8
2
 10
34.817462226060407
 20
37.918919217488678
 30
0.0
 11
34.817462226060442
 21
43.361184190569702
 31
0.0
  0
LINE
  5
114B2
  8
2
 10
35.717462226060441
 20
37.861184190569702
 30
0.0
 11
35.717462226060441
 21
41.861184190569702
 31
0.0
  0
LINE
  5
114B3
  8
2
 10
31.167462226060401
 20
38.120991811705039
 30
0.0
 11
31.167462226060429
 21
44.211952949785712
 31
0.0
  0
LINE
  5
114B4
  8
2
 10
34.467462226060412
 20
38.120991811705039
 30
0.0
 11
34.467462226060441
 21
44.211952949785662
 31
0.0
  0
LINE
  5
114B5
  8
1
 10
32.817462226060456
 20
47.561184190569719
 30
0.0
 11
32.817462226060407
 21
36.361184190569702
 31
0.0
  0
LINE
  5
114B6
  8
2
 10
34.467462226060412
 20
38.120991811705039
 30
0.0
 11
34.917462226060401
 21
37.861184190569702
 31
0.0
  0
LINE
  5
114B7
  8
2
 10
34.467462226060412
 20
38.120991811705039
 30
0.0
 11
31.167462226060401
 21
38.120991811705039
 31
0.0
  0
LINE
  5
114B8
  8
2
 10
31.167462226060401
 20
38.120991811705039
 30
0.0
 11
30.717462226060391
 21
37.861184190569702
 31
0.0
  0
LINE
  5
114B9
  8
2
 10
33.817462226060471
 20
46.061184190569691
 30
0.0
 11
36.857462226060427
 21
44.306039372233272
 31
0.0
1001
GENIUS_GENOREF_13
1005
0
  0
LINE
  5
114BA
  8
2
 10
30.81746222606041
 20
43.361184190569702
 30
0.0
 11
34.817462226060442
 21
43.361184190569702
 31
0.0
  0
LINE
  5
114BB
  8
2
 10
34.817462226060442
 20
43.361184190569702
 30
0.0
 11
34.467462226060441
 21
44.061184190569683
 31
0.0
  0
LINE
  5
114BC
  8
2
 10
31.81746222606041
 20
46.061184190569691
 30
0.0
 11
28.777462226060418
 21
44.306039372233272
 31
0.0
1001
GENIUS_GENOREF_13
1005
0
  0
LINE
  5
114BD
  8
2
 10
31.167462226060429
 20
44.211952949785712
 30
0.0
 11
34.467462226060441
 21
44.211952949785662
 31
0.0
  0
LINE
  5
114BE
  8
2
 10
32.817462226060456
 20
45.164580893948589
 30
0.0
 11
34.467462226060441
 21
44.211952949785662
 31
0.0
  0
LINE
  5
114BF
  8
2
 10
33.817462226060428
 20
46.061184190569691
 30
0.0
 11
31.817462226060439
 21
46.061184190569747
 31
0.0
1001
GENIUS_GENOREF_13
1005
0
  0
LINE
  5
114C0
  8
2
 10
32.817462226060456
 20
45.164580893948589
 30
0.0
 11
31.167462226060429
 21
44.211952949785712
 31
0.0
  0
LINE
  5
114C1
  8
2
 10
29.917462226060429
 20
41.861184190569702
 30
0.0
 11
28.777462226060418
 21
41.861184190569702
 31
0.0
  0
LINE
  5
114C2
  8
2
 10
28.777462226060418
 20
41.861184190569702
 30
0.0
 11
28.777462226060418
 21
44.306039372233272
 31
0.0
  0
LINE
  5
114C3
  8
2
 10
30.81746222606041
 20
43.361184190569702
 30
0.0
 11
31.167462226060429
 21
44.061184190569747
 31
0.0
  0
LINE
  5
114C4
  8
2
 10
35.717462226060441
 20
41.861184190569702
 30
0.0
 11
36.857462226060427
 21
41.861184190569702
 31
0.0
  0
LINE
  5
114C5
  8
2
 10
36.857462226060427
 20
41.861184190569702
 30
0.0
 11
36.857462226060427
 21
44.306039372233272
 31
0.0
  0
LINE
  5
114C6
  8
3
 10
43.284552088240467
 20
114.6084237847615
 30
0.0
 11
43.284552088240453
 21
74.108423784761371
 31
0.0
  0
LINE
  5
114C7
  8
1
 10
53.01746222606041
 20
117.35899949006451
 30
0.0
 11
53.01746222606041
 21
71.357848079458677
 31
0.0
  0
LINE
  5
114CE
  8
3
 10
62.750372363285962
 20
114.6084237847613
 30
0.0
 11
62.750372459799827
 21
74.108423784761385
 31
0.0
  0
LINE
  5
114CF
  8
0
 10
48.850798198282412
 20
93.389144934877834
 30
0.0
 11
48.850798198282412
 21
89.012852220024556
 31
0.0
  0
LINE
  5
114D0
  8
0
 10
47.184128364949373
 20
87.898181542658207
 30
0.0
 11
47.184128364949338
 21
94.503815612244125
 31
0.0
  0
LINE
  5
114D1
  8
0
 10
44.293952577106801
 20
94.503815612244068
 30
0.0
 11
44.293952577106801
 21
87.898181542658207
 31
0.0
  0
LINE
  5
114D2
  8
0
 10
82.517462177849168
 20
113.6391797488124
 30
0.0
 11
82.517462272109157
 21
75.077648043946695
 31
0.0
  0
LINE
  5
114D3
  8
0
 10
81.548183423762708
 20
74.108423784761371
 30
0.0
 11
49.820077331720583
 21
74.108423784761342
 31
0.0
  0
LINE
  5
114D5
  8
0
 10
44.293952577106801
 20
87.898181542658207
 30
0.0
 11
56.214851848398609
 21
87.898181542658207
 31
0.0
  0
LINE
  5
114D6
  8
0
 10
44.293952577106801
 20
81.105644339399305
 30
0.0
 11
56.193004547446883
 21
81.105644339399305
 31
0.0
  0
LINE
  5
114D7
  8
0
 10
49.820077048166127
 20
88.043573370140848
 30
0.0
 11
61.740971875014061
 21
88.043573370140848
 31
0.0
  0
LINE
  5
114D8
  8
0
 10
49.820077048166119
 20
80.960252511916735
 30
0.0
 11
61.740971875014019
 21
80.960252511916792
 31
0.0
  0
LINE
  5
114D9
  8
0
 10
48.850798198282412
 20
79.990973662032957
 30
0.0
 11
48.850798198282412
 21
75.077126929342384
 31
0.0
  0
LINE
  5
114DA
  8
0
 10
47.184128604505368
 20
74.108423784761371
 30
0.0
 11
47.18412836494943
 21
81.105644339399305
 31
0.0
  0
LINE
  5
114DB
  8
0
 10
44.293952577106801
 20
81.105644339399305
 30
0.0
 11
44.293952577106801
 21
74.108423784761371
 31
0.0
  0
ARC
  5
114DC
  8
0
 10
49.820077331720583
 20
75.077703089440405
 30
0.0
 40
0.969279304679061
 50
180.0340578239163
 51
269.99998886439113
  0
ARC
  5
114DD
  8
0
 10
49.820077048166127
 20
79.990973662032957
 30
0.0
 40
0.9692788498837348
 50
90.0
 51
180.0
  0
ARC
  5
114DE
  8
0
 10
49.820077048166127
 20
89.012852220024556
 30
0.0
 40
0.9692788498837348
 50
180.0
 51
270.0
  0
LINE
  5
114DF
  8
0
 10
58.85079608717146
 20
80.960251219544944
 30
0.0
 11
58.850796087171403
 21
88.043573370140905
 31
0.0
  0
LINE
  5
114E3
  8
0
 10
61.740971875014061
 20
88.043573370140848
 30
0.0
 11
61.740971875014019
 21
80.960252511916792
 31
0.0
  0
LINE
  5
114E4
  8
1
 10
73.217462226060405
 20
88.758142740928577
 30
0.0
 11
73.217462226060405
 21
79.958704828594236
 31
0.0
  0
ARC
  5
115A6
  8
0
 10
81.548183423762708
 20
75.077702634645092
 30
0.0
 40
0.9692788498837348
 50
270.0
 51
0.000000000000007
  0
LINE
  5
115A7
  8
0
 10
142.6633810406297
 20
37.861174468685967
 30
0.0
 11
102.16338104063441
 21
37.861194118962629
 31
0.0
  0
CIRCLE
  5
115AB
  8
0
 10
53.01746222606041
 20
50.36117762715832
 30
0.0
 40
2.0
  0
ARC
  5
115AC
  8
0
 10
53.023160205477183
 20
50.188822462282857
 30
0.0
 40
4.1723626749049707
 50
90.036429571224573
 51
179.9675854039501
  0
LINE
  5
115AE
  8
0
 10
47.18412836494943
 20
50.191182940569661
 30
0.0
 11
45.57772630336742
 21
53.636121484964747
 31
0.0
  0
LINE
  5
115AF
  8
0
 10
82.517462226060417
 20
37.861184190569702
 30
0.0
 11
62.184129087171407
 21
37.861184190569702
 31
0.0
  0
LINE
  5
115B0
  8
0
 10
82.517462226060417
 20
37.861184190569702
 30
0.0
 11
62.184129087171407
 21
37.861184190569702
 31
0.0
  0
LINE
  5
115B1
  8
0
 10
81.548183328590625
 20
114.6084237847614
 30
0.0
 11
58.85079608717146
 21
114.6084237847615
 31
0.0
  0
LINE
  5
115B2
  8
0
 10
44.293952577106801
 20
101.02836010773539
 30
0.0
 11
56.214851848398609
 21
101.02836010773539
 31
0.0
  0
LINE
  5
115B3
  8
0
 10
44.293952577106801
 20
107.8987572479612
 30
0.0
 11
56.214851848398659
 21
107.8987572479612
 31
0.0
  0
LINE
  5
115B4
  8
0
 10
49.820077048166148
 20
101.17375193521799
 30
0.0
 11
61.740971875014061
 21
101.17375193521789
 31
0.0
  0
LINE
  5
115B5
  8
0
 10
49.820077048166127
 20
107.7533654204786
 30
0.0
 11
61.740971875014019
 21
107.7533654204786
 31
0.0
  0
LINE
  5
115B7
  8
0
 10
44.293952577106801
 20
94.503815612244068
 30
0.0
 11
56.214851848398609
 21
94.503815612244068
 31
0.0
  0
LINE
  5
115B8
  8
0
 10
49.820077048166119
 20
94.358423784761428
 30
0.0
 11
61.740971875014019
 21
94.358423784761555
 31
0.0
  0
LINE
  5
115B9
  8
0
 10
48.850798198282412
 20
106.7840865705947
 30
0.0
 11
48.850798198282412
 21
102.7580307851017
 31
0.0
  0
LINE
  5
115BA
  8
0
 10
47.184128364949309
 20
101.02836010773539
 30
0.0
 11
47.184128364949309
 21
107.8987572479611
 31
0.0
  0
LINE
  5
115BB
  8
0
 10
44.293952577106801
 20
107.8987572479612
 30
0.0
 11
44.293952577106801
 21
101.02836010773539
 31
0.0
  0
ARC
  5
115BC
  8
0
 10
49.820077048166127
 20
93.389144934877834
 30
0.0
 40
0.9692788498837348
 50
90.0
 51
180.0
  0
ARC
  5
115BD
  8
0
 10
50.509915251458381
 20
102.68444941248281
 30
0.0
 40
1.6607479081834819
 50
177.4606123969094
 51
245.45687457714291
  0
ARC
  5
115C0
  8
0
 10
49.820077048166127
 20
106.78408657059489
 30
0.0
 40
0.9692788498837348
 50
90.0
 51
180.0
  0
LINE
  5
115C1
  8
0
 10
58.850796087171403
 20
94.358423784761555
 30
0.0
 11
58.850796087171481
 21
101.17375193521789
 31
0.0
  0
LINE
  5
115C2
  8
0
 10
57.184130698282381
 20
100.0590812578518
 30
0.0
 11
57.184130698282402
 21
95.473094462127804
 31
0.0
  0
ARC
  5
115C3
  8
0
 10
56.214851848398609
 20
95.473094462127804
 30
0.0
 40
0.9692788498837348
 50
270.0
 51
0.0
  0
ARC
  5
115C4
  8
0
 10
56.214851848398609
 20
100.0590812578518
 30
0.0
 40
0.9692788498837348
 50
359.99999000000003
 51
90.0
  0
LINE
  5
115C5
  8
0
 10
61.740971875014061
 20
101.17375193521789
 30
0.0
 11
61.740971875014111
 21
94.358423784761555
 31
0.0
  0
ARC
  5
115C6
  8
0
 10
56.214851848398659
 20
108.86803609784489
 30
0.0
 40
0.9692788498837348
 50
270.0
 51
0.0
1001
GENIUS_GENODEF_13
1002
{
1000
HIER
1070
     0
1002
}
1002
{
1000
MANEDIT
1070
     0
1002
}
1002
{
1000
NOSEL
1070
     0
1002
}
1002
{
1000
BEHIND
1070
     0
1002
}
1002
{
1000
REACTOR
1002
}
1001
GENIUS_GENOBJ-N-FIL_13
1002
{
1000
OWNER
1000
GEN
1002
}
  0
LINE
  5
115C7
  8
0
 10
58.85079608717146
 20
107.7533654204786
 30
0.0
 11
58.850796087171467
 21
114.6084237847613
 31
0.0
  0
ARC
  5
115C8
  8
0
 10
56.214851848398659
 20
113.63914493487781
 30
0.0
 40
0.9692788498837348
 50
0.0
 51
90.0
  0
LINE
  5
115C9
  8
0
 10
57.184130698282402
 20
113.63914493487781
 30
0.0
 11
57.184130698282388
 21
108.86803609784489
 31
0.0
  0
LINE
  5
115CA
  8
0
 10
61.740971875014019
 20
107.7533654204786
 30
0.0
 11
61.740971875014033
 21
114.6084237847613
 31
0.0
  0
LINE
  5
115CC
  8
0
 10
56.87930535176173
 20
46.024516690569719
 30
0.0
 11
53.017464448282389
 21
46.024516690569719
 31
0.0
  0
LINE
  5
115CD
  8
0
 10
43.850795364949413
 20
37.861184190569702
 30
0.0
 11
44.175736400694063
 21
41.472588445511462
 31
0.0
  0
ARC
  5
115CE
  8
0
 10
49.155619100359097
 20
41.024516690569719
 30
0.0
 40
5.0
 50
90.0
 51
174.85857861868411
1001
GENIUS_GENODEF_13
1002
{
1000
HIER
1070
     0
1002
}
1002
{
1000
MANEDIT
1070
     0
1002
}
1002
{
1000
NOSEL
1070
     0
1002
}
1002
{
1000
BEHIND
1070
     0
1002
}
1002
{
1000
REACTOR
1002
}
1001
GENIUS_GENOBJ-N-FIL_13
1002
{
1000
OWNER
1000
GEN
1002
}
  0
LINE
  5
115CF
  8
0
 10
44.388716343705731
 20
43.83965515481389
 30
0.0
 11
44.175736400694227
 21
41.472588445513558
 31
0.0
  0
ARC
  5
115D0
  8
0
 10
46.879202839886432
 20
43.621765819733689
 30
0.0
 40
2.4999997499999989
 50
155.0
 51
175.0
  0
LINE
  5
115D1
  8
0
 10
47.18412836494943
 20
50.191182940569661
 30
0.0
 11
44.613434177574419
 21
44.678311269634719
 31
0.0
  0
ARC
  5
115D2
  8
0
 10
53.017464448282389
 20
50.191182940569661
 30
0.0
 40
4.1666662499999987
 50
180.00000299999999
 51
270.0
  0
LINE
  5
115D3
  8
0
 10
49.155619100359097
 20
46.024516690569719
 30
0.0
 11
53.017464448283242
 21
46.024516690569669
 31
0.0
  0
LINE
  5
115D4
  8
0
 10
62.184129087171407
 20
37.861184190569702
 30
0.0
 11
61.85918805142677
 21
41.472588445511462
 31
0.0
  0
LINE
  5
115D5
  8
3
 10
58.850796087171403
 20
50.191182940569661
 30
0.0
 11
61.421490274546407
 21
44.678311269634719
 31
0.0
  0
ARC
  5
115D6
  8
0
 10
56.87930535176173
 20
41.024516690569719
 30
0.0
 40
5.0
 50
5.1414213813159177
 51
90.0
1001
GENIUS_GENODEF_13
1002
{
1000
HIER
1070
     0
1002
}
1002
{
1000
MANEDIT
1070
     0
1002
}
1002
{
1000
NOSEL
1070
     0
1002
}
1002
{
1000
BEHIND
1070
     0
1002
}
1002
{
1000
REACTOR
1002
}
1001
GENIUS_GENOBJ-N-FIL_13
1002
{
1000
OWNER
1000
GEN
1002
}
  0
LINE
  5
115D8
  8
3
 10
61.646208108415088
 20
43.83965515481389
 30
0.0
 11
61.859188051426599
 21
41.472588445513558
 31
0.0
  0
ARC
  5
115D9
  8
3
 10
59.155721612234402
 20
43.621765819733689
 30
0.0
 40
2.4999997499999989
 50
5.0
 51
25.000000000000011
  0
LINE
  5
115DB
  8
1
 10
73.21746222606042
 20
99.958704828594279
 30
0.0
 11
73.21746222606042
 21
108.75814274092861
 31
0.0
  0
ARC
  5
118EE
  8
0
 10
81.548183328590625
 20
113.63914493487771
 30
0.0
 40
0.9692788498837348
 50
0.000000000000007
 51
90.0
  0
LINE
  5
118EF
  8
2
 10
76.117462226060454
 20
37.861184190569702
 30
0.0
 11
76.117462226060454
 21
41.861184190569702
 31
0.0
  0
LINE
  5
118F0
  8
2
 10
70.317462226060442
 20
37.861184190569702
 30
0.0
 11
70.317462226060442
 21
41.861184190569702
 31
0.0
  0
LINE
  5
118F1
  8
2
 10
71.217462226060476
 20
37.918919217488678
 30
0.0
 11
71.217462226060448
 21
43.361184190569702
 31
0.0
  0
LINE
  5
118F2
  8
2
 10
71.567462226060471
 20
38.120991811705039
 30
0.0
 11
71.567462226060442
 21
44.211952949785662
 31
0.0
  0
LINE
  5
118F3
  8
2
 10
75.217462226060476
 20
37.918919217488678
 30
0.0
 11
75.217462226060476
 21
43.361184190569702
 31
0.0
  0
LINE
  5
118F4
  8
2
 10
74.867462226060482
 20
38.120991811705039
 30
0.0
 11
74.867462226060454
 21
44.211952949785712
 31
0.0
  0
LINE
  5
118F5
  8
1
 10
73.21746222606042
 20
47.561184190569719
 30
0.0
 11
73.217462226060462
 21
36.361184190569702
 31
0.0
  0
LINE
  5
118F6
  8
2
 10
71.567462226060471
 20
38.120991811705039
 30
0.0
 11
74.867462226060482
 21
38.120991811705039
 31
0.0
  0
LINE
  5
118F7
  8
2
 10
71.567462226060471
 20
38.120991811705039
 30
0.0
 11
71.117462226060482
 21
37.861184190569702
 31
0.0
  0
LINE
  5
118F8
  8
2
 10
74.867462226060482
 20
38.120991811705039
 30
0.0
 11
75.317462226060499
 21
37.861184190569702
 31
0.0
  0
LINE
  5
118F9
  8
2
 10
73.21746222606042
 20
45.164580893948589
 30
0.0
 11
74.867462226060454
 21
44.211952949785712
 31
0.0
  0
LINE
  5
118FA
  8
2
 10
72.217462226060448
 20
46.061184190569691
 30
0.0
 11
74.217462226060448
 21
46.061184190569747
 31
0.0
1001
GENIUS_GENOREF_13
1005
0
  0
LINE
  5
118FB
  8
2
 10
75.217462226060476
 20
43.361184190569702
 30
0.0
 11
71.217462226060448
 21
43.361184190569702
 31
0.0
  0
LINE
  5
118FC
  8
2
 10
74.867462226060454
 20
44.211952949785712
 30
0.0
 11
71.567462226060442
 21
44.211952949785662
 31
0.0
  0
LINE
  5
118FD
  8
2
 10
71.217462226060448
 20
43.361184190569702
 30
0.0
 11
71.567462226060442
 21
44.061184190569683
 31
0.0
  0
LINE
  5
118FE
  8
2
 10
73.21746222606042
 20
45.164580893948589
 30
0.0
 11
71.567462226060442
 21
44.211952949785662
 31
0.0
  0
LINE
  5
118FF
  8
2
 10
72.21746222606042
 20
46.061184190569691
 30
0.0
 11
69.177462226060456
 21
44.306039372233272
 31
0.0
1001
GENIUS_GENOREF_13
1005
0
  0
LINE
  5
11900
  8
2
 10
70.317462226060442
 20
41.861184190569702
 30
0.0
 11
69.177462226060456
 21
41.861184190569702
 31
0.0
  0
LINE
  5
11901
  8
2
 10
69.177462226060456
 20
41.861184190569702
 30
0.0
 11
69.177462226060456
 21
44.306039372233272
 31
0.0
  0
LINE
  5
11902
  8
2
 10
75.217462226060476
 20
43.361184190569702
 30
0.0
 11
74.867462226060454
 21
44.061184190569747
 31
0.0
  0
LINE
  5
11903
  8
2
 10
74.217462226060476
 20
46.061184190569691
 30
0.0
 11
77.257462226060468
 21
44.306039372233272
 31
0.0
1001
GENIUS_GENOREF_13
1005
0
  0
LINE
  5
11904
  8
2
 10
76.117462226060454
 20
41.861184190569702
 30
0.0
 11
77.257462226060468
 21
41.861184190569702
 31
0.0
  0
LINE
  5
11905
  8
2
 10
77.257462226060468
 20
41.861184190569702
 30
0.0
 11
77.257462226060468
 21
44.306039372233272
 31
0.0
  0
LINE
  5
11908
  8
0
 10
62.750372363880388
 20
54.361184293824138
 30
0.0
 11
53.017464448282389
 21
54.361184293824138
 31
0.0
  0
LINE
  5
11909
  8
0
 10
43.284552088240453
 20
54.361184293824138
 30
0.0
 11
53.01746000383843
 21
54.361184293824138
 31
0.0
  0
ARC
  5
1190A
  8
0
 10
44.436440252029513
 20
53.100480093610521
 30
0.0
 40
1.2607321957252811
 50
25.14211367593758
 51
89.618168972049304
  0
ARC
  5
1190B
  8
0
 10
43.303805600716842
 20
51.81136734962579
 30
0.0
 40
2.549889634212374
 50
90.432628719892406
 51
119.8524396393811
  0
ARC
  5
1190D
  8
0
 10
62.750372363880388
 20
51.85784944056968
 30
0.0
 40
2.4999997499999989
 50
60.0
 51
90.0
  0
LINE
  5
1190F
  8
0
 10
142.6633810406297
 20
37.861174468685967
 30
0.0
 11
141.89518564733081
 21
53.202583600747943
 31
0.0
  0
LINE
  5
11910
  8
3
 10
102.6023679316386
 20
43.459972961786711
 30
0.0
 11
142.2243892787385
 21
43.460107752091282
 31
0.0
  0
LINE
  5
11911
  8
2
 10
113.4133810406321
 20
46.061184190569747
 30
0.0
 11
116.453381040632
 21
44.306039372233272
 31
0.0
1001
GENIUS_GENOREF_13
1005
0
  0
LINE
  5
11912
  8
2
 10
109.513381040632
 20
37.861184190569702
 30
0.0
 11
109.513381040632
 21
41.861184190569702
 31
0.0
  0
LINE
  5
11913
  8
2
 10
114.413381040632
 20
37.918919217488678
 30
0.0
 11
114.4133810406321
 21
43.361184190569702
 31
0.0
  0
LINE
  5
11914
  8
2
 10
114.063381040632
 20
38.120991811705039
 30
0.0
 11
114.06338104063209
 21
44.211952949785712
 31
0.0
  0
LINE
  5
11915
  8
2
 10
110.413381040632
 20
37.918919217488678
 30
0.0
 11
110.4133810406321
 21
43.361184190569702
 31
0.0
  0
LINE
  5
11916
  8
2
 10
110.763381040632
 20
38.120991811705039
 30
0.0
 11
110.7633810406321
 21
44.211952949785761
 31
0.0
  0
LINE
  5
11917
  8
1
 10
112.4133810406321
 20
47.56118419056974
 30
0.0
 11
112.413381040632
 21
36.361184190569702
 31
0.0
  0
LINE
  5
11918
  8
2
 10
114.063381040632
 20
38.120991811705039
 30
0.0
 11
114.513381040632
 21
37.861184190569702
 31
0.0
  0
LINE
  5
11919
  8
2
 10
110.763381040632
 20
38.120991811705039
 30
0.0
 11
110.313381040632
 21
37.861184190569702
 31
0.0
  0
LINE
  5
1191A
  8
2
 10
114.063381040632
 20
38.120991811705039
 30
0.0
 11
110.763381040632
 21
38.120991811705039
 31
0.0
  0
LINE
  5
1191B
  8
2
 10
111.413381040632
 20
46.061184190569747
 30
0.0
 11
108.3733810406321
 21
44.306039372233272
 31
0.0
1001
GENIUS_GENOREF_13
1005
0
  0
LINE
  5
1191C
  8
2
 10
109.513381040632
 20
41.861184190569702
 30
0.0
 11
108.3733810406321
 21
41.861184190569702
 31
0.0
  0
LINE
  5
1191D
  8
2
 10
108.3733810406321
 20
41.861184190569702
 30
0.0
 11
108.3733810406321
 21
44.306039372233272
 31
0.0
  0
LINE
  5
1191E
  8
2
 10
114.4133810406321
 20
43.361184190569702
 30
0.0
 11
114.06338104063209
 21
44.061184190569747
 31
0.0
  0
LINE
  5
1191F
  8
2
 10
112.4133810406321
 20
45.164580893948589
 30
0.0
 11
110.7633810406321
 21
44.211952949785761
 31
0.0
  0
LINE
  5
11920
  8
2
 10
113.4133810406321
 20
46.061184190569747
 30
0.0
 11
111.413381040632
 21
46.061184190569747
 31
0.0
  0
LINE
  5
11921
  8
2
 10
110.4133810406321
 20
43.361184190569702
 30
0.0
 11
110.7633810406321
 21
44.061184190569747
 31
0.0
  0
LINE
  5
11922
  8
2
 10
110.4133810406321
 20
43.361184190569702
 30
0.0
 11
114.4133810406321
 21
43.361184190569702
 31
0.0
  0
LINE
  5
11923
  8
2
 10
110.7633810406321
 20
44.211952949785761
 30
0.0
 11
114.06338104063209
 21
44.211952949785712
 31
0.0
  0
LINE
  5
11924
  8
2
 10
112.4133810406321
 20
45.164580893948589
 30
0.0
 11
114.06338104063209
 21
44.211952949785712
 31
0.0
  0
LINE
  5
11925
  8
2
 10
115.313381040632
 20
37.861184190569702
 30
0.0
 11
115.313381040632
 21
41.861184190569702
 31
0.0
  0
LINE
  5
11926
  8
1
 10
122.413381040632
 20
57.362912557396669
 30
0.0
 11
122.4133810406321
 21
34.861184190569702
 31
0.0
  0
LINE
  5
11929
  8
2
 10
115.313381040632
 20
41.861184190569702
 30
0.0
 11
116.4533810406321
 21
41.861184190569702
 31
0.0
  0
LINE
  5
1192A
  8
2
 10
116.4533810406321
 20
41.861184190569702
 30
0.0
 11
116.453381040632
 21
44.306039372233272
 31
0.0
  0
LINE
  5
11D05
  8
2
 10
135.31338104063209
 20
37.861184190569702
 30
0.0
 11
135.31338104063209
 21
41.861184190569702
 31
0.0
  0
LINE
  5
11D06
  8
2
 10
134.06338104063209
 20
38.120991811705039
 30
0.0
 11
134.06338104063201
 21
44.211952949785761
 31
0.0
  0
LINE
  5
11D07
  8
2
 10
134.41338104063209
 20
37.918919217488678
 30
0.0
 11
134.41338104063209
 21
43.361184190569702
 31
0.0
  0
LINE
  5
11D08
  8
2
 10
129.51338104063211
 20
37.861184190569702
 30
0.0
 11
129.51338104063211
 21
41.861184190569702
 31
0.0
  0
LINE
  5
11D09
  8
2
 10
130.76338104063211
 20
38.120991811705039
 30
0.0
 11
130.763381040632
 21
44.211952949785712
 31
0.0
  0
LINE
  5
11D0A
  8
2
 10
130.41338104063209
 20
37.918919217488678
 30
0.0
 11
130.41338104063209
 21
43.361184190569702
 31
0.0
  0
LINE
  5
11D0B
  8
1
 10
132.413381040632
 20
47.56118419056974
 30
0.0
 11
132.41338104063209
 21
36.361184190569702
 31
0.0
  0
LINE
  5
11D0C
  8
2
 10
134.06338104063209
 20
38.120991811705039
 30
0.0
 11
134.51338104063211
 21
37.861184190569702
 31
0.0
  0
LINE
  5
11D0D
  8
2
 10
130.76338104063211
 20
38.120991811705039
 30
0.0
 11
130.31338104063209
 21
37.861184190569702
 31
0.0
  0
LINE
  5
11D0E
  8
2
 10
130.76338104063211
 20
38.120991811705039
 30
0.0
 11
134.06338104063209
 21
38.120991811705039
 31
0.0
  0
LINE
  5
11D0F
  8
2
 10
134.41338104063209
 20
43.361184190569702
 30
0.0
 11
134.06338104063209
 21
44.061184190569747
 31
0.0
  0
LINE
  5
11D10
  8
2
 10
134.41338104063209
 20
43.361184190569702
 30
0.0
 11
130.41338104063209
 21
43.361184190569702
 31
0.0
  0
LINE
  5
11D11
  8
2
 10
133.41338104063209
 20
46.061184190569747
 30
0.0
 11
136.45338104063211
 21
44.306039372233272
 31
0.0
1001
GENIUS_GENOREF_13
1005
0
  0
LINE
  5
11D12
  8
2
 10
130.41338104063209
 20
43.361184190569702
 30
0.0
 11
130.763381040632
 21
44.061184190569747
 31
0.0
  0
LINE
  5
11D13
  8
2
 10
132.41338104063209
 20
45.164580893948589
 30
0.0
 11
130.763381040632
 21
44.211952949785712
 31
0.0
  0
LINE
  5
11D14
  8
2
 10
131.413381040632
 20
46.061184190569747
 30
0.0
 11
133.41338104063209
 21
46.061184190569747
 31
0.0
  0
LINE
  5
11D15
  8
2
 10
131.413381040632
 20
46.061184190569747
 30
0.0
 11
128.3733810406321
 21
44.306039372233272
 31
0.0
1001
GENIUS_GENOREF_13
1005
0
  0
LINE
  5
11D16
  8
2
 10
129.51338104063211
 20
41.861184190569702
 30
0.0
 11
128.37338104063201
 21
41.861184190569702
 31
0.0
  0
LINE
  5
11D17
  8
2
 10
128.37338104063201
 20
41.861184190569702
 30
0.0
 11
128.3733810406321
 21
44.306039372233272
 31
0.0
  0
LINE
  5
11D18
  8
2
 10
132.41338104063209
 20
45.164580893948589
 30
0.0
 11
134.06338104063201
 21
44.211952949785761
 31
0.0
  0
LINE
  5
11D19
  8
2
 10
134.06338104063201
 20
44.211952949785761
 30
0.0
 11
130.763381040632
 21
44.211952949785712
 31
0.0
  0
LINE
  5
11D1A
  8
2
 10
135.31338104063209
 20
41.861184190569702
 30
0.0
 11
136.45338104063211
 21
41.861184190569702
 31
0.0
  0
LINE
  5
11D1B
  8
2
 10
136.45338104063211
 20
41.861184190569702
 30
0.0
 11
136.45338104063211
 21
44.306039372233272
 31
0.0
  0
LINE
  5
11D1C
  8
0
 10
140.69589998584451
 20
54.36118429382428
 30
0.0
 11
104.1308620952275
 21
54.361184293824003
 31
0.0
  0
ARC
  5
11D1E
  8
0
 10
140.69589998603641
 20
53.161184293824277
 30
0.0
 40
1.1999999999999991
 50
1.977063620444484
 51
89.999999999999943
1001
GENIUS_GENODEF_13
1002
{
1000
HIER
1070
     0
1002
}
1002
{
1000
MANEDIT
1070
     0
1002
}
1002
{
1000
NOSEL
1070
     0
1002
}
1002
{
1000
BEHIND
1070
     0
1002
}
1002
{
1000
REACTOR
1002
}
1001
GENIUS_GENOBJ-N-FIL_13
1002
{
1000
OWNER
1000
GEN
1002
}
  0
LINE
  5
11D23
  8
1
 10
60.184130698282402
 20
50.361184293824302
 30
0.0
 11
45.850798198282398
 21
50.361184293824302
 31
0.0
  0
LINE
  5
11D24
  8
1
 10
53.017464448282389
 20
57.527850543824279
 30
0.0
 11
53.017464448282389
 21
43.194518043824303
 31
0.0
  0
ARC
  5
11EF7
  8
0
 10
79.859456936305406
 20
42.17236818689571
 30
0.0
 40
2.4999997499999989
 50
2.0000000000000089
 51
60.0
  0
LINE
  5
11EF8
  8
0
 10
82.517466670504376
 20
37.861184190569702
 30
0.0
 11
82.357934464235399
 21
42.2596170670597
 31
0.0
  0
LINE
  5
11EF9
  8
0
 10
81.109456811305407
 20
44.337431479850459
 30
0.0
 11
64.000376683324362
 21
54.022912557396687
 31
0.0
  0
ARC
  5
11FCC
  8
0
 10
104.1308620952276
 20
53.161184293824107
 30
0.0
 40
1.1999999999999991
 50
90.000000000000597
 51
178.022936379556
1001
GENIUS_GENODEF_13
1002
{
1000
HIER
1070
     0
1002
}
1002
{
1000
MANEDIT
1070
     0
1002
}
1002
{
1000
NOSEL
1070
     0
1002
}
1002
{
1000
BEHIND
1070
     0
1002
}
1002
{
1000
REACTOR
1002
}
1001
GENIUS_GENOBJ-N-FIL_13
1002
{
1000
OWNER
1000
GEN
1002
}
  0
LINE
  5
11FCD
  8
0
 10
102.16338104063441
 20
37.861194118962629
 30
0.0
 11
102.9315764339333
 21
53.202583600747758
 31
0.0
  0
LINE
  5
11FD9
  8
1
 10
28.41746222606039
 20
104.3584237847613
 30
0.0
 11
37.217462226060441
 21
104.3584237847613
 31
0.0
  0
LINE
  5
11FDA
  8
1
 10
28.417743269893311
 20
84.358423784761285
 30
0.0
 11
37.217181182227648
 21
84.358423784761285
 31
0.0
  0
LINE
  5
1213E
  8
3
 10
58.850800531615363
 20
50.191182940569661
 30
0.0
 11
60.457202593197358
 21
53.636121484964747
 31
0.0
  0
ARC
  5
1213F
  8
3
 10
61.59848864453528
 20
53.100480093610521
 30
0.0
 40
1.2607321957252811
 50
90.381831027950554
 51
154.85788632406241
  0
LINE
  5
1219B
  8
0
 10
57.184130698282338
 20
86.931160649550776
 30
0.0
 11
57.184130698282402
 21
82.074923189283041
 31
0.0
  0
ARC
  5
1219C
  8
0
 10
56.214851848398609
 20
82.074923189283041
 30
0.0
 40
0.9692788498837348
 50
270.0
 51
0.0
  0
ARC
  5
1219D
  8
0
 10
56.214851848398609
 20
86.928902692774457
 30
0.0
 40
0.9692788498837348
 50
359.99998999999991
 51
90.0
  0
LINE
  5
121FD
  8
1
 10
68.817743269893242
 20
104.3584237847614
 30
0.0
 11
77.617181182227597
 21
104.3584237847614
 31
0.0
  0
LINE
  5
121FE
  8
1
 10
68.817743269893242
 20
84.358423784761413
 30
0.0
 11
77.617181182227597
 21
84.358423784761428
 31
0.0
  0
TEXT
  5
1228A
  8
0
 62
     3
 10
0.0
 20
0.0
 30
0.0
 40
10.0
  1
EFH6040SS
  7
STANDARD1
  0
ENDSEC
  0
EOF
