  0
SECTION
  2
HEADER
  9
$ACADVER
  1
AC1009
  9
$INSBASE
 10
0.0
 20
0.0
 30
0.0
  9
$EXTMIN
 10
0.0
 20
-2.960436562073669
 30
0.0
  9
$EXTMAX
 10
200.769232854851
 20
162.6371878757422
 30
0.0
  9
$LIMMIN
 10
0.0
 20
0.0
  9
$LIMMAX
 10
375.0
 20
278.0
  9
$ORTHOMODE
 70
     1
  9
$REGENMODE
 70
     1
  9
$FILLMODE
 70
     1
  9
$QTEXTMODE
 70
     0
  9
$MIRRTEXT
 70
     0
  9
$DRAGMODE
 70
     2
  9
$LTSCALE
 40
5.0
  9
$OSMODE
 70
  3071
  9
$ATTMODE
 70
     1
  9
$TEXTSIZE
 40
0.2
  9
$TRACEWID
 40
0.05
  9
$TEXTSTYLE
  7
STANDARD
  9
$CLAYER
  8
0
  9
$CELTYPE
  6
BYLAYER
  9
$CECOLOR
 62
   256
  9
$DIMSCALE
 40
1.0
  9
$DIMASZ
 40
3.0
  9
$DIMEXO
 40
1.0
  9
$DIMDLI
 40
6.0
  9
$DIMRND
 40
0.0
  9
$DIMDLE
 40
0.0
  9
$DIMEXE
 40
1.0
  9
$DIMTP
 40
495.0
  9
$DIMTM
 40
0.0
  9
$DIMTXT
 40
3.0
  9
$DIMCEN
 40
0.0
  9
$DIMTSZ
 40
0.0
  9
$DIMTOL
 70
     0
  9
$DIMLIM
 70
     0
  9
$DIMTIH
 70
     0
  9
$DIMTOH
 70
     0
  9
$DIMSE1
 70
     0
  9
$DIMSE2
 70
     0
  9
$DIMTAD
 70
     1
  9
$DIMZIN
 70
     0
  9
$DIMBLK
  1

  9
$DIMASO
 70
     1
  9
$DIMSHO
 70
     0
  9
$DIMPOST
  1

  9
$DIMAPOST
  1

  9
$DIMALT
 70
     0
  9
$DIMALTD
 70
     2
  9
$DIMALTF
 40
25.399999999999999
  9
$DIMLFAC
 40
1.0
  9
$DIMTOFL
 70
     1
  9
$DIMTVP
 40
0.0
  9
$DIMTIX
 70
     1
  9
$DIMSOXD
 70
     0
  9
$DIMSAH
 70
     0
  9
$DIMBLK1
  1

  9
$DIMBLK2
  1

  9
$DIMSTYLE
  2
STANDARD
  9
$DIMCLRD
 70
     0
  9
$DIMCLRE
 70
     0
  9
$DIMCLRT
 70
     4
  9
$DIMTFAC
 40
1.0
  9
$DIMGAP
 40
1.0
  9
$LUNITS
 70
     2
  9
$LUPREC
 70
     4
  9
$SKETCHINC
 40
0.1
  9
$FILLETRAD
 40
0.0
  9
$AUNITS
 70
     0
  9
$AUPREC
 70
     0
  9
$MENU
  1
C:\R13\WIN\SUPPORT\ACAD-I
  9
$ELEVATION
 40
0.0
  9
$PELEVATION
 40
0.0
  9
$THICKNESS
 40
0.0
  9
$LIMCHECK
 70
     0
  9
$BLIPMODE
 70
     0
  9
$CHAMFERA
 40
0.0
  9
$CHAMFERB
 40
0.0
  9
$SKPOLY
 70
     0
  9
$TDCREATE
 40
2450834.4199027782
  9
$TDUPDATE
 40
2456598.6572421649
  9
$TDINDWG
 40
0.3243578356
  9
$TDUSRTIMER
 40
0.3243578356
  9
$USRTIMER
 70
     1
  9
$ANGBASE
 50
0.0
  9
$ANGDIR
 70
     0
  9
$PDMODE
 70
     0
  9
$PDSIZE
 40
0.0
  9
$PLINEWID
 40
0.0
  9
$COORDS
 70
     1
  9
$SPLFRAME
 70
     0
  9
$SPLINETYPE
 70
     6
  9
$SPLINESEGS
 70
     8
  9
$ATTDIA
 70
     0
  9
$ATTREQ
 70
     1
  9
$HANDLING
 70
     1
  9
$HANDSEED
  5
1918E
  9
$SURFTAB1
 70
     6
  9
$SURFTAB2
 70
     6
  9
$SURFTYPE
 70
     6
  9
$SURFU
 70
     6
  9
$SURFV
 70
     6
  9
$UCSNAME
  2

  9
$UCSORG
 10
0.0
 20
0.0
 30
0.0
  9
$UCSXDIR
 10
1.0
 20
0.0
 30
0.0
  9
$UCSYDIR
 10
0.0
 20
1.0
 30
0.0
  9
$PUCSNAME
  2

  9
$PUCSORG
 10
0.0
 20
0.0
 30
0.0
  9
$PUCSXDIR
 10
1.0
 20
0.0
 30
0.0
  9
$PUCSYDIR
 10
0.0
 20
1.0
 30
0.0
  9
$USERI1
 70
     4
  9
$USERI2
 70
     1
  9
$USERI3
 70
     1
  9
$USERI4
 70
     0
  9
$USERI5
 70
     0
  9
$USERR1
 40
1.0
  9
$USERR2
 40
3.0
  9
$USERR3
 40
3.0
  9
$USERR4
 40
3.0
  9
$USERR5
 40
10.0
  9
$WORLDVIEW
 70
     1
  9
$SHADEDGE
 70
     3
  9
$SHADEDIF
 70
    70
  9
$TILEMODE
 70
     1
  9
$MAXACTVP
 70
    16
  9
$PLIMCHECK
 70
     0
  9
$PEXTMIN
 10
1.0000000000000000E+020
 20
1.0000000000000000E+020
 30
1.0000000000000000E+020
  9
$PEXTMAX
 10
-1.0000000000000000E+020
 20
-1.0000000000000000E+020
 30
-1.0000000000000000E+020
  9
$PLIMMIN
 10
0.0
 20
0.0
  9
$PLIMMAX
 10
12.0
 20
9.0
  9
$UNITMODE
 70
     0
  9
$VISRETAIN
 70
     0
  9
$PLINEGEN
 70
     0
  9
$PSLTSCALE
 70
     0
  0
ENDSEC
  0
SECTION
  2
TABLES
  0
TABLE
  2
VPORT
 70
     1
  0
VPORT
  2
*ACTIVE
 70
     0
 10
0.0
 20
0.0
 11
1.0
 21
1.0
 12
187.49427839065231
 22
174.97168974450321
 13
0.0
 23
0.0
 14
10.0
 24
10.0
 15
10.0
 25
10.0
 16
0.0
 26
0.0
 36
1.0
 17
0.0
 27
0.0
 37
0.0
 40
359.12869706410731
 41
1.831871345029239
 42
50.0
 43
0.0
 44
0.0
 50
0.0
 51
0.0
 71
     0
 72
   100
 73
     1
 74
     0
 75
     0
 76
     0
 77
     0
 78
     0
  0
ENDTAB
  0
TABLE
  2
LTYPE
 70
     4
  0
LTYPE
  2
CONTINUOUS
 70
     0
  3
Solid Line
 72
    65
 73
     0
 40
0.0
  0
LTYPE
  2
CENTER
 70
     0
  3
____ _ ____ _ ____ _ ____ _ ____ _ ____ _ ____
 72
    65
 73
     4
 40
2.0
 49
1.25
 49
-0.25
 49
0.25
 49
-0.25
  0
LTYPE
  2
HIDDEN
 70
     0
  3
__ __ __ __ __ __ __ __ __ __ __ __ __ __ __ __
 72
    65
 73
     2
 40
0.375
 49
0.25
 49
-0.125
  0
LTYPE
  2
PHANTOM2
 70
     0
  3
___ _ _ ___ _ _ ___ _ _ ___ _ _
 72
    65
 73
     6
 40
1.25
 49
0.625
 49
-0.125
 49
0.125
 49
-0.125
 49
0.125
 49
-0.125
  0
ENDTAB
  0
TABLE
  2
LAYER
 70
     4
  0
LAYER
  2
0
 70
     0
 62
     7
  6
CONTINUOUS
  0
LAYER
  2
1
 70
     0
 62
     1
  6
CENTER
  0
LAYER
  2
2
 70
     0
 62
     2
  6
HIDDEN
  0
LAYER
  2
DEFPOINTS
 70
     0
 62
     7
  6
CONTINUOUS
  0
ENDTAB
  0
TABLE
  2
STYLE
 70
     2
  0
STYLE
  2
STANDARD
 70
     0
 40
0.0
 41
1.0
 50
0.0
 71
     0
 42
0.2
  3
SIMPLEX
  4
BIGFONT
  0
STYLE
  2
STANDARD1
 70
     0
 40
0.0
 41
1.0
 50
0.0
 71
     0
 42
3.0
  3
txt
  4

  0
ENDTAB
  0
TABLE
  2
VIEW
 70
     0
  0
ENDTAB
  0
TABLE
  2
UCS
 70
     0
  0
ENDTAB
  0
TABLE
  2
APPID
 70
    55
  0
APPID
  2
ACAD
 70
     0
  0
APPID
  2
GENIUS_GENOBJ_13
 70
     0
  0
APPID
  2
GENIUS_GENODEF_13
 70
     0
  0
APPID
  2
GENIUS_GENOENT_13
 70
     0
  0
APPID
  2
GENIUS_GENOLIS_13
 70
     0
  0
APPID
  2
GENIUS_GENOREF_13
 70
     0
  0
APPID
  2
GENIUS_GENOBJ-N-TIT_13
 70
     0
  0
APPID
  2
GENIUS_GENTITLE_13
 70
     0
  0
APPID
  2
GENIUS_GENZVEED_13
 70
     0
  0
APPID
  2
GENIUS_GENOBJ-N-FIL_13
 70
     0
  0
APPID
  2
GENIUS_GENOBJ-N-CRS_13
 70
     0
  0
APPID
  2
GENIUS_GEFINERT_13
 70
     0
  0
APPID
  2
GENIUS_GENOBJ-F-INER_13
 70
     0
  0
APPID
  2
GENIUS_GENOBJ-N-ZOO_13
 70
     0
  0
APPID
  2
GENIUS_GENZOO_13
 70
     0
  0
APPID
  2
GENIUS_GENOBJ-F-TOL_13
 70
     0
  0
APPID
  2
GENIUS_GENOBJ-N-RSSYM_13
 70
     0
  0
APPID
  2
GENIUS_GENSYMENT_13
 70
     0
  0
APPID
  2
GENIUS_GENBH_13
 70
     0
  0
APPID
  2
GENIUS_GENOBJ-NBEHI-BHF_13
 70
     0
  0
APPID
  2
GENIUS_GENOBJ-NBEHI-BHB_13
 70
     0
  0
APPID
  2
GENIUS_GENOBJ-F-PART_13
 70
     0
  0
APPID
  2
GENIUS_GEFSTDP_13
 70
     0
  0
APPID
  2
GENIUS_GENOBJ-N-LEADER_13
 70
     0
  0
APPID
  2
GENIUS_GENOBJ-N-REV_13
 70
     0
  0
APPID
  2
GENIUS_GENCFG_13
 70
     0
  0
APPID
  2
GENIUS_GENCFG0_13
 70
     0
  0
APPID
  2
GENIUS_GENCFG1_13
 70
     0
  0
APPID
  2
GENIUS_GENCFG2_13
 70
     0
  0
APPID
  2
GENIUS_GENCFG3_13
 70
     0
  0
APPID
  2
GENIUS_GEVCFG0_13
 70
     0
  0
APPID
  2
GENIUS_GENCFG4_13
 70
     0
  0
APPID
  2
GENIUS_GENOBJ-N-REC_13
 70
     0
  0
APPID
  2
GENIUS_GENFIL_13
 70
     0
  0
APPID
  2
GENIUS_GENOBJ-N-CHA_13
 70
     0
  0
APPID
  2
GENIUS_GENREC_13
 70
     0
  0
APPID
  2
ACAD_EXEMPT_FROM_CAD_STANDARDS
 70
     0
  0
APPID
  2
ACAD_MLEADERVER
 70
     0
  0
APPID
  2
ACAD_NAV_VCDISPLAY
 70
     0
  0
APPID
  2
DCO15
 70
     0
  0
APPID
  2
GENIUS_GENOBJ-N-SEC_13
 70
     0
  0
APPID
  2
_CALL_MAC$
 70
     0
  0
APPID
  2
ASM_BASE
 70
     0
  0
APPID
  2
ASM_EXPLO_VER_2_00
 70
     0
  0
APPID
  2
ASM_CADM_VER_12_00
 70
     0
  0
APPID
  2
ASM_BASEFORO
 70
     0
  0
APPID
  2
ASM_BASETRAVI
 70
     0
  0
APPID
  2
ASM_BASETRAVI1
 70
     0
  0
APPID
  2
ASM_GRUPPI
 70
     0
  0
APPID
  2
ASM_CADM_ALBERO
 70
     0
  0
APPID
  2
ASM_GOLE
 70
     0
  0
APPID
  2
ACAD_DSTYLE_DIMJAG
 70
     0
  0
APPID
  2
ACAD_DSTYLE_DIMTALN
 70
     0
  0
APPID
  2
GRADIENTCOLOR1ACI
 70
     0
  0
APPID
  2
GRADIENTCOLOR2ACI
 70
     0
  0
ENDTAB
  0
TABLE
  2
DIMSTYLE
 70
     1
  0
DIMSTYLE
  2
STANDARD
 70
     0
  3

  4

  5

  6

  7

 40
1.0
 41
0.18
 42
0.0625
 43
0.38
 44
0.18
 45
0.0
 46
0.0
 47
0.0
 48
0.0
140
0.18
141
0.09
142
0.0
143
25.399999999999999
144
1.0
145
0.0
146
1.0
147
0.09
 71
     0
 72
     0
 73
     1
 74
     1
 75
     0
 76
     0
 77
     0
 78
     0
170
     0
171
     2
172
     0
173
     0
174
     0
175
     0
176
     0
177
     0
178
     0
  0
ENDTAB
  0
ENDSEC
  0
SECTION
  2
BLOCKS
  0
BLOCK
  8
0
  2
$MODEL_SPACE
 70
     0
 10
0.0
 20
0.0
 30
0.0
  3
$MODEL_SPACE
  1

  0
ENDBLK
  5
166EA
  8
0
  0
BLOCK
 67
     1
  8
0
  2
$PAPER_SPACE
 70
     0
 10
0.0
 20
0.0
 30
0.0
  3
$PAPER_SPACE
  1

  0
ENDBLK
  5
166E8
 67
     1
  8
0
  0
ENDSEC
  0
SECTION
  2
ENTITIES
  0
LINE
  5
16C9F
  8
0
 10
80.645292994883789
 20
92.637187875742228
 30
0.0
 11
80.645292994883789
 21
93.467187875742226
 31
0.0
  0
LINE
  5
16CA1
  8
0
 10
74.38870848786155
 20
157.6371878757422
 30
0.0
 11
74.38870848786155
 21
156.80718787574219
 31
0.0
  0
LINE
  5
16CA2
  8
0
 10
75.017000741359027
 20
93.137187875742214
 30
0.0
 11
75.517000741386312
 21
92.637187875714943
 31
0.0
  0
LINE
  5
16CA3
  8
0
 10
79.51700074135897
 20
92.637187875714943
 30
0.0
 11
80.017000741386255
 21
93.137187875742214
 31
0.0
  0
LINE
  5
16CA4
  8
0
 10
75.017000741372613
 20
157.1371878757422
 30
0.0
 11
75.017000741372613
 21
156.80718787574219
 31
0.0
  0
LINE
  5
16CA5
  8
0
 10
75.017000741372613
 20
146.46718787574221
 30
0.0
 11
75.017000741372613
 21
146.2571878757422
 31
0.0
  0
LINE
  5
16CA6
  8
0
 10
75.017000741372613
 20
135.83718787574219
 30
0.0
 11
75.017000741372613
 21
135.64718787574219
 31
0.0
  0
LINE
  5
16CA7
  8
0
 10
75.017000741372613
 20
125.2471878757422
 30
0.0
 11
75.017000741372613
 21
125.0271878757422
 31
0.0
  0
LINE
  5
16CA8
  8
0
 10
75.017000741372613
 20
114.62718787574219
 30
0.0
 11
75.017000741372613
 21
114.4371878757422
 31
0.0
  0
LINE
  5
16CA9
  8
0
 10
75.017000741372613
 20
104.0171878757422
 30
0.0
 11
75.017000741372613
 21
103.8071878757422
 31
0.0
  0
LINE
  5
16CAA
  8
0
 10
75.017000741372613
 20
93.467187875742226
 30
0.0
 11
75.017000741372613
 21
93.137187875742214
 31
0.0
  0
LINE
  5
16CAB
  8
0
 10
80.017000741372655
 20
93.137187875742214
 30
0.0
 11
80.017000741372655
 21
93.467187875742226
 31
0.0
  0
LINE
  5
16CAC
  8
0
 10
80.017000741372655
 20
103.8071878757422
 30
0.0
 11
80.017000741372655
 21
104.0171878757422
 31
0.0
  0
LINE
  5
16CAD
  8
0
 10
80.017000741372655
 20
114.4371878757422
 30
0.0
 11
80.017000741372655
 21
114.62718787574219
 31
0.0
  0
LINE
  5
16CAE
  8
0
 10
80.017000741372655
 20
125.0271878757422
 30
0.0
 11
80.017000741372655
 21
125.2471878757422
 31
0.0
  0
LINE
  5
16CAF
  8
0
 10
80.017000741372655
 20
135.64718787574219
 30
0.0
 11
80.017000741372655
 21
135.83718787574219
 31
0.0
  0
LINE
  5
16CB0
  8
0
 10
80.017000741372655
 20
146.2571878757422
 30
0.0
 11
80.017000741372655
 21
146.46718787574221
 31
0.0
  0
LINE
  5
16CB1
  8
0
 10
80.017000741372655
 20
156.80718787574219
 30
0.0
 11
80.017000741372655
 21
157.1371878757422
 31
0.0
  0
LINE
  5
16CB2
  8
0
 10
80.017000741386255
 20
157.1371878757422
 30
0.0
 11
79.51700074135897
 21
157.63718787576951
 31
0.0
  0
LINE
  5
16CB3
  8
0
 10
75.517000741386312
 20
157.63718787576951
 30
0.0
 11
75.017000741359027
 21
157.1371878757422
 31
0.0
  0
LINE
  5
16CB5
  8
0
 10
86.661467370453124
 20
135.64718787574219
 30
0.0
 11
64.981904910225524
 21
135.6471878757423
 31
0.0
  0
LINE
  5
16CB6
  8
0
 10
86.661467370453124
 20
125.2471878757422
 30
0.0
 11
86.661467370453124
 21
135.64718787574219
 31
0.0
  0
LINE
  5
16CB7
  8
0
 10
86.661467370453124
 20
125.2471878757422
 30
0.0
 11
64.981904910225524
 21
125.2471878757422
 31
0.0
  0
LINE
  5
16CB8
  8
0
 10
86.661467370453124
 20
146.46718787574221
 30
0.0
 11
86.661467370453124
 21
156.80718787574219
 31
0.0
  0
LINE
  5
16CB9
  8
0
 10
86.661467370453124
 20
146.46718787574221
 30
0.0
 11
64.98190491022558
 21
146.4671878757421
 31
0.0
  0
LINE
  5
16CBB
  8
0
 10
86.661467370453124
 20
156.80718787574219
 30
0.0
 11
64.98190491022558
 21
156.80718787574219
 31
0.0
  0
LINE
  5
16CBD
  8
0
 10
86.661467370453124
 20
114.4371878757422
 30
0.0
 11
64.981904910225524
 21
114.4371878757421
 31
0.0
  0
LINE
  5
16CBE
  8
0
 10
86.661467370453124
 20
104.0171878757422
 30
0.0
 11
86.661467370453124
 21
114.4371878757422
 31
0.0
  0
LINE
  5
16CBF
  8
0
 10
86.661467370453124
 20
104.0171878757422
 30
0.0
 11
64.981904910225524
 21
104.0171878757422
 31
0.0
  0
LINE
  5
16CCC
  8
0
 10
64.981904910225524
 20
92.637187875742228
 30
0.0
 11
64.981904910225524
 21
157.6371878757422
 31
0.0
  0
LINE
  5
16CD3
  8
0
 10
69.767000741372613
 20
125.0271878757422
 30
0.0
 11
69.767000741372613
 21
125.2471878757422
 31
0.0
  0
LINE
  5
16CD4
  8
0
 10
69.767000741372613
 20
114.4371878757422
 30
0.0
 11
69.767000741372613
 21
114.62718787574219
 31
0.0
  0
LINE
  5
16CD5
  8
0
 10
69.767000741372613
 20
103.8071878757422
 30
0.0
 11
69.767000741372613
 21
104.0171878757422
 31
0.0
  0
LINE
  5
16CD7
  8
0
 10
69.767000741372613
 20
146.2571878757422
 30
0.0
 11
69.767000741372613
 21
146.46718787574221
 31
0.0
  0
LINE
  5
16CD8
  8
0
 10
69.767000741372613
 20
135.64718787574219
 30
0.0
 11
69.767000741372613
 21
135.83718787574219
 31
0.0
  0
LINE
  5
16CD9
  8
0
 10
69.767000741372613
 20
157.6371878757422
 30
0.0
 11
69.767000741372613
 21
156.80718787574219
 31
0.0
  0
LINE
  5
16CDA
  8
0
 10
69.767000741372613
 20
157.6371878757422
 30
0.0
 11
45.767000741372662
 21
157.6371878757422
 31
0.0
  0
LINE
  5
16CE3
  8
0
 10
45.767000741372662
 20
92.637187875742228
 30
0.0
 11
45.767000741372662
 21
157.6371878757422
 31
0.0
  0
LINE
  5
16CE6
  8
0
 10
80.645292994883789
 20
92.637187875742228
 30
0.0
 11
45.767000741372662
 21
92.637187875742228
 31
0.0
  0
LINE
  5
16CE8
  8
0
 10
68.372534112292158
 20
103.8071878757422
 30
0.0
 11
68.372534112292158
 21
93.467187875742226
 31
0.0
  0
LINE
  5
16CE9
  8
0
 10
68.372534112292158
 20
103.8071878757422
 30
0.0
 11
90.052096572519815
 21
103.8071878757422
 31
0.0
  0
LINE
  5
16CEB
  8
0
 10
68.372534112292158
 20
93.467187875742226
 30
0.0
 11
90.052096572519815
 21
93.467187875742226
 31
0.0
  0
LINE
  5
16CED
  8
0
 10
68.372534112292158
 20
125.0271878757422
 30
0.0
 11
68.372534112292158
 21
114.62718787574219
 31
0.0
  0
LINE
  5
16CEE
  8
0
 10
68.372534112292158
 20
114.62718787574219
 30
0.0
 11
90.052096572519815
 21
114.62718787574219
 31
0.0
  0
LINE
  5
16CEF
  8
0
 10
68.372534112292158
 20
125.0271878757422
 30
0.0
 11
90.052096572519815
 21
125.0271878757422
 31
0.0
  0
LINE
  5
16CF1
  8
0
 10
68.372534112292158
 20
146.2571878757422
 30
0.0
 11
68.372534112292158
 21
135.83718787574219
 31
0.0
  0
LINE
  5
16CF2
  8
0
 10
68.372534112292158
 20
135.83718787574219
 30
0.0
 11
90.052096572519815
 21
135.83718787574219
 31
0.0
  0
LINE
  5
16CF3
  8
0
 10
68.372534112292158
 20
146.2571878757422
 30
0.0
 11
90.052096572519815
 21
146.25718787574229
 31
0.0
  0
LINE
  5
16CFF
  8
0
 10
90.052096572519815
 20
157.6371878757422
 30
0.0
 11
90.052096572519815
 21
92.637187875742228
 31
0.0
  0
LINE
  5
16D07
  8
0
 10
85.267000741372655
 20
104.0171878757422
 30
0.0
 11
85.267000741372655
 21
103.8071878757422
 31
0.0
  0
LINE
  5
16D08
  8
0
 10
85.267000741372655
 20
114.62718787574219
 30
0.0
 11
85.267000741372655
 21
114.4371878757422
 31
0.0
  0
LINE
  5
16D09
  8
0
 10
85.267000741372655
 20
125.2471878757422
 30
0.0
 11
85.267000741372655
 21
125.0271878757422
 31
0.0
  0
LINE
  5
16D0A
  8
0
 10
85.267000741372655
 20
135.83718787574219
 30
0.0
 11
85.267000741372655
 21
135.64718787574219
 31
0.0
  0
LINE
  5
16D0B
  8
0
 10
85.267000741372655
 20
146.46718787574221
 30
0.0
 11
85.267000741372655
 21
146.2571878757422
 31
0.0
  0
LINE
  5
16D0D
  8
0
 10
85.267000741372655
 20
92.637187875742228
 30
0.0
 11
85.267000741372655
 21
93.467187875742226
 31
0.0
  0
LINE
  5
16D0E
  8
0
 10
85.267000741372655
 20
92.637187875742228
 30
0.0
 11
109.2670007413726
 21
92.637187875742228
 31
0.0
  0
LINE
  5
16D17
  8
0
 10
109.2670007413726
 20
157.6371878757422
 30
0.0
 11
109.2670007413726
 21
92.637187875742228
 31
0.0
  0
LINE
  5
16D1A
  8
0
 10
74.38870848786155
 20
157.6371878757422
 30
0.0
 11
109.2670007413726
 21
157.6371878757422
 31
0.0
  0
LINE
  5
16D1C
  8
0
 10
75.017000741372613
 20
93.137187875742214
 30
0.0
 11
80.017000741386255
 21
93.137187875742214
 31
0.0
  0
LINE
  5
16D1E
  8
0
 10
80.017000741372655
 20
157.1371878757422
 30
0.0
 11
75.017000741372613
 21
157.1371878757422
 31
0.0
  0
LINE
  5
16D21
  8
0
 10
83.433000742210808
 20
156.80718787574219
 30
0.0
 11
83.433000742384834
 21
157.6371878757422
 31
0.0
  0
LINE
  5
16DD4
  8
0
 10
58.94874414932508
 20
50.280890112592672
 30
0.0
 11
49.537500741372583
 21
48.621435356656079
 31
0.0
  0
ARC
  5
16DD5
  8
0
 10
58.488056204024758
 20
52.893583987388404
 30
0.0
 40
2.652998806320956
 50
279.99998985156532
 51
304.03978378567967
  0
LINE
  5
16DD6
  8
0
 10
64.981904910225524
 20
54.078708380463851
 30
0.0
 11
59.973121147556519
 21
50.695178933756686
 31
0.0
  0
ARC
  5
16DD7
  8
0
 10
65.910000848411357
 20
52.704808247782189
 30
0.0
 40
1.657999892961316
 50
0.0
 51
124.0397821939829
  0
LINE
  5
16DD8
  8
0
 10
67.568000741372657
 20
52.704808247782189
 30
0.0
 11
67.568000741372657
 21
51.340906853009344
 31
0.0
  0
ARC
  5
16DD9
  8
0
 10
77.51700074118196
 20
51.34090685294619
 30
0.0
 40
9.948999999809331
 50
179.999999999636
 51
233.51355269538729
  0
ARC
  5
16DDA
  8
0
 10
77.516725639439244
 20
51.341110309761888
 30
0.0
 40
9.9489999999999803
 50
233.5155231955722
 51
265.00224061329152
  0
LINE
  5
16DDB
  8
0
 10
76.878500741372704
 20
44.044935356656097
 30
0.0
 11
76.650000741372651
 21
41.429935356656117
 31
0.0
  0
LINE
  5
16DDC
  8
0
 10
79.078500741372864
 20
43.852435356656059
 30
0.0
 11
76.878500741372704
 21
44.044935356656097
 31
0.0
  0
ARC
  5
16DDD
  8
0
 10
79.045292994883766
 20
42.252780004533882
 30
0.0
 40
1.6000000000000181
 50
358.19686747527891
 51
88.810749783052785
  0
LINE
  5
16DDE
  8
0
 10
80.644500741372667
 20
36.226935356656092
 30
0.0
 11
80.644500741372667
 21
42.202435356655968
 31
0.0
  0
LINE
  5
16DDF
  8
0
 10
77.123000741372664
 20
36.226935356656092
 30
0.0
 11
80.644500741372667
 21
36.226935356656092
 31
0.0
  0
LINE
  5
16DE0
  8
0
 10
77.017000741372669
 20
35.626935356656091
 30
0.0
 11
77.123000741372664
 21
36.226935356656092
 31
0.0
  0
LINE
  5
16DE1
  8
0
 10
77.017000741372669
 20
35.626935356656091
 30
0.0
 11
45.767000741372662
 21
35.626935356656091
 31
0.0
  0
LINE
  5
16DE2
  8
0
 10
45.767000741372662
 20
35.626935356656091
 30
0.0
 11
45.822000741372683
 21
44.34693535665874
 31
0.0
  0
ARC
  5
16DE3
  8
0
 10
50.069071356319569
 20
44.40732940980034
 30
0.0
 40
4.2475000000000431
 50
97.189363650192746
 51
180.81470063808121
  0
ARC
  5
16DE5
  8
0
 10
75.214955344554824
 20
40.980967923353937
 30
0.0
 40
3.9794997334251998
 50
77.467691944243711
 51
124.04633253219239
  0
LINE
  5
16DE6
  8
0
 10
71.601071189512538
 20
43.341883257786058
 30
0.0
 11
72.986980183333173
 21
44.278322136857618
 31
0.0
  0
LINE
  5
16DE7
  8
0
 10
72.318999310237132
 20
59.03517289980666
 30
0.0
 11
65.004187436515679
 21
54.093500333123501
 31
0.0
  0
LINE
  5
16DE8
  8
0
 10
85.267000741372655
 20
45.102309174047399
 30
0.0
 11
85.267000741372655
 21
35.626935356656091
 31
0.0
  0
ARC
  5
16DE9
  8
0
 10
77.517000741563379
 20
51.34090685294619
 30
0.0
 40
9.948999999809315
 50
321.16661836120483
 51
0.0000000003639572
  0
LINE
  5
16DEA
  8
0
 10
87.466000741372667
 20
51.340906853009344
 30
0.0
 11
87.466000741372667
 21
52.704808247782189
 31
0.0
  0
ARC
  5
16DEB
  8
0
 10
89.124000634333925
 20
52.704808247782189
 30
0.0
 40
1.657999892961324
 50
55.960217806013318
 51
180.0
  0
LINE
  5
16DEC
  8
0
 10
90.052096572519815
 20
54.078708380463851
 30
0.0
 11
95.060880335188813
 21
50.695178933756686
 31
0.0
  0
ARC
  5
16DED
  8
0
 10
96.545945278720524
 20
52.893583987388404
 30
0.0
 40
2.65299880632094
 50
235.96021621432411
 51
260.00001014843798
  0
LINE
  5
16DEE
  8
0
 10
96.085257333420273
 20
50.280890112592672
 30
0.0
 11
105.4965007413727
 21
48.621435356656079
 31
0.0
  0
ARC
  5
16DEF
  8
0
 10
104.9649301264258
 20
44.40732940980034
 30
0.0
 40
4.247500000000028
 50
359.18529936192039
 51
82.810636349807254
  0
LINE
  5
16DF0
  8
0
 10
109.21200074137261
 20
44.34693535665874
 30
0.0
 11
109.2670007413726
 21
35.626935356656091
 31
0.0
  0
LINE
  5
16DF1
  8
0
 10
109.2670007413726
 20
35.626935356656091
 30
0.0
 11
78.017000741372669
 21
35.626935356656091
 31
0.0
  0
LINE
  5
16DF2
  8
0
 10
84.744534112292186
 20
42.45565132222444
 30
0.0
 11
82.047021299412094
 21
44.278322136857618
 31
0.0
  0
ARC
  5
16DF3
  8
0
 10
79.819046138190458
 20
40.980967923353937
 30
0.0
 40
3.9794997334251998
 50
55.953667467807541
 51
102.5323080557563
  0
ARC
  5
16DF4
  8
0
 10
77.516732732485309
 20
51.340209750369603
 30
0.0
 40
6.6325000000000207
 50
169.99806988151499
 51
282.52889724926069
  0
LINE
  5
16DF5
  8
0
 10
70.985034112292155
 20
52.492151322224402
 30
0.0
 11
68.372534112292158
 21
52.953151322224379
 31
0.0
  0
ARC
  5
16DF6
  8
0
 10
77.51700074129451
 20
51.34093535671829
 30
0.0
 40
9.2854999999122221
 50
55.9581923297185
 51
170.0012167123418
  0
LINE
  5
16DF7
  8
0
 10
82.715002172508079
 20
59.035172899806639
 30
0.0
 11
90.029814046229603
 21
54.093500333123501
 31
0.0
  0
LINE
  5
16DF9
  8
0
 10
85.267000741372655
 20
43.599654411238731
 30
0.0
 11
84.744534112292186
 21
42.455651322224448
 31
0.0
  0
LINE
  5
16DFA
  8
0
 10
78.017000741372669
 20
35.626935356656091
 30
0.0
 11
77.911000741372675
 21
36.226935356656092
 31
0.0
  0
ARC
  5
16DFB
  8
0
 10
75.988708487861572
 20
42.252780004533882
 30
0.0
 40
1.6000000000000181
 50
91.189250216947215
 51
181.80313252472271
  0
ARC
  5
16DFC
  8
0
 10
77.517275843306038
 20
51.341110309761888
 30
0.0
 40
9.9489999999999874
 50
288.32010267982508
 51
306.48447680442808
  0
LINE
  5
16DFD
  8
0
 10
75.955500741372362
 20
43.852435356656073
 30
0.0
 11
76.86866183684208
 21
43.932336952509672
 31
0.0
  0
LINE
  5
16DFE
  8
0
 10
77.517000741372669
 20
43.989066606656088
 30
0.0
 11
78.155500741372634
 21
44.044935356656097
 31
0.0
  0
LINE
  5
16DFF
  8
0
 10
78.155500741372634
 20
44.044935356656097
 30
0.0
 11
78.165339645903259
 21
43.932336952509672
 31
0.0
  0
LINE
  5
16E00
  8
0
 10
74.389500741372672
 20
41.89637286307169
 30
0.0
 11
74.389500741372672
 21
42.202435356655968
 31
0.0
  0
CIRCLE
  5
16E02
  8
0
 10
77.517000741372669
 20
51.34093535665609
 30
0.0
 40
1.9999999999863569
  0
CIRCLE
  5
16E03
  8
0
 10
77.517000741372669
 20
51.34093535665609
 30
0.0
 40
2.500000000000028
  0
LINE
  5
16E28
  8
0
 10
136.59923285485101
 20
54.362808140743432
 30
0.0
 11
135.769232854851
 21
54.362808140743432
 31
0.0
  0
LINE
  5
16E29
  8
0
 10
157.75923285485101
 20
54.362808140743432
 30
0.0
 11
146.9392328548509
 21
54.362808140743432
 31
0.0
  0
LINE
  5
16E2A
  8
0
 10
178.9692328548509
 20
54.362808140743432
 30
0.0
 11
168.15923285485101
 21
54.362808140743432
 31
0.0
  0
LINE
  5
16E2B
  8
0
 10
200.769232854851
 20
54.362808140743432
 30
0.0
 11
189.389232854851
 21
54.362808140743432
 31
0.0
  0
LINE
  5
16E2C
  8
0
 10
189.389232854851
 20
60.62643535663041
 30
0.0
 11
178.9692328548509
 21
60.62643535663041
 31
0.0
  0
LINE
  5
16E2D
  8
0
 10
168.15923285485101
 20
60.62643535663041
 30
0.0
 11
157.75923285485101
 21
60.62643535663041
 31
0.0
  0
LINE
  5
16E2E
  8
0
 10
146.93923285485101
 20
60.62643535663041
 30
0.0
 11
136.59923285485101
 21
60.62643535663041
 31
0.0
  0
LINE
  5
16E2F
  8
0
 10
199.93923285485101
 20
60.62643535663041
 30
0.0
 11
189.59923285485101
 21
60.62643535663041
 31
0.0
  0
LINE
  5
16E30
  8
0
 10
178.77923285485099
 20
60.62643535663041
 30
0.0
 11
168.37923285485101
 21
60.62643535663041
 31
0.0
  0
LINE
  5
16E31
  8
0
 10
157.56923285485101
 20
60.62643535663041
 30
0.0
 11
147.14923285485099
 21
60.62643535663041
 31
0.0
  0
LINE
  5
16E32
  8
0
 10
200.769232854851
 20
35.626935356656091
 30
0.0
 11
135.769232854851
 21
35.626935356656091
 31
0.0
  0
LINE
  5
16E33
  8
0
 10
135.769232854851
 20
54.362808140743432
 30
0.0
 11
135.769232854851
 21
35.626935356656091
 31
0.0
  0
LINE
  5
16E35
  8
0
 10
200.769232854851
 20
35.626935356656091
 30
0.0
 11
200.769232854851
 21
54.362808140743446
 31
0.0
  0
LINE
  5
16E42
  8
0
 10
168.15923285485101
 20
54.093500333123423
 30
0.0
 11
157.75923285485101
 21
54.093500333123423
 31
0.0
  0
LINE
  5
16E43
  8
0
 10
189.389232854851
 20
54.093500333123423
 30
0.0
 11
178.9692328548509
 21
54.093500333123423
 31
0.0
  0
LINE
  5
16E44
  8
0
 10
146.9392328548509
 20
54.093500333123423
 30
0.0
 11
136.59923285485101
 21
54.093500333123423
 31
0.0
  0
LINE
  5
16E50
  8
0
 10
178.9692328548509
 20
60.62643535663041
 30
0.0
 11
178.9692328548509
 21
54.093500333123423
 31
0.0
  0
LINE
  5
16E51
  8
0
 10
189.389232854851
 20
60.62643535663041
 30
0.0
 11
189.389232854851
 21
54.093500333123423
 31
0.0
  0
LINE
  5
16E52
  8
0
 10
157.75923285485101
 20
60.62643535663041
 30
0.0
 11
157.75923285485101
 21
54.093500333123423
 31
0.0
  0
LINE
  5
16E53
  8
0
 10
168.15923285485101
 20
60.62643535663041
 30
0.0
 11
168.15923285485101
 21
54.093500333123423
 31
0.0
  0
LINE
  5
16E54
  8
0
 10
146.93923285485101
 20
60.62643535663041
 30
0.0
 11
146.93923285485101
 21
54.093500333123423
 31
0.0
  0
LINE
  5
16E55
  8
0
 10
136.59923285485101
 20
60.62643535663041
 30
0.0
 11
136.59923285485101
 21
54.093500333123423
 31
0.0
  0
LINE
  5
16E56
  8
0
 10
199.93923285485101
 20
54.362808140743333
 30
0.0
 11
199.93923285485101
 21
60.62643535663041
 31
0.0
  0
LINE
  5
16E57
  8
0
 10
189.59923285485101
 20
54.362808140743333
 30
0.0
 11
189.59923285485101
 21
60.62643535663041
 31
0.0
  0
LINE
  5
16E58
  8
0
 10
168.37923285485101
 20
54.362808140743333
 30
0.0
 11
168.37923285485101
 21
60.62643535663041
 31
0.0
  0
LINE
  5
16E59
  8
0
 10
178.77923285485099
 20
54.362808140743333
 30
0.0
 11
178.77923285485099
 21
60.62643535663041
 31
0.0
  0
LINE
  5
16E5A
  8
0
 10
157.56923285485101
 20
54.362808140743333
 30
0.0
 11
157.56923285485101
 21
60.62643535663041
 31
0.0
  0
LINE
  5
16E5B
  8
0
 10
147.14923285485099
 20
54.362808140743333
 30
0.0
 11
147.14923285485099
 21
60.62643535663041
 31
0.0
  0
LINE
  5
1712B
  8
1
 10
49.267000550387422
 20
105.1371878757422
 30
0.0
 11
65.76700093235803
 21
105.1371878757422
 31
0.0
  0
LINE
  5
1712C
  8
1
 10
57.517000741372719
 20
113.3871880667275
 30
0.0
 11
57.517000741372719
 21
96.887187684756924
 31
0.0
  0
LINE
  5
1712D
  8
1
 10
114.2670007413727
 20
125.1371878757422
 30
0.0
 11
40.767000741372662
 21
125.1371878757422
 31
0.0
  0
LINE
  5
1712E
  8
1
 10
85.017000741372726
 20
51.34093535665609
 30
0.0
 11
70.017000741372613
 21
51.34093535665609
 31
0.0
  0
LINE
  5
1712F
  8
1
 10
77.517000741372669
 20
162.6371878757422
 30
0.0
 11
77.517000741372669
 21
87.637187875742228
 31
0.0
  0
LINE
  5
17135
  8
1
 10
77.517000741372669
 20
58.840935356656118
 30
0.0
 11
77.517000741372669
 21
43.840935356656061
 31
0.0
  0
LINE
  5
17137
  8
1
 10
57.517000741387392
 20
33.626935356656091
 30
0.0
 11
57.517000741387392
 21
52.028435330095462
 31
0.0
  0
LINE
  5
17138
  8
1
 10
97.517000741387278
 20
33.626935356656091
 30
0.0
 11
97.517000741387278
 21
52.028435330095462
 31
0.0
  0
LINE
  5
1713F
  8
1
 10
168.269232854851
 20
30.626935356656091
 30
0.0
 11
168.269232854851
 21
65.62643535663041
 31
0.0
  0
LINE
  5
1717E
  8
1
 10
148.269232854851
 20
33.626935356656091
 30
0.0
 11
148.269232854851
 21
52.028435330095462
 31
0.0
  0
LINE
  5
17184
  8
1
 10
188.269232854851
 20
33.626935356656091
 30
0.0
 11
188.269232854851
 21
52.028435330095462
 31
0.0
  0
LINE
  5
18A3E
  8
2
 10
51.267000550387372
 20
48.9263925827157
 30
0.0
 11
51.267000550387372
 21
48.626935547656117
 31
0.0
  0
LINE
  5
18A3F
  8
2
 10
54.267000741387392
 20
45.626935356656091
 30
0.0
 11
54.267000741387392
 21
35.626935356656091
 31
0.0
  0
LINE
  5
18A40
  8
2
 10
60.767000741387392
 20
35.626935356656091
 30
0.0
 11
60.767000741387392
 21
45.626935356656091
 31
0.0
  0
LINE
  5
18A42
  8
2
 10
63.767000932387361
 20
48.626935547656061
 30
0.0
 11
63.767000932387361
 21
53.25801745454001
 31
0.0
  0
LINE
  5
18A4C
  8
2
 10
51.267000550387372
 20
48.626935547656117
 30
0.0
 11
63.767000932387361
 21
48.626935547656132
 31
0.0
  0
LINE
  5
18A4F
  8
2
 10
54.267000741387392
 20
45.626935356656091
 30
0.0
 11
60.767000741387392
 21
45.626935356656091
 31
0.0
  0
LINE
  5
18B99
  8
2
 10
145.019232854851
 20
45.626935356656077
 30
0.0
 11
145.019232854851
 21
35.626935356656077
 31
0.0
  0
LINE
  5
18B9A
  8
2
 10
151.519232854851
 20
35.626935356656077
 30
0.0
 11
151.519232854851
 21
45.626935356656077
 31
0.0
  0
LINE
  5
18BDE
  8
2
 10
145.019232854851
 20
45.626935356656077
 30
0.0
 11
151.519232854851
 21
45.626935356656077
 31
0.0
  0
POLYLINE
  5
18C1C
  8
0
 66
     1
 10
0.0
 20
0.0
 30
0.0
  0
VERTEX
  5
18EB6
  8
0
 10
142.19256027936211
 20
50.236808354233013
 30
0.0
  0
VERTEX
  5
18EB7
  8
0
 10
142.20015583559589
 20
50.242382464581972
 30
0.0
  0
VERTEX
  5
18EB8
  8
0
 10
142.2158202519868
 20
50.254614463588958
 30
0.0
  0
VERTEX
  5
18EB9
  8
0
 10
142.23210203373179
 20
50.268286009634672
 30
0.0
  0
VERTEX
  5
18EBA
  8
0
 10
142.2404688077936
 20
50.275658914300791
 30
0.0
  0
VERTEX
  5
18EBB
  8
0
 10
142.24898288462339
 20
50.283388106205969
 30
0.0
  0
VERTEX
  5
18EBC
  8
0
 10
142.26644227558381
 20
50.299908889860582
 30
0.0
  0
VERTEX
  5
18EBD
  8
0
 10
142.28445757302489
 20
50.317833718051261
 30
0.0
  0
VERTEX
  5
18EBE
  8
0
 10
142.30300417544461
 20
50.33714528631743
 30
0.0
  0
VERTEX
  5
18EBF
  8
0
 10
142.32205566585759
 20
50.357823778037393
 30
0.0
  0
VERTEX
  5
18EC0
  8
0
 10
142.3415839781278
 20
50.379847043279568
 30
0.0
  0
VERTEX
  5
18EC1
  8
0
 10
142.35151776454589
 20
50.391355456079552
 30
0.0
  0
VERTEX
  5
18EC2
  8
0
 10
142.36155957541831
 20
50.403190803916097
 30
0.0
  0
VERTEX
  5
18EC3
  8
0
 10
142.3819536143647
 20
50.427831307613339
 30
0.0
  0
VERTEX
  5
18EC4
  8
0
 10
142.40273925880129
 20
50.4537473689102
 30
0.0
  0
VERTEX
  5
18EC5
  8
0
 10
142.4238835727632
 20
50.480910374822521
 30
0.0
  0
VERTEX
  5
18EC6
  8
0
 10
142.44535187095869
 20
50.509289139102982
 30
0.0
  0
VERTEX
  5
18EC7
  8
0
 10
142.4671081261838
 20
50.538850294834681
 30
0.0
  0
VERTEX
  5
18EC8
  8
0
 10
142.4780826549829
 20
50.554063275796977
 30
0.0
  0
VERTEX
  5
18EC9
  8
0
 10
142.48911514356129
 20
50.569558416498019
 30
0.0
  0
VERTEX
  5
18ECA
  8
0
 10
142.5113347418241
 20
50.601376156322011
 30
0.0
  0
VERTEX
  5
18ECB
  8
0
 10
142.53372794082259
 20
50.634264393711589
 30
0.0
  0
VERTEX
  5
18ECC
  8
0
 10
142.54497728827599
 20
50.651097278669063
 30
0.0
  0
SEQEND
  5
18ECD
  8
0
  0
POLYLINE
  5
18C1D
  8
0
 66
     1
 10
0.0
 20
0.0
 30
0.0
  0
VERTEX
  5
18ECE
  8
0
 10
142.54497728827599
 20
50.651097278669063
 30
0.0
  0
VERTEX
  5
18ECF
  8
0
 10
142.5714181787894
 20
50.690346613212398
 30
0.0
  0
VERTEX
  5
18ED0
  8
0
 10
142.62614689225779
 20
50.768264108356618
 30
0.0
  0
VERTEX
  5
18ED1
  8
0
 10
142.68331741686271
 20
50.845377342956724
 30
0.0
  0
VERTEX
  5
18ED2
  8
0
 10
142.7128103121712
 20
50.883621437168102
 30
0.0
  0
VERTEX
  5
18ED3
  8
0
 10
142.74290386767819
 20
50.921651402686621
 30
0.0
  0
VERTEX
  5
18ED4
  8
0
 10
142.80487926592741
 20
50.997051753171007
 30
0.0
  0
VERTEX
  5
18ED5
  8
0
 10
142.86921555119659
 20
51.071544255621149
 30
0.0
  0
VERTEX
  5
18ED6
  8
0
 10
142.93588359414051
 20
51.14509518229201
 30
0.0
  0
VERTEX
  5
18ED7
  8
0
 10
143.00485320967081
 20
51.217671231752888
 30
0.0
  0
VERTEX
  5
18ED8
  8
0
 10
143.07609317062321
 20
51.289239543965387
 30
0.0
  0
VERTEX
  5
18ED9
  8
0
 10
143.11255449067119
 20
51.324635654200229
 30
0.0
  0
VERTEX
  5
18EDA
  8
0
 10
143.1495712218962
 20
51.35976771516119
 30
0.0
  0
VERTEX
  5
18EDB
  8
0
 10
143.22525409505459
 20
51.429223812513477
 30
0.0
  0
VERTEX
  5
18EDC
  8
0
 10
143.30310752339281
 20
51.4975763885951
 30
0.0
  0
VERTEX
  5
18EDD
  8
0
 10
143.38309625744941
 20
51.564794495616901
 30
0.0
  0
VERTEX
  5
18EDE
  8
0
 10
143.4651840809673
 20
51.630847699439762
 30
0.0
  0
VERTEX
  5
18EDF
  8
0
 10
143.54933382729081
 20
51.695706093354403
 30
0.0
  0
VERTEX
  5
18EE0
  8
0
 10
143.59217005118271
 20
51.727678038305811
 30
0.0
  0
VERTEX
  5
18EE1
  8
0
 10
143.6355073961937
 20
51.759340311621919
 30
0.0
  0
VERTEX
  5
18EE2
  8
0
 10
143.72366577112979
 20
51.821721542769723
 30
0.0
  0
VERTEX
  5
18EE3
  8
0
 10
143.81376903689841
 20
51.882821542636442
 30
0.0
  0
VERTEX
  5
18EE4
  8
0
 10
143.8595372890579
 20
51.912882412815499
 30
0.0
  0
VERTEX
  5
18EE5
  8
0
 10
143.90577639771621
 20
51.942612647159862
 30
0.0
  0
VERTEX
  5
18EE6
  8
0
 10
143.99964619568851
 20
52.001067784902439
 30
0.0
  0
VERTEX
  5
18EE7
  8
0
 10
144.09533592967111
 20
52.0581604893082
 30
0.0
  0
VERTEX
  5
18EE8
  8
0
 10
144.14384976521029
 20
52.086187826563048
 30
0.0
  0
VERTEX
  5
18EE9
  8
0
 10
144.1928022745123
 20
52.113864910686011
 30
0.0
  0
VERTEX
  5
18EEA
  8
0
 10
144.29200110066989
 20
52.16815582791348
 30
0.0
  0
VERTEX
  5
18EEB
  8
0
 10
144.39288749419131
 20
52.221008659856132
 30
0.0
  0
VERTEX
  5
18EEC
  8
0
 10
144.49541577704929
 20
52.272399476497142
 30
0.0
  0
VERTEX
  5
18EED
  8
0
 10
144.59953952782331
 20
52.32230500977181
 30
0.0
  0
VERTEX
  5
18EEE
  8
0
 10
144.70521160271741
 20
52.370702664102801
 30
0.0
  0
VERTEX
  5
18EEF
  8
0
 10
144.75861333699521
 20
52.394329161953699
 30
0.0
  0
VERTEX
  5
18EF0
  8
0
 10
144.81238415690589
 20
52.41757052663047
 30
0.0
  0
VERTEX
  5
18EF1
  8
0
 10
144.92100866619549
 20
52.462887377134429
 30
0.0
  0
VERTEX
  5
18EF2
  8
0
 10
145.03103594899559
 20
52.506632697641329
 30
0.0
  0
VERTEX
  5
18EF3
  8
0
 10
145.142416188586
 20
52.548786681714688
 30
0.0
  0
VERTEX
  5
18EF4
  8
0
 10
145.25509895567271
 20
52.589330243422623
 30
0.0
  0
VERTEX
  5
18EF5
  8
0
 10
145.3690332312197
 20
52.628245025979261
 30
0.0
  0
VERTEX
  5
18EF6
  8
0
 10
145.42645358563919
 20
52.647086090008351
 30
0.0
  0
VERTEX
  5
18EF7
  8
0
 10
145.48416742954981
 20
52.665513410056192
 30
0.0
  0
VERTEX
  5
18EF8
  8
0
 10
145.60044942170001
 20
52.701118521759867
 30
0.0
  0
VERTEX
  5
18EF9
  8
0
 10
145.7178265590245
 20
52.73504424027152
 30
0.0
  0
VERTEX
  5
18EFA
  8
0
 10
145.8362456970317
 20
52.767275205146213
 30
0.0
  0
VERTEX
  5
18EFB
  8
0
 10
145.9556532194465
 20
52.797796823267397
 30
0.0
  0
VERTEX
  5
18EFC
  8
0
 10
146.0759950624863
 20
52.826595275454338
 30
0.0
  0
VERTEX
  5
18EFD
  8
0
 10
146.13649934296291
 20
52.840344208998552
 30
0.0
  0
VERTEX
  5
18EFE
  8
0
 10
146.1972167393385
 20
52.853657522718891
 30
0.0
  0
VERTEX
  5
18EFF
  8
0
 10
146.3192633648311
 20
52.878971312169291
 30
0.0
  0
VERTEX
  5
18F00
  8
0
 10
146.44207968028269
 20
52.902525182557561
 30
0.0
  0
VERTEX
  5
18F01
  8
0
 10
146.5656100785213
 20
52.924308469469061
 30
0.0
  0
VERTEX
  5
18F02
  8
0
 10
146.6897986290621
 20
52.944311310150802
 30
0.0
  0
VERTEX
  5
18F03
  8
0
 10
146.8145891034309
 20
52.962524647977148
 30
0.0
  0
VERTEX
  5
18F04
  8
0
 10
146.87719241543331
 20
52.970957644566091
 30
0.0
  0
VERTEX
  5
18F05
  8
0
 10
146.93992500062151
 20
52.978940236550223
 30
0.0
  0
VERTEX
  5
18F06
  8
0
 10
147.0657495726791
 20
52.993550643433572
 30
0.0
  0
VERTEX
  5
18F07
  8
0
 10
147.1920058503926
 20
53.00634925351747
 30
0.0
  0
VERTEX
  5
18F08
  8
0
 10
147.3186366690889
 20
53.017330272013972
 30
0.0
  0
VERTEX
  5
18F09
  8
0
 10
147.44558469451511
 20
53.026488727080483
 30
0.0
  0
VERTEX
  5
18F0A
  8
0
 10
147.57279244879771
 20
53.033820472071007
 30
0.0
  0
VERTEX
  5
18F0B
  8
0
 10
147.63647572955659
 20
53.036800258570317
 30
0.0
  0
VERTEX
  5
18F0C
  8
0
 10
147.7002023364665
 20
53.039322187413582
 30
0.0
  0
VERTEX
  5
18F0D
  8
0
 10
147.82775667053181
 20
53.042991382113122
 30
0.0
  0
VERTEX
  5
18F0E
  8
0
 10
147.95539769860369
 20
53.0448263948795
 30
0.0
  0
VERTEX
  5
18F0F
  8
0
 10
148.0192326638217
 20
53.045055790949789
 30
0.0
  0
SEQEND
  5
18F10
  8
0
  0
POLYLINE
  5
18C20
  8
0
 66
     1
 10
0.0
 20
0.0
 30
0.0
  0
VERTEX
  5
18F11
  8
0
 10
148.01990459007911
 20
48.9263925827157
 30
0.0
  0
VERTEX
  5
18F12
  8
0
 10
147.9326412041697
 20
48.926504481212419
 30
0.0
  0
VERTEX
  5
18F13
  8
0
 10
147.7581882658871
 20
48.927399527167637
 30
0.0
  0
VERTEX
  5
18F14
  8
0
 10
147.58395676574349
 20
48.92918886177987
 30
0.0
  0
VERTEX
  5
18F15
  8
0
 10
147.49697013359321
 20
48.930418443747477
 30
0.0
  0
VERTEX
  5
18F16
  8
0
 10
147.41009412098231
 20
48.93187097109336
 30
0.0
  0
VERTEX
  5
18F17
  8
0
 10
147.2367474367588
 20
48.935443585775893
 30
0.0
  0
VERTEX
  5
18F18
  8
0
 10
147.064063381674
 20
48.93990368303875
 30
0.0
  0
VERTEX
  5
18F19
  8
0
 10
146.8921880636785
 20
48.945247489194379
 30
0.0
  0
VERTEX
  5
18F1A
  8
0
 10
146.7212669064505
 20
48.951470482849238
 30
0.0
  0
VERTEX
  5
18F1B
  8
0
 10
146.55144452635321
 20
48.958567398729492
 30
0.0
  0
VERTEX
  5
18F1C
  8
0
 10
146.466990319464
 20
48.9624417297847
 30
0.0
  0
VERTEX
  5
18F1D
  8
0
 10
146.38286461007439
 20
48.966532232135712
 30
0.0
  0
VERTEX
  5
18F1E
  8
0
 10
146.21566979305351
 20
48.975358244023688
 30
0.0
  0
VERTEX
  5
18F1F
  8
0
 10
146.0500015387978
 20
48.985037966706187
 30
0.0
  0
VERTEX
  5
18F20
  8
0
 10
145.88600001918979
 20
48.995563210171511
 30
0.0
  0
VERTEX
  5
18F21
  8
0
 10
145.7238039958886
 20
49.006925069012802
 30
0.0
  0
VERTEX
  5
18F22
  8
0
 10
145.56355070292261
 20
49.019113929963233
 30
0.0
  0
VERTEX
  5
18F23
  8
0
 10
145.484195019635
 20
49.02551529051744
 30
0.0
  0
VERTEX
  5
18F24
  8
0
 10
145.40537573057671
 20
49.03211948002955
 30
0.0
  0
VERTEX
  5
18F25
  8
0
 10
145.24941291066889
 20
49.045930715217906
 30
0.0
  0
VERTEX
  5
18F26
  8
0
 10
145.09579420331571
 20
49.060535949844571
 30
0.0
  0
VERTEX
  5
18F27
  8
0
 10
144.9446495852799
 20
49.075922826422868
 30
0.0
  0
VERTEX
  5
18F28
  8
0
 10
144.7961069399982
 20
49.0920783261191
 30
0.0
  0
VERTEX
  5
18F29
  8
0
 10
144.65029194937819
 20
49.108988779767607
 30
0.0
  0
VERTEX
  5
18F2A
  8
0
 10
144.57844597197291
 20
49.117722667719647
 30
0.0
  0
VERTEX
  5
18F2B
  8
0
 10
144.50732798745949
 20
49.12663987943634
 30
0.0
  0
VERTEX
  5
18F2C
  8
0
 10
144.3673360160268
 20
49.145016690532749
 30
0.0
  0
VERTEX
  5
18F2D
  8
0
 10
144.2304344822642
 20
49.164103664440042
 30
0.0
  0
VERTEX
  5
18F2E
  8
0
 10
144.09673921853681
 20
49.183884651672663
 30
0.0
  0
VERTEX
  5
18F2F
  8
0
 10
143.9663633443852
 20
49.204342915540622
 30
0.0
  0
VERTEX
  5
18F30
  8
0
 10
143.83941717081521
 20
49.225461146310181
 30
0.0
  0
VERTEX
  5
18F31
  8
0
 10
143.7772639029599
 20
49.236262186894159
 30
0.0
  0
VERTEX
  5
18F32
  8
0
 10
143.71600810696339
 20
49.247221475849791
 30
0.0
  0
VERTEX
  5
18F33
  8
0
 10
143.59624056921839
 20
49.269605492748219
 30
0.0
  0
VERTEX
  5
18F34
  8
0
 10
143.48021589287421
 20
49.292594257892382
 30
0.0
  0
VERTEX
  5
18F35
  8
0
 10
143.3680322463903
 20
49.316168320491961
 30
0.0
  0
VERTEX
  5
18F36
  8
0
 10
143.25978454833171
 20
49.340307734536367
 30
0.0
  0
VERTEX
  5
18F37
  8
0
 10
143.15556438705789
 20
49.36499207567141
 30
0.0
  0
VERTEX
  5
18F38
  8
0
 10
143.1049923243452
 20
49.377532084734788
 30
0.0
  0
VERTEX
  5
18F39
  8
0
 10
143.05545994323009
 20
49.390200458480109
 30
0.0
  0
VERTEX
  5
18F3A
  8
0
 10
142.9595559152018
 20
49.415911554153929
 30
0.0
  0
VERTEX
  5
18F3B
  8
0
 10
142.86793344735551
 20
49.442103608538993
 30
0.0
  0
VERTEX
  5
18F3C
  8
0
 10
142.8237521673725
 20
49.455373085292337
 30
0.0
  0
VERTEX
  5
18F3D
  8
0
 10
142.78067006144599
 20
49.468754460542421
 30
0.0
  0
VERTEX
  5
18F3E
  8
0
 10
142.6978395910098
 20
49.495841560882702
 30
0.0
  0
VERTEX
  5
18F3F
  8
0
 10
142.61951211889439
 20
49.523341991168742
 30
0.0
  0
VERTEX
  5
18F40
  8
0
 10
142.58205786785919
 20
49.537239946881641
 30
0.0
  0
VERTEX
  5
18F41
  8
0
 10
142.54575391796109
 20
49.551232483290939
 30
0.0
  0
VERTEX
  5
18F42
  8
0
 10
142.47662739501141
 20
49.579489439108499
 30
0.0
  0
VERTEX
  5
18F43
  8
0
 10
142.4121910379852
 20
49.608088950415777
 30
0.0
  0
VERTEX
  5
18F44
  8
0
 10
142.3524993664735
 20
49.637006819170963
 30
0.0
  0
VERTEX
  5
18F45
  8
0
 10
142.29760288558981
 20
49.666218577970007
 30
0.0
  0
VERTEX
  5
18F46
  8
0
 10
142.2475480432374
 20
49.695699510748661
 30
0.0
  0
VERTEX
  5
18F47
  8
0
 10
142.2243496323448
 20
49.710533130759508
 30
0.0
  0
VERTEX
  5
18F48
  8
0
 10
142.20237719081049
 20
49.725424673694476
 30
0.0
  0
VERTEX
  5
18F49
  8
0
 10
142.16212854735949
 20
49.755368916352019
 30
0.0
  0
VERTEX
  5
18F4A
  8
0
 10
142.12683616725539
 20
49.785506902902512
 30
0.0
  0
VERTEX
  5
18F4B
  8
0
 10
142.09652991137489
 20
49.81581313360045
 30
0.0
  0
VERTEX
  5
18F4C
  8
0
 10
142.07123542183629
 20
49.846261966349012
 30
0.0
  0
VERTEX
  5
18F4D
  8
0
 10
142.05097410030291
 20
49.876827638395874
 30
0.0
  0
VERTEX
  5
18F4E
  8
0
 10
142.04273640152871
 20
49.892146210666773
 30
0.0
  0
VERTEX
  5
18F4F
  8
0
 10
142.0357630898757
 20
49.907484288130867
 30
0.0
  0
VERTEX
  5
18F50
  8
0
 10
142.02561526058801
 20
49.938205976967772
 30
0.0
  0
VERTEX
  5
18F51
  8
0
 10
142.0205391985165
 20
49.968966711290648
 30
0.0
  0
VERTEX
  5
18F52
  8
0
 10
142.0192326638217
 20
49.984353587868988
 30
0.0
  0
SEQEND
  5
18F53
  8
0
  0
POLYLINE
  5
18C21
  8
0
 66
     1
 10
0.0
 20
0.0
 30
0.0
  0
VERTEX
  5
18F54
  8
0
 10
142.0192326638217
 20
49.984353587868988
 30
0.0
  0
VERTEX
  5
18F55
  8
0
 10
142.0193670526852
 20
49.991434484296583
 30
0.0
  0
VERTEX
  5
18F56
  8
0
 10
142.02044212747299
 20
50.00559500837452
 30
0.0
  0
VERTEX
  5
18F57
  8
0
 10
142.0225920844135
 20
50.019751726347927
 30
0.0
  0
VERTEX
  5
18F58
  8
0
 10
142.02407003082641
 20
50.02682786530471
 30
0.0
  0
VERTEX
  5
18F59
  8
0
 10
142.02581653827031
 20
50.03390210157157
 30
0.0
  0
VERTEX
  5
18F5A
  8
0
 10
142.030114911276
 20
50.048043598536722
 30
0.0
  0
VERTEX
  5
18F5B
  8
0
 10
142.03548643323441
 20
50.062173683325462
 30
0.0
  0
VERTEX
  5
18F5C
  8
0
 10
142.04193014165929
 20
50.076289824064759
 30
0.0
  0
VERTEX
  5
18F5D
  8
0
 10
142.04944488194681
 20
50.090389491380172
 30
0.0
  0
VERTEX
  5
18F5E
  8
0
 10
142.05802930758219
 20
50.104470158848962
 30
0.0
  0
VERTEX
  5
18F5F
  8
0
 10
142.06272217920241
 20
50.111502579052292
 30
0.0
  0
VERTEX
  5
18F60
  8
0
 10
142.06768188038089
 20
50.118529303452817
 30
0.0
  0
VERTEX
  5
18F61
  8
0
 10
142.0784008707648
 20
50.132564406029992
 30
0.0
  0
VERTEX
  5
18F62
  8
0
 10
142.0901843580713
 20
50.146572951726711
 30
0.0
  0
VERTEX
  5
18F63
  8
0
 10
142.10303023089821
 20
50.160552430447702
 30
0.0
  0
VERTEX
  5
18F64
  8
0
 10
142.11693618748151
 20
50.174500337305979
 30
0.0
  0
VERTEX
  5
18F65
  8
0
 10
142.13189973610829
 20
50.188414173071749
 30
0.0
  0
VERTEX
  5
18F66
  8
0
 10
142.1397772769476
 20
50.195357534942737
 30
0.0
  0
VERTEX
  5
18F67
  8
0
 10
142.14791819556291
 20
50.202291444620137
 30
0.0
  0
VERTEX
  5
18F68
  8
0
 10
142.16498869560721
 20
50.216129665378048
 30
0.0
  0
VERTEX
  5
18F69
  8
0
 10
142.18310817749551
 20
50.2299263557695
 30
0.0
  0
VERTEX
  5
18F6A
  8
0
 10
142.19256027936211
 20
50.236808354233013
 30
0.0
  0
SEQEND
  5
18F6B
  8
0
  0
CIRCLE
  5
18C92
  8
0
 10
57.517000741372719
 20
105.1371878757422
 30
0.0
 40
3.2500000000146652
  0
CIRCLE
  5
18C93
  8
0
 10
57.517000741372719
 20
105.1371878757422
 30
0.0
 40
6.250000190985304
  0
CIRCLE
  5
18C95
  8
0
 10
57.517000741372719
 20
145.1371878757422
 30
0.0
 40
3.2500000000146652
  0
CIRCLE
  5
18C97
  8
0
 10
97.517000741372613
 20
145.1371878757422
 30
0.0
 40
3.2500000000146652
  0
CIRCLE
  5
18C99
  8
0
 10
97.517000741372613
 20
105.1371878757422
 30
0.0
 40
3.2500000000146652
  0
LINE
  5
18C9B
  8
1
 10
49.267000550387422
 20
145.1371878757422
 30
0.0
 11
65.76700093235803
 21
145.1371878757422
 31
0.0
  0
LINE
  5
18C9C
  8
1
 10
57.517000741372719
 20
153.3871880667275
 30
0.0
 11
57.517000741372719
 21
136.8871876847569
 31
0.0
  0
LINE
  5
18C9D
  8
1
 10
89.267000550387309
 20
145.1371878757422
 30
0.0
 11
105.7670009323579
 21
145.1371878757422
 31
0.0
  0
LINE
  5
18C9E
  8
1
 10
97.517000741372613
 20
153.3871880667275
 30
0.0
 11
97.517000741372613
 21
136.8871876847569
 31
0.0
  0
LINE
  5
18C9F
  8
1
 10
89.267000550387309
 20
105.1371878757422
 30
0.0
 11
105.7670009323579
 21
105.1371878757422
 31
0.0
  0
LINE
  5
18CA0
  8
1
 10
97.517000741372613
 20
113.3871880667275
 30
0.0
 11
97.517000741372613
 21
96.887187684756924
 31
0.0
  0
LINE
  5
18DB9
  8
2
 10
51.267000550387422
 20
48.626935547656117
 30
0.0
 11
54.267000741387392
 21
45.626935356656091
 31
0.0
  0
LINE
  5
18DBB
  8
2
 10
60.767000741387363
 20
45.626935356656091
 30
0.0
 11
63.767000932387361
 21
48.626935547656117
 31
0.0
  0
CIRCLE
  5
18DC1
  8
0
 10
57.517000741372719
 20
145.1371878757422
 30
0.0
 40
6.250000190985304
  0
CIRCLE
  5
18DC2
  8
0
 10
97.517000741372613
 20
145.1371878757422
 30
0.0
 40
6.250000190985304
  0
CIRCLE
  5
18DC3
  8
0
 10
97.517000741372613
 20
105.1371878757422
 30
0.0
 40
6.250000190985304
  0
LINE
  5
18DC4
  8
2
 10
103.767000932358
 20
48.9263925827157
 30
0.0
 11
103.767000932358
 21
48.626935547656117
 31
0.0
  0
LINE
  5
18DC5
  8
2
 10
100.7670007413579
 20
45.626935356656091
 30
0.0
 11
100.7670007413579
 21
35.626935356656091
 31
0.0
  0
LINE
  5
18DC6
  8
2
 10
94.267000741357947
 20
35.626935356656091
 30
0.0
 11
94.267000741357947
 21
45.626935356656091
 31
0.0
  0
LINE
  5
18DC7
  8
2
 10
91.267000550357963
 20
48.626935547656061
 30
0.0
 11
91.267000550357963
 21
53.25801745454001
 31
0.0
  0
LINE
  5
18DC8
  8
2
 10
103.767000932358
 20
48.626935547656117
 30
0.0
 11
91.267000550357963
 21
48.626935547656132
 31
0.0
  0
LINE
  5
18DC9
  8
2
 10
100.7670007413579
 20
45.626935356656091
 30
0.0
 11
94.267000741357947
 21
45.626935356656091
 31
0.0
  0
LINE
  5
18DCA
  8
2
 10
103.7670009323579
 20
48.626935547656117
 30
0.0
 11
100.7670007413579
 21
45.626935356656091
 31
0.0
  0
LINE
  5
18DCB
  8
2
 10
94.267000741357975
 20
45.626935356656091
 30
0.0
 11
91.267000550357963
 21
48.626935547656117
 31
0.0
  0
LINE
  5
18DD9
  8
2
 10
154.51923304582169
 20
49.987894036082778
 30
0.0
 11
154.51923304582169
 21
48.626935547656103
 31
0.0
  0
LINE
  5
18DDA
  8
2
 10
142.0192326638217
 20
48.626935547656053
 30
0.0
 11
142.0192326638217
 21
49.987894036082778
 31
0.0
  0
LINE
  5
18DDB
  8
2
 10
154.51923304582169
 20
48.626935547656103
 30
0.0
 11
142.0192326638217
 21
48.62693554765611
 31
0.0
  0
LINE
  5
18DDC
  8
2
 10
154.51923304582161
 20
48.626935547656103
 30
0.0
 11
151.51923285482161
 21
45.626935356656077
 31
0.0
  0
LINE
  5
18DDD
  8
2
 10
145.01923285482169
 20
45.626935356656077
 30
0.0
 11
142.0192326638217
 21
48.626935547656103
 31
0.0
  0
LINE
  5
18DDF
  8
0
 10
148.5185611196228
 20
48.9263925827157
 30
0.0
 11
148.01990459007911
 21
48.9263925827157
 31
0.0
  0
LINE
  5
18DE3
  8
0
 10
148.0192326638217
 20
53.045055790949789
 30
0.0
 11
148.5192330458803
 21
53.045055790949789
 31
0.0
  0
POLYLINE
  5
18DE4
  8
0
 66
     1
 10
0.0
 20
0.0
 30
0.0
  0
VERTEX
  5
18F6C
  8
0
 10
154.34590543033991
 20
50.236808354233013
 30
0.0
  0
VERTEX
  5
18F6D
  8
0
 10
154.3383098741061
 20
50.242382464581972
 30
0.0
  0
VERTEX
  5
18F6E
  8
0
 10
154.32264545771511
 20
50.254614463588958
 30
0.0
  0
VERTEX
  5
18F6F
  8
0
 10
154.3063636759702
 20
50.268286009634672
 30
0.0
  0
VERTEX
  5
18F70
  8
0
 10
154.29799690190831
 20
50.275658914300791
 30
0.0
  0
VERTEX
  5
18F71
  8
0
 10
154.28948282507849
 20
50.283388106205969
 30
0.0
  0
VERTEX
  5
18F72
  8
0
 10
154.27202343411821
 20
50.299908889860582
 30
0.0
  0
VERTEX
  5
18F73
  8
0
 10
154.25400813667699
 20
50.317833718051261
 30
0.0
  0
VERTEX
  5
18F74
  8
0
 10
154.23546153425741
 20
50.33714528631743
 30
0.0
  0
VERTEX
  5
18F75
  8
0
 10
154.21641004384429
 20
50.357823778037393
 30
0.0
  0
VERTEX
  5
18F76
  8
0
 10
154.19688173157411
 20
50.379847043279568
 30
0.0
  0
VERTEX
  5
18F77
  8
0
 10
154.18694794515611
 20
50.391355456079552
 30
0.0
  0
VERTEX
  5
18F78
  8
0
 10
154.17690613428371
 20
50.403190803916097
 30
0.0
  0
VERTEX
  5
18F79
  8
0
 10
154.15651209533721
 20
50.427831307613339
 30
0.0
  0
VERTEX
  5
18F7A
  8
0
 10
154.13572645090071
 20
50.4537473689102
 30
0.0
  0
VERTEX
  5
18F7B
  8
0
 10
154.11458213693871
 20
50.480910374822521
 30
0.0
  0
VERTEX
  5
18F7C
  8
0
 10
154.09311383874331
 20
50.509289139102982
 30
0.0
  0
VERTEX
  5
18F7D
  8
0
 10
154.07135758351811
 20
50.538850294834681
 30
0.0
  0
VERTEX
  5
18F7E
  8
0
 10
154.06038305471901
 20
50.554063275796977
 30
0.0
  0
VERTEX
  5
18F7F
  8
0
 10
154.04935056614059
 20
50.569558416498019
 30
0.0
  0
VERTEX
  5
18F80
  8
0
 10
154.02713096787789
 20
50.601376156322011
 30
0.0
  0
VERTEX
  5
18F81
  8
0
 10
154.00473776887941
 20
50.634264393711589
 30
0.0
  0
VERTEX
  5
18F82
  8
0
 10
153.99348842142589
 20
50.651097278669063
 30
0.0
  0
SEQEND
  5
18F83
  8
0
  0
POLYLINE
  5
18DE5
  8
0
 66
     1
 10
0.0
 20
0.0
 30
0.0
  0
VERTEX
  5
18F84
  8
0
 10
153.99348842142589
 20
50.651097278669063
 30
0.0
  0
VERTEX
  5
18F85
  8
0
 10
153.96704753091251
 20
50.690346613212398
 30
0.0
  0
VERTEX
  5
18F86
  8
0
 10
153.91231881744409
 20
50.768264108356618
 30
0.0
  0
VERTEX
  5
18F87
  8
0
 10
153.85514829283929
 20
50.845377342956724
 30
0.0
  0
VERTEX
  5
18F88
  8
0
 10
153.82565539753071
 20
50.883621437168102
 30
0.0
  0
VERTEX
  5
18F89
  8
0
 10
153.79556184202369
 20
50.921651402686621
 30
0.0
  0
VERTEX
  5
18F8A
  8
0
 10
153.7335864437745
 20
50.997051753171007
 30
0.0
  0
VERTEX
  5
18F8B
  8
0
 10
153.66925015850529
 20
51.071544255621149
 30
0.0
  0
VERTEX
  5
18F8C
  8
0
 10
153.6025821155614
 20
51.14509518229201
 30
0.0
  0
VERTEX
  5
18F8D
  8
0
 10
153.53361250003121
 20
51.217671231752888
 30
0.0
  0
VERTEX
  5
18F8E
  8
0
 10
153.4623725390787
 20
51.289239543965387
 30
0.0
  0
VERTEX
  5
18F8F
  8
0
 10
153.42591121903081
 20
51.324635654200229
 30
0.0
  0
VERTEX
  5
18F90
  8
0
 10
153.38889448780569
 20
51.35976771516119
 30
0.0
  0
VERTEX
  5
18F91
  8
0
 10
153.31321161464729
 20
51.429223812513477
 30
0.0
  0
VERTEX
  5
18F92
  8
0
 10
153.23535818630921
 20
51.4975763885951
 30
0.0
  0
VERTEX
  5
18F93
  8
0
 10
153.1553694522525
 20
51.564794495616901
 30
0.0
  0
VERTEX
  5
18F94
  8
0
 10
153.07328162873461
 20
51.630847699439762
 30
0.0
  0
VERTEX
  5
18F95
  8
0
 10
152.98913188241119
 20
51.695706093354403
 30
0.0
  0
VERTEX
  5
18F96
  8
0
 10
152.9462956585192
 20
51.727678038305811
 30
0.0
  0
VERTEX
  5
18F97
  8
0
 10
152.90295831350829
 20
51.759340311621919
 30
0.0
  0
VERTEX
  5
18F98
  8
0
 10
152.81479993857209
 20
51.821721542769723
 30
0.0
  0
VERTEX
  5
18F99
  8
0
 10
152.72469667280359
 20
51.882821542636442
 30
0.0
  0
VERTEX
  5
18F9A
  8
0
 10
152.67892842064401
 20
51.912882412815499
 30
0.0
  0
VERTEX
  5
18F9B
  8
0
 10
152.63268931198581
 20
51.942612647159862
 30
0.0
  0
VERTEX
  5
18F9C
  8
0
 10
152.5388195140134
 20
52.001067784902439
 30
0.0
  0
VERTEX
  5
18F9D
  8
0
 10
152.4431297800308
 20
52.0581604893082
 30
0.0
  0
VERTEX
  5
18F9E
  8
0
 10
152.3946159444917
 20
52.086187826563048
 30
0.0
  0
VERTEX
  5
18F9F
  8
0
 10
152.34566343518961
 20
52.113864910686011
 30
0.0
  0
VERTEX
  5
18FA0
  8
0
 10
152.24646460903199
 20
52.16815582791348
 30
0.0
  0
VERTEX
  5
18FA1
  8
0
 10
152.1455782155106
 20
52.221008659856132
 30
0.0
  0
VERTEX
  5
18FA2
  8
0
 10
152.04304993265259
 20
52.272399476497142
 30
0.0
  0
VERTEX
  5
18FA3
  8
0
 10
151.93892618187871
 20
52.32230500977181
 30
0.0
  0
VERTEX
  5
18FA4
  8
0
 10
151.83325410698461
 20
52.370702664102801
 30
0.0
  0
VERTEX
  5
18FA5
  8
0
 10
151.7798523727067
 20
52.394329161953699
 30
0.0
  0
VERTEX
  5
18FA6
  8
0
 10
151.72608155279599
 20
52.41757052663047
 30
0.0
  0
VERTEX
  5
18FA7
  8
0
 10
151.6174570435065
 20
52.462887377134429
 30
0.0
  0
VERTEX
  5
18FA8
  8
0
 10
151.50742976070629
 20
52.506632697641329
 30
0.0
  0
VERTEX
  5
18FA9
  8
0
 10
151.39604952111591
 20
52.548786681714688
 30
0.0
  0
VERTEX
  5
18FAA
  8
0
 10
151.2833667540292
 20
52.589330243422623
 30
0.0
  0
VERTEX
  5
18FAB
  8
0
 10
151.16943247848221
 20
52.628245025979261
 30
0.0
  0
VERTEX
  5
18FAC
  8
0
 10
151.11201212406269
 20
52.647086090008351
 30
0.0
  0
VERTEX
  5
18FAD
  8
0
 10
151.0542982801521
 20
52.665513410056192
 30
0.0
  0
VERTEX
  5
18FAE
  8
0
 10
150.9380162880019
 20
52.701118521759867
 30
0.0
  0
VERTEX
  5
18FAF
  8
0
 10
150.82063915067749
 20
52.73504424027152
 30
0.0
  0
VERTEX
  5
18FB0
  8
0
 10
150.7022200126703
 20
52.767275205146213
 30
0.0
  0
VERTEX
  5
18FB1
  8
0
 10
150.58281249025541
 20
52.797796823267397
 30
0.0
  0
VERTEX
  5
18FB2
  8
0
 10
150.4624706472157
 20
52.826595275454338
 30
0.0
  0
VERTEX
  5
18FB3
  8
0
 10
150.401966366739
 20
52.840344208998552
 30
0.0
  0
VERTEX
  5
18FB4
  8
0
 10
150.34124897036349
 20
52.853657522718891
 30
0.0
  0
VERTEX
  5
18FB5
  8
0
 10
150.21920234487081
 20
52.878971312169291
 30
0.0
  0
VERTEX
  5
18FB6
  8
0
 10
150.09638602941931
 20
52.902525182557561
 30
0.0
  0
VERTEX
  5
18FB7
  8
0
 10
149.97285563118061
 20
52.924308469469061
 30
0.0
  0
VERTEX
  5
18FB8
  8
0
 10
149.84866708063981
 20
52.944311310150802
 30
0.0
  0
VERTEX
  5
18FB9
  8
0
 10
149.72387660627109
 20
52.962524647977148
 30
0.0
  0
VERTEX
  5
18FBA
  8
0
 10
149.6612732942686
 20
52.970957644566091
 30
0.0
  0
VERTEX
  5
18FBB
  8
0
 10
149.5985407090804
 20
52.978940236550223
 30
0.0
  0
VERTEX
  5
18FBC
  8
0
 10
149.47271613702279
 20
52.993550643433572
 30
0.0
  0
VERTEX
  5
18FBD
  8
0
 10
149.34645985930939
 20
53.00634925351747
 30
0.0
  0
VERTEX
  5
18FBE
  8
0
 10
149.21982904061309
 20
53.017330272013972
 30
0.0
  0
VERTEX
  5
18FBF
  8
0
 10
149.0928810151868
 20
53.026488727080483
 30
0.0
  0
VERTEX
  5
18FC0
  8
0
 10
148.9656732609042
 20
53.033820472071007
 30
0.0
  0
VERTEX
  5
18FC1
  8
0
 10
148.90198998014529
 20
53.036800258570317
 30
0.0
  0
VERTEX
  5
18FC2
  8
0
 10
148.83826337323541
 20
53.039322187413582
 30
0.0
  0
VERTEX
  5
18FC3
  8
0
 10
148.7107090391701
 20
53.042991382113122
 30
0.0
  0
VERTEX
  5
18FC4
  8
0
 10
148.58306801109831
 20
53.0448263948795
 30
0.0
  0
VERTEX
  5
18FC5
  8
0
 10
148.5192330458803
 20
53.045055790949789
 30
0.0
  0
SEQEND
  5
18FC6
  8
0
  0
POLYLINE
  5
18DE6
  8
0
 66
     1
 10
0.0
 20
0.0
 30
0.0
  0
VERTEX
  5
18FC7
  8
0
 10
148.5185611196228
 20
48.9263925827157
 30
0.0
  0
VERTEX
  5
18FC8
  8
0
 10
148.6058245055323
 20
48.926504481212419
 30
0.0
  0
VERTEX
  5
18FC9
  8
0
 10
148.7802774438149
 20
48.927399527167637
 30
0.0
  0
VERTEX
  5
18FCA
  8
0
 10
148.9545089439585
 20
48.92918886177987
 30
0.0
  0
VERTEX
  5
18FCB
  8
0
 10
149.0414955761087
 20
48.930418443747477
 30
0.0
  0
VERTEX
  5
18FCC
  8
0
 10
149.1283715887196
 20
48.93187097109336
 30
0.0
  0
VERTEX
  5
18FCD
  8
0
 10
149.30171827294311
 20
48.935443585775893
 30
0.0
  0
VERTEX
  5
18FCE
  8
0
 10
149.47440232802791
 20
48.93990368303875
 30
0.0
  0
VERTEX
  5
18FCF
  8
0
 10
149.64627764602349
 20
48.945247489194379
 30
0.0
  0
VERTEX
  5
18FD0
  8
0
 10
149.81719880325139
 20
48.951470482849238
 30
0.0
  0
VERTEX
  5
18FD1
  8
0
 10
149.98702118334879
 20
48.958567398729492
 30
0.0
  0
VERTEX
  5
18FD2
  8
0
 10
150.07147539023791
 20
48.9624417297847
 30
0.0
  0
VERTEX
  5
18FD3
  8
0
 10
150.1556010996276
 20
48.966532232135712
 30
0.0
  0
VERTEX
  5
18FD4
  8
0
 10
150.3227959166484
 20
48.975358244023688
 30
0.0
  0
VERTEX
  5
18FD5
  8
0
 10
150.48846417090419
 20
48.985037966706187
 30
0.0
  0
VERTEX
  5
18FD6
  8
0
 10
150.65246569051209
 20
48.995563210171511
 30
0.0
  0
VERTEX
  5
18FD7
  8
0
 10
150.81466171381331
 20
49.006925069012802
 30
0.0
  0
VERTEX
  5
18FD8
  8
0
 10
150.9749150067793
 20
49.019113929963233
 30
0.0
  0
VERTEX
  5
18FD9
  8
0
 10
151.054270690067
 20
49.02551529051744
 30
0.0
  0
VERTEX
  5
18FDA
  8
0
 10
151.13308997912529
 20
49.03211948002955
 30
0.0
  0
VERTEX
  5
18FDB
  8
0
 10
151.28905279903299
 20
49.045930715217906
 30
0.0
  0
VERTEX
  5
18FDC
  8
0
 10
151.44267150638629
 20
49.060535949844571
 30
0.0
  0
VERTEX
  5
18FDD
  8
0
 10
151.59381612442201
 20
49.075922826422868
 30
0.0
  0
VERTEX
  5
18FDE
  8
0
 10
151.74235876970371
 20
49.0920783261191
 30
0.0
  0
VERTEX
  5
18FDF
  8
0
 10
151.8881737603237
 20
49.108988779767607
 30
0.0
  0
VERTEX
  5
18FE0
  8
0
 10
151.96001973772911
 20
49.117722667719647
 30
0.0
  0
VERTEX
  5
18FE1
  8
0
 10
152.03113772224239
 20
49.12663987943634
 30
0.0
  0
VERTEX
  5
18FE2
  8
0
 10
152.17112969367511
 20
49.145016690532749
 30
0.0
  0
VERTEX
  5
18FE3
  8
0
 10
152.30803122743779
 20
49.164103664440042
 30
0.0
  0
VERTEX
  5
18FE4
  8
0
 10
152.44172649116521
 20
49.183884651672663
 30
0.0
  0
VERTEX
  5
18FE5
  8
0
 10
152.57210236531679
 20
49.204342915540622
 30
0.0
  0
VERTEX
  5
18FE6
  8
0
 10
152.69904853888681
 20
49.225461146310181
 30
0.0
  0
VERTEX
  5
18FE7
  8
0
 10
152.76120180674209
 20
49.236262186894159
 30
0.0
  0
VERTEX
  5
18FE8
  8
0
 10
152.82245760273861
 20
49.247221475849791
 30
0.0
  0
VERTEX
  5
18FE9
  8
0
 10
152.94222514048349
 20
49.269605492748219
 30
0.0
  0
VERTEX
  5
18FEA
  8
0
 10
153.05824981682781
 20
49.292594257892382
 30
0.0
  0
VERTEX
  5
18FEB
  8
0
 10
153.17043346331161
 20
49.316168320491961
 30
0.0
  0
VERTEX
  5
18FEC
  8
0
 10
153.2786811613702
 20
49.340307734536367
 30
0.0
  0
VERTEX
  5
18FED
  8
0
 10
153.38290132264399
 20
49.36499207567141
 30
0.0
  0
VERTEX
  5
18FEE
  8
0
 10
153.43347338535679
 20
49.377532084734788
 30
0.0
  0
VERTEX
  5
18FEF
  8
0
 10
153.4830057664719
 20
49.390200458480109
 30
0.0
  0
VERTEX
  5
18FF0
  8
0
 10
153.57890979450011
 20
49.415911554153929
 30
0.0
  0
VERTEX
  5
18FF1
  8
0
 10
153.67053226234651
 20
49.442103608538993
 30
0.0
  0
VERTEX
  5
18FF2
  8
0
 10
153.71471354232941
 20
49.455373085292337
 30
0.0
  0
VERTEX
  5
18FF3
  8
0
 10
153.75779564825601
 20
49.468754460542421
 30
0.0
  0
VERTEX
  5
18FF4
  8
0
 10
153.84062611869209
 20
49.495841560882702
 30
0.0
  0
VERTEX
  5
18FF5
  8
0
 10
153.91895359080749
 20
49.523341991168742
 30
0.0
  0
VERTEX
  5
18FF6
  8
0
 10
153.95640784184269
 20
49.537239946881641
 30
0.0
  0
VERTEX
  5
18FF7
  8
0
 10
153.9927117917409
 20
49.551232483290939
 30
0.0
  0
VERTEX
  5
18FF8
  8
0
 10
154.0618383146905
 20
49.579489439108499
 30
0.0
  0
VERTEX
  5
18FF9
  8
0
 10
154.12627467171669
 20
49.608088950415777
 30
0.0
  0
VERTEX
  5
18FFA
  8
0
 10
154.18596634322839
 20
49.637006819170963
 30
0.0
  0
VERTEX
  5
18FFB
  8
0
 10
154.24086282411221
 20
49.666218577970007
 30
0.0
  0
VERTEX
  5
18FFC
  8
0
 10
154.29091766646451
 20
49.695699510748661
 30
0.0
  0
VERTEX
  5
18FFD
  8
0
 10
154.3141160773572
 20
49.710533130759508
 30
0.0
  0
VERTEX
  5
18FFE
  8
0
 10
154.3360885188915
 20
49.725424673694476
 30
0.0
  0
VERTEX
  5
18FFF
  8
0
 10
154.3763371623424
 20
49.755368916352019
 30
0.0
  0
VERTEX
  5
19000
  8
0
 10
154.4116295424466
 20
49.785506902902512
 30
0.0
  0
VERTEX
  5
19001
  8
0
 10
154.44193579832711
 20
49.81581313360045
 30
0.0
  0
VERTEX
  5
19002
  8
0
 10
154.4672302878657
 20
49.846261966349012
 30
0.0
  0
VERTEX
  5
19003
  8
0
 10
154.487491609399
 20
49.876827638395874
 30
0.0
  0
VERTEX
  5
19004
  8
0
 10
154.49572930817331
 20
49.892146210666773
 30
0.0
  0
VERTEX
  5
19005
  8
0
 10
154.50270261982621
 20
49.907484288130867
 30
0.0
  0
VERTEX
  5
19006
  8
0
 10
154.51285044911401
 20
49.938205976967772
 30
0.0
  0
VERTEX
  5
19007
  8
0
 10
154.51792651118549
 20
49.968966711290648
 30
0.0
  0
VERTEX
  5
19008
  8
0
 10
154.51923280393601
 20
49.984366335815871
 30
0.0
  0
SEQEND
  5
19009
  8
0
  0
POLYLINE
  5
18DE7
  8
0
 66
     1
 10
0.0
 20
0.0
 30
0.0
  0
VERTEX
  5
1900A
  8
0
 10
154.5192330458803
 20
49.984353587868988
 30
0.0
  0
VERTEX
  5
1900B
  8
0
 10
154.51909865701671
 20
49.991434484296583
 30
0.0
  0
VERTEX
  5
1900C
  8
0
 10
154.51802358222889
 20
50.00559500837452
 30
0.0
  0
VERTEX
  5
1900D
  8
0
 10
154.51587362528849
 20
50.019751726347927
 30
0.0
  0
VERTEX
  5
1900E
  8
0
 10
154.51439567887559
 20
50.02682786530471
 30
0.0
  0
VERTEX
  5
1900F
  8
0
 10
154.5126491714316
 20
50.03390210157157
 30
0.0
  0
VERTEX
  5
19010
  8
0
 10
154.50835079842591
 20
50.048043598536722
 30
0.0
  0
VERTEX
  5
19011
  8
0
 10
154.5029792764675
 20
50.062173683325462
 30
0.0
  0
VERTEX
  5
19012
  8
0
 10
154.49653556804259
 20
50.076289824064759
 30
0.0
  0
VERTEX
  5
19013
  8
0
 10
154.4890208277551
 20
50.090389491380172
 30
0.0
  0
VERTEX
  5
19014
  8
0
 10
154.48043640211981
 20
50.104470158848962
 30
0.0
  0
VERTEX
  5
19015
  8
0
 10
154.4757435304995
 20
50.111502579052292
 30
0.0
  0
VERTEX
  5
19016
  8
0
 10
154.47078382932099
 20
50.118529303452817
 30
0.0
  0
VERTEX
  5
19017
  8
0
 10
154.46006483893709
 20
50.132564406029992
 30
0.0
  0
VERTEX
  5
19018
  8
0
 10
154.44828135163061
 20
50.146572951726711
 30
0.0
  0
VERTEX
  5
19019
  8
0
 10
154.43543547880381
 20
50.160552430447702
 30
0.0
  0
VERTEX
  5
1901A
  8
0
 10
154.4215295222204
 20
50.174500337305979
 30
0.0
  0
VERTEX
  5
1901B
  8
0
 10
154.40656597359359
 20
50.188414173071749
 30
0.0
  0
VERTEX
  5
1901C
  8
0
 10
154.39868843275431
 20
50.195357534942737
 30
0.0
  0
VERTEX
  5
1901D
  8
0
 10
154.39054751413909
 20
50.202291444620137
 30
0.0
  0
VERTEX
  5
1901E
  8
0
 10
154.3734770140947
 20
50.216129665378048
 30
0.0
  0
VERTEX
  5
1901F
  8
0
 10
154.35535753220651
 20
50.2299263557695
 30
0.0
  0
VERTEX
  5
19020
  8
0
 10
154.34590543033991
 20
50.236808354233013
 30
0.0
  0
SEQEND
  5
19021
  8
0
  0
LINE
  5
18DE9
  8
2
 10
191.519232854851
 20
45.626935356656077
 30
0.0
 11
191.519232854851
 21
35.626935356656077
 31
0.0
  0
LINE
  5
18DEA
  8
2
 10
185.019232854851
 20
35.626935356656077
 30
0.0
 11
185.019232854851
 21
45.626935356656077
 31
0.0
  0
LINE
  5
18DEB
  8
2
 10
191.519232854851
 20
45.626935356656077
 30
0.0
 11
185.019232854851
 21
45.626935356656077
 31
0.0
  0
POLYLINE
  5
18DEC
  8
0
 66
     1
 10
0.0
 20
0.0
 30
0.0
  0
VERTEX
  5
19022
  8
0
 10
194.34590543033991
 20
50.236808354233013
 30
0.0
  0
VERTEX
  5
19023
  8
0
 10
194.33830987410599
 20
50.242382464581972
 30
0.0
  0
VERTEX
  5
19024
  8
0
 10
194.3226454577152
 20
50.254614463588958
 30
0.0
  0
VERTEX
  5
19025
  8
0
 10
194.3063636759702
 20
50.268286009634672
 30
0.0
  0
VERTEX
  5
19026
  8
0
 10
194.29799690190831
 20
50.275658914300791
 30
0.0
  0
VERTEX
  5
19027
  8
0
 10
194.28948282507849
 20
50.283388106205969
 30
0.0
  0
VERTEX
  5
19028
  8
0
 10
194.27202343411821
 20
50.299908889860582
 30
0.0
  0
VERTEX
  5
19029
  8
0
 10
194.25400813667699
 20
50.317833718051261
 30
0.0
  0
VERTEX
  5
1902A
  8
0
 10
194.23546153425741
 20
50.33714528631743
 30
0.0
  0
VERTEX
  5
1902B
  8
0
 10
194.21641004384429
 20
50.357823778037393
 30
0.0
  0
VERTEX
  5
1902C
  8
0
 10
194.19688173157411
 20
50.379847043279568
 30
0.0
  0
VERTEX
  5
1902D
  8
0
 10
194.18694794515599
 20
50.391355456079552
 30
0.0
  0
VERTEX
  5
1902E
  8
0
 10
194.17690613428371
 20
50.403190803916097
 30
0.0
  0
VERTEX
  5
1902F
  8
0
 10
194.15651209533721
 20
50.427831307613339
 30
0.0
  0
VERTEX
  5
19030
  8
0
 10
194.13572645090071
 20
50.4537473689102
 30
0.0
  0
VERTEX
  5
19031
  8
0
 10
194.11458213693871
 20
50.480910374822521
 30
0.0
  0
VERTEX
  5
19032
  8
0
 10
194.09311383874331
 20
50.509289139102982
 30
0.0
  0
VERTEX
  5
19033
  8
0
 10
194.07135758351811
 20
50.538850294834681
 30
0.0
  0
VERTEX
  5
19034
  8
0
 10
194.06038305471901
 20
50.554063275796977
 30
0.0
  0
VERTEX
  5
19035
  8
0
 10
194.04935056614059
 20
50.569558416498019
 30
0.0
  0
VERTEX
  5
19036
  8
0
 10
194.02713096787789
 20
50.601376156322011
 30
0.0
  0
VERTEX
  5
19037
  8
0
 10
194.00473776887941
 20
50.634264393711589
 30
0.0
  0
VERTEX
  5
19038
  8
0
 10
193.99348842142589
 20
50.651097278669063
 30
0.0
  0
SEQEND
  5
19039
  8
0
  0
POLYLINE
  5
18DED
  8
0
 66
     1
 10
0.0
 20
0.0
 30
0.0
  0
VERTEX
  5
1903A
  8
0
 10
193.99348842142589
 20
50.651097278669063
 30
0.0
  0
VERTEX
  5
1903B
  8
0
 10
193.96704753091251
 20
50.690346613212398
 30
0.0
  0
VERTEX
  5
1903C
  8
0
 10
193.91231881744409
 20
50.768264108356618
 30
0.0
  0
VERTEX
  5
1903D
  8
0
 10
193.85514829283929
 20
50.845377342956724
 30
0.0
  0
VERTEX
  5
1903E
  8
0
 10
193.82565539753071
 20
50.883621437168102
 30
0.0
  0
VERTEX
  5
1903F
  8
0
 10
193.79556184202369
 20
50.921651402686621
 30
0.0
  0
VERTEX
  5
19040
  8
0
 10
193.7335864437745
 20
50.997051753171007
 30
0.0
  0
VERTEX
  5
19041
  8
0
 10
193.66925015850529
 20
51.071544255621149
 30
0.0
  0
VERTEX
  5
19042
  8
0
 10
193.60258211556149
 20
51.14509518229201
 30
0.0
  0
VERTEX
  5
19043
  8
0
 10
193.53361250003121
 20
51.217671231752888
 30
0.0
  0
VERTEX
  5
19044
  8
0
 10
193.4623725390787
 20
51.289239543965387
 30
0.0
  0
VERTEX
  5
19045
  8
0
 10
193.42591121903081
 20
51.324635654200229
 30
0.0
  0
VERTEX
  5
19046
  8
0
 10
193.3888944878058
 20
51.35976771516119
 30
0.0
  0
VERTEX
  5
19047
  8
0
 10
193.31321161464729
 20
51.429223812513477
 30
0.0
  0
VERTEX
  5
19048
  8
0
 10
193.23535818630921
 20
51.4975763885951
 30
0.0
  0
VERTEX
  5
19049
  8
0
 10
193.1553694522525
 20
51.564794495616901
 30
0.0
  0
VERTEX
  5
1904A
  8
0
 10
193.07328162873461
 20
51.630847699439762
 30
0.0
  0
VERTEX
  5
1904B
  8
0
 10
192.9891318824111
 20
51.695706093354403
 30
0.0
  0
VERTEX
  5
1904C
  8
0
 10
192.9462956585192
 20
51.727678038305811
 30
0.0
  0
VERTEX
  5
1904D
  8
0
 10
192.90295831350829
 20
51.759340311621919
 30
0.0
  0
VERTEX
  5
1904E
  8
0
 10
192.81479993857209
 20
51.821721542769723
 30
0.0
  0
VERTEX
  5
1904F
  8
0
 10
192.72469667280359
 20
51.882821542636442
 30
0.0
  0
VERTEX
  5
19050
  8
0
 10
192.67892842064401
 20
51.912882412815499
 30
0.0
  0
VERTEX
  5
19051
  8
0
 10
192.63268931198581
 20
51.942612647159862
 30
0.0
  0
VERTEX
  5
19052
  8
0
 10
192.5388195140134
 20
52.001067784902439
 30
0.0
  0
VERTEX
  5
19053
  8
0
 10
192.4431297800308
 20
52.0581604893082
 30
0.0
  0
VERTEX
  5
19054
  8
0
 10
192.3946159444917
 20
52.086187826563048
 30
0.0
  0
VERTEX
  5
19055
  8
0
 10
192.34566343518961
 20
52.113864910686011
 30
0.0
  0
VERTEX
  5
19056
  8
0
 10
192.24646460903199
 20
52.16815582791348
 30
0.0
  0
VERTEX
  5
19057
  8
0
 10
192.1455782155106
 20
52.221008659856132
 30
0.0
  0
VERTEX
  5
19058
  8
0
 10
192.04304993265259
 20
52.272399476497142
 30
0.0
  0
VERTEX
  5
19059
  8
0
 10
191.93892618187871
 20
52.32230500977181
 30
0.0
  0
VERTEX
  5
1905A
  8
0
 10
191.83325410698461
 20
52.370702664102801
 30
0.0
  0
VERTEX
  5
1905B
  8
0
 10
191.7798523727067
 20
52.394329161953699
 30
0.0
  0
VERTEX
  5
1905C
  8
0
 10
191.72608155279599
 20
52.41757052663047
 30
0.0
  0
VERTEX
  5
1905D
  8
0
 10
191.6174570435065
 20
52.462887377134429
 30
0.0
  0
VERTEX
  5
1905E
  8
0
 10
191.5074297607064
 20
52.506632697641329
 30
0.0
  0
VERTEX
  5
1905F
  8
0
 10
191.39604952111591
 20
52.548786681714688
 30
0.0
  0
VERTEX
  5
19060
  8
0
 10
191.2833667540292
 20
52.589330243422623
 30
0.0
  0
VERTEX
  5
19061
  8
0
 10
191.16943247848221
 20
52.628245025979261
 30
0.0
  0
VERTEX
  5
19062
  8
0
 10
191.11201212406269
 20
52.647086090008351
 30
0.0
  0
VERTEX
  5
19063
  8
0
 10
191.05429828015221
 20
52.665513410056192
 30
0.0
  0
VERTEX
  5
19064
  8
0
 10
190.9380162880019
 20
52.701118521759867
 30
0.0
  0
VERTEX
  5
19065
  8
0
 10
190.82063915067749
 20
52.73504424027152
 30
0.0
  0
VERTEX
  5
19066
  8
0
 10
190.7022200126703
 20
52.767275205146213
 30
0.0
  0
VERTEX
  5
19067
  8
0
 10
190.58281249025541
 20
52.797796823267397
 30
0.0
  0
VERTEX
  5
19068
  8
0
 10
190.4624706472157
 20
52.826595275454338
 30
0.0
  0
VERTEX
  5
19069
  8
0
 10
190.40196636673909
 20
52.840344208998552
 30
0.0
  0
VERTEX
  5
1906A
  8
0
 10
190.34124897036349
 20
52.853657522718891
 30
0.0
  0
VERTEX
  5
1906B
  8
0
 10
190.21920234487081
 20
52.878971312169291
 30
0.0
  0
VERTEX
  5
1906C
  8
0
 10
190.09638602941931
 20
52.902525182557561
 30
0.0
  0
VERTEX
  5
1906D
  8
0
 10
189.97285563118061
 20
52.924308469469061
 30
0.0
  0
VERTEX
  5
1906E
  8
0
 10
189.84866708063981
 20
52.944311310150802
 30
0.0
  0
VERTEX
  5
1906F
  8
0
 10
189.72387660627109
 20
52.962524647977148
 30
0.0
  0
VERTEX
  5
19070
  8
0
 10
189.6612732942686
 20
52.970957644566091
 30
0.0
  0
VERTEX
  5
19071
  8
0
 10
189.5985407090804
 20
52.978940236550223
 30
0.0
  0
VERTEX
  5
19072
  8
0
 10
189.47271613702279
 20
52.993550643433572
 30
0.0
  0
VERTEX
  5
19073
  8
0
 10
189.34645985930939
 20
53.00634925351747
 30
0.0
  0
VERTEX
  5
19074
  8
0
 10
189.21982904061309
 20
53.017330272013972
 30
0.0
  0
VERTEX
  5
19075
  8
0
 10
189.0928810151868
 20
53.026488727080483
 30
0.0
  0
VERTEX
  5
19076
  8
0
 10
188.9656732609042
 20
53.033820472071007
 30
0.0
  0
VERTEX
  5
19077
  8
0
 10
188.90198998014529
 20
53.036800258570317
 30
0.0
  0
VERTEX
  5
19078
  8
0
 10
188.83826337323541
 20
53.039322187413582
 30
0.0
  0
VERTEX
  5
19079
  8
0
 10
188.7107090391701
 20
53.042991382113122
 30
0.0
  0
VERTEX
  5
1907A
  8
0
 10
188.58306801109831
 20
53.0448263948795
 30
0.0
  0
VERTEX
  5
1907B
  8
0
 10
188.5192330458803
 20
53.045055790949789
 30
0.0
  0
SEQEND
  5
1907C
  8
0
  0
POLYLINE
  5
18DEE
  8
0
 66
     1
 10
0.0
 20
0.0
 30
0.0
  0
VERTEX
  5
1907D
  8
0
 10
188.5185611196228
 20
48.9263925827157
 30
0.0
  0
VERTEX
  5
1907E
  8
0
 10
188.6058245055323
 20
48.926504481212419
 30
0.0
  0
VERTEX
  5
1907F
  8
0
 10
188.78027744381481
 20
48.927399527167637
 30
0.0
  0
VERTEX
  5
19080
  8
0
 10
188.95450894395839
 20
48.92918886177987
 30
0.0
  0
VERTEX
  5
19081
  8
0
 10
189.0414955761087
 20
48.930418443747477
 30
0.0
  0
VERTEX
  5
19082
  8
0
 10
189.1283715887196
 20
48.93187097109336
 30
0.0
  0
VERTEX
  5
19083
  8
0
 10
189.30171827294311
 20
48.935443585775893
 30
0.0
  0
VERTEX
  5
19084
  8
0
 10
189.47440232802791
 20
48.93990368303875
 30
0.0
  0
VERTEX
  5
19085
  8
0
 10
189.64627764602349
 20
48.945247489194379
 30
0.0
  0
VERTEX
  5
19086
  8
0
 10
189.81719880325139
 20
48.951470482849238
 30
0.0
  0
VERTEX
  5
19087
  8
0
 10
189.9870211833487
 20
48.958567398729492
 30
0.0
  0
VERTEX
  5
19088
  8
0
 10
190.07147539023791
 20
48.9624417297847
 30
0.0
  0
VERTEX
  5
19089
  8
0
 10
190.1556010996276
 20
48.966532232135712
 30
0.0
  0
VERTEX
  5
1908A
  8
0
 10
190.3227959166484
 20
48.975358244023688
 30
0.0
  0
VERTEX
  5
1908B
  8
0
 10
190.48846417090419
 20
48.985037966706187
 30
0.0
  0
VERTEX
  5
1908C
  8
0
 10
190.65246569051209
 20
48.995563210171511
 30
0.0
  0
VERTEX
  5
1908D
  8
0
 10
190.81466171381331
 20
49.006925069012802
 30
0.0
  0
VERTEX
  5
1908E
  8
0
 10
190.9749150067793
 20
49.019113929963233
 30
0.0
  0
VERTEX
  5
1908F
  8
0
 10
191.054270690067
 20
49.02551529051744
 30
0.0
  0
VERTEX
  5
19090
  8
0
 10
191.1330899791252
 20
49.03211948002955
 30
0.0
  0
VERTEX
  5
19091
  8
0
 10
191.28905279903299
 20
49.045930715217906
 30
0.0
  0
VERTEX
  5
19092
  8
0
 10
191.44267150638629
 20
49.060535949844571
 30
0.0
  0
VERTEX
  5
19093
  8
0
 10
191.59381612442201
 20
49.075922826422868
 30
0.0
  0
VERTEX
  5
19094
  8
0
 10
191.7423587697038
 20
49.0920783261191
 30
0.0
  0
VERTEX
  5
19095
  8
0
 10
191.88817376032381
 20
49.108988779767607
 30
0.0
  0
VERTEX
  5
19096
  8
0
 10
191.96001973772911
 20
49.117722667719647
 30
0.0
  0
VERTEX
  5
19097
  8
0
 10
192.03113772224239
 20
49.12663987943634
 30
0.0
  0
VERTEX
  5
19098
  8
0
 10
192.17112969367511
 20
49.145016690532749
 30
0.0
  0
VERTEX
  5
19099
  8
0
 10
192.30803122743779
 20
49.164103664440042
 30
0.0
  0
VERTEX
  5
1909A
  8
0
 10
192.44172649116521
 20
49.183884651672663
 30
0.0
  0
VERTEX
  5
1909B
  8
0
 10
192.57210236531679
 20
49.204342915540622
 30
0.0
  0
VERTEX
  5
1909C
  8
0
 10
192.69904853888681
 20
49.225461146310181
 30
0.0
  0
VERTEX
  5
1909D
  8
0
 10
192.76120180674209
 20
49.236262186894159
 30
0.0
  0
VERTEX
  5
1909E
  8
0
 10
192.82245760273861
 20
49.247221475849791
 30
0.0
  0
VERTEX
  5
1909F
  8
0
 10
192.94222514048349
 20
49.269605492748219
 30
0.0
  0
VERTEX
  5
190A0
  8
0
 10
193.0582498168277
 20
49.292594257892382
 30
0.0
  0
VERTEX
  5
190A1
  8
0
 10
193.17043346331161
 20
49.316168320491961
 30
0.0
  0
VERTEX
  5
190A2
  8
0
 10
193.2786811613702
 20
49.340307734536367
 30
0.0
  0
VERTEX
  5
190A3
  8
0
 10
193.3829013226441
 20
49.36499207567141
 30
0.0
  0
VERTEX
  5
190A4
  8
0
 10
193.43347338535679
 20
49.377532084734788
 30
0.0
  0
VERTEX
  5
190A5
  8
0
 10
193.4830057664719
 20
49.390200458480109
 30
0.0
  0
VERTEX
  5
190A6
  8
0
 10
193.57890979450011
 20
49.415911554153929
 30
0.0
  0
VERTEX
  5
190A7
  8
0
 10
193.67053226234651
 20
49.442103608538993
 30
0.0
  0
VERTEX
  5
190A8
  8
0
 10
193.71471354232949
 20
49.455373085292337
 30
0.0
  0
VERTEX
  5
190A9
  8
0
 10
193.75779564825601
 20
49.468754460542421
 30
0.0
  0
VERTEX
  5
190AA
  8
0
 10
193.84062611869209
 20
49.495841560882702
 30
0.0
  0
VERTEX
  5
190AB
  8
0
 10
193.91895359080749
 20
49.523341991168742
 30
0.0
  0
VERTEX
  5
190AC
  8
0
 10
193.95640784184269
 20
49.537239946881641
 30
0.0
  0
VERTEX
  5
190AD
  8
0
 10
193.9927117917409
 20
49.551232483290939
 30
0.0
  0
VERTEX
  5
190AE
  8
0
 10
194.0618383146905
 20
49.579489439108499
 30
0.0
  0
VERTEX
  5
190AF
  8
0
 10
194.12627467171669
 20
49.608088950415777
 30
0.0
  0
VERTEX
  5
190B0
  8
0
 10
194.18596634322839
 20
49.637006819170963
 30
0.0
  0
VERTEX
  5
190B1
  8
0
 10
194.24086282411221
 20
49.666218577970007
 30
0.0
  0
VERTEX
  5
190B2
  8
0
 10
194.29091766646451
 20
49.695699510748661
 30
0.0
  0
VERTEX
  5
190B3
  8
0
 10
194.3141160773572
 20
49.710533130759508
 30
0.0
  0
VERTEX
  5
190B4
  8
0
 10
194.3360885188915
 20
49.725424673694476
 30
0.0
  0
VERTEX
  5
190B5
  8
0
 10
194.3763371623424
 20
49.755368916352019
 30
0.0
  0
VERTEX
  5
190B6
  8
0
 10
194.4116295424466
 20
49.785506902902512
 30
0.0
  0
VERTEX
  5
190B7
  8
0
 10
194.44193579832711
 20
49.81581313360045
 30
0.0
  0
VERTEX
  5
190B8
  8
0
 10
194.4672302878657
 20
49.846261966349012
 30
0.0
  0
VERTEX
  5
190B9
  8
0
 10
194.487491609399
 20
49.876827638395874
 30
0.0
  0
VERTEX
  5
190BA
  8
0
 10
194.49572930817331
 20
49.892146210666773
 30
0.0
  0
VERTEX
  5
190BB
  8
0
 10
194.50270261982621
 20
49.907484288130867
 30
0.0
  0
VERTEX
  5
190BC
  8
0
 10
194.51285044911401
 20
49.938205976967772
 30
0.0
  0
VERTEX
  5
190BD
  8
0
 10
194.51792651118549
 20
49.968966711290648
 30
0.0
  0
VERTEX
  5
190BE
  8
0
 10
194.5192330458803
 20
49.984353587868988
 30
0.0
  0
SEQEND
  5
190BF
  8
0
  0
POLYLINE
  5
18DEF
  8
0
 66
     1
 10
0.0
 20
0.0
 30
0.0
  0
VERTEX
  5
190C0
  8
0
 10
194.5192330458803
 20
49.984353587868988
 30
0.0
  0
VERTEX
  5
190C1
  8
0
 10
194.51909865701671
 20
49.991434484296583
 30
0.0
  0
VERTEX
  5
190C2
  8
0
 10
194.51802358222889
 20
50.00559500837452
 30
0.0
  0
VERTEX
  5
190C3
  8
0
 10
194.51587362528849
 20
50.019751726347927
 30
0.0
  0
VERTEX
  5
190C4
  8
0
 10
194.51439567887559
 20
50.02682786530471
 30
0.0
  0
VERTEX
  5
190C5
  8
0
 10
194.5126491714316
 20
50.03390210157157
 30
0.0
  0
VERTEX
  5
190C6
  8
0
 10
194.50835079842591
 20
50.048043598536722
 30
0.0
  0
VERTEX
  5
190C7
  8
0
 10
194.5029792764675
 20
50.062173683325462
 30
0.0
  0
VERTEX
  5
190C8
  8
0
 10
194.49653556804259
 20
50.076289824064759
 30
0.0
  0
VERTEX
  5
190C9
  8
0
 10
194.4890208277551
 20
50.090389491380172
 30
0.0
  0
VERTEX
  5
190CA
  8
0
 10
194.48043640211981
 20
50.104470158848962
 30
0.0
  0
VERTEX
  5
190CB
  8
0
 10
194.4757435304995
 20
50.111502579052292
 30
0.0
  0
VERTEX
  5
190CC
  8
0
 10
194.47078382932099
 20
50.118529303452817
 30
0.0
  0
VERTEX
  5
190CD
  8
0
 10
194.4600648389372
 20
50.132564406029992
 30
0.0
  0
VERTEX
  5
190CE
  8
0
 10
194.4482813516307
 20
50.146572951726711
 30
0.0
  0
VERTEX
  5
190CF
  8
0
 10
194.43543547880381
 20
50.160552430447702
 30
0.0
  0
VERTEX
  5
190D0
  8
0
 10
194.4215295222204
 20
50.174500337305979
 30
0.0
  0
VERTEX
  5
190D1
  8
0
 10
194.40656597359359
 20
50.188414173071749
 30
0.0
  0
VERTEX
  5
190D2
  8
0
 10
194.39868843275431
 20
50.195357534942737
 30
0.0
  0
VERTEX
  5
190D3
  8
0
 10
194.39054751413909
 20
50.202291444620137
 30
0.0
  0
VERTEX
  5
190D4
  8
0
 10
194.3734770140947
 20
50.216129665378048
 30
0.0
  0
VERTEX
  5
190D5
  8
0
 10
194.35535753220651
 20
50.2299263557695
 30
0.0
  0
VERTEX
  5
190D6
  8
0
 10
194.34590543033991
 20
50.236808354233013
 30
0.0
  0
SEQEND
  5
190D7
  8
0
  0
LINE
  5
18DF0
  8
2
 10
182.0192326638803
 20
49.987894036082778
 30
0.0
 11
182.0192326638803
 21
48.626935547656103
 31
0.0
  0
LINE
  5
18DF1
  8
2
 10
194.5192330458803
 20
48.626935547656053
 30
0.0
 11
194.5192330458803
 21
49.987894036082778
 31
0.0
  0
LINE
  5
18DF2
  8
2
 10
182.0192326638803
 20
48.626935547656103
 30
0.0
 11
194.5192330458803
 21
48.62693554765611
 31
0.0
  0
LINE
  5
18DF3
  8
2
 10
182.0192326638803
 20
48.626935547656103
 30
0.0
 11
185.0192328548803
 21
45.626935356656077
 31
0.0
  0
LINE
  5
18DF4
  8
2
 10
191.5192328548803
 20
45.626935356656077
 30
0.0
 11
194.5192330458803
 21
48.626935547656103
 31
0.0
  0
LINE
  5
18DF5
  8
0
 10
188.01990459007911
 20
48.9263925827157
 30
0.0
 11
188.5185611196228
 21
48.9263925827157
 31
0.0
  0
LINE
  5
18DF6
  8
0
 10
188.5192330458803
 20
53.045055790949789
 30
0.0
 11
188.0192326638217
 21
53.045055790949789
 31
0.0
  0
POLYLINE
  5
18DF7
  8
0
 66
     1
 10
0.0
 20
0.0
 30
0.0
  0
VERTEX
  5
190D8
  8
0
 10
182.19256027936211
 20
50.236808354233013
 30
0.0
  0
VERTEX
  5
190D9
  8
0
 10
182.20015583559589
 20
50.242382464581972
 30
0.0
  0
VERTEX
  5
190DA
  8
0
 10
182.2158202519868
 20
50.254614463588958
 30
0.0
  0
VERTEX
  5
190DB
  8
0
 10
182.23210203373179
 20
50.268286009634672
 30
0.0
  0
VERTEX
  5
190DC
  8
0
 10
182.2404688077936
 20
50.275658914300791
 30
0.0
  0
VERTEX
  5
190DD
  8
0
 10
182.24898288462339
 20
50.283388106205969
 30
0.0
  0
VERTEX
  5
190DE
  8
0
 10
182.26644227558381
 20
50.299908889860582
 30
0.0
  0
VERTEX
  5
190DF
  8
0
 10
182.28445757302489
 20
50.317833718051261
 30
0.0
  0
VERTEX
  5
190E0
  8
0
 10
182.30300417544461
 20
50.33714528631743
 30
0.0
  0
VERTEX
  5
190E1
  8
0
 10
182.32205566585759
 20
50.357823778037393
 30
0.0
  0
VERTEX
  5
190E2
  8
0
 10
182.3415839781278
 20
50.379847043279568
 30
0.0
  0
VERTEX
  5
190E3
  8
0
 10
182.35151776454589
 20
50.391355456079552
 30
0.0
  0
VERTEX
  5
190E4
  8
0
 10
182.36155957541831
 20
50.403190803916097
 30
0.0
  0
VERTEX
  5
190E5
  8
0
 10
182.3819536143647
 20
50.427831307613339
 30
0.0
  0
VERTEX
  5
190E6
  8
0
 10
182.40273925880129
 20
50.4537473689102
 30
0.0
  0
VERTEX
  5
190E7
  8
0
 10
182.4238835727632
 20
50.480910374822521
 30
0.0
  0
VERTEX
  5
190E8
  8
0
 10
182.44535187095869
 20
50.509289139102982
 30
0.0
  0
VERTEX
  5
190E9
  8
0
 10
182.4671081261838
 20
50.538850294834681
 30
0.0
  0
VERTEX
  5
190EA
  8
0
 10
182.4780826549829
 20
50.554063275796977
 30
0.0
  0
VERTEX
  5
190EB
  8
0
 10
182.48911514356141
 20
50.569558416498019
 30
0.0
  0
VERTEX
  5
190EC
  8
0
 10
182.5113347418241
 20
50.601376156322011
 30
0.0
  0
VERTEX
  5
190ED
  8
0
 10
182.53372794082259
 20
50.634264393711589
 30
0.0
  0
VERTEX
  5
190EE
  8
0
 10
182.5449772882761
 20
50.651097278669063
 30
0.0
  0
SEQEND
  5
190EF
  8
0
  0
POLYLINE
  5
18DF8
  8
0
 66
     1
 10
0.0
 20
0.0
 30
0.0
  0
VERTEX
  5
190F0
  8
0
 10
182.5449772882761
 20
50.651097278669063
 30
0.0
  0
VERTEX
  5
190F1
  8
0
 10
182.5714181787894
 20
50.690346613212398
 30
0.0
  0
VERTEX
  5
190F2
  8
0
 10
182.62614689225779
 20
50.768264108356618
 30
0.0
  0
VERTEX
  5
190F3
  8
0
 10
182.68331741686259
 20
50.845377342956724
 30
0.0
  0
VERTEX
  5
190F4
  8
0
 10
182.7128103121712
 20
50.883621437168102
 30
0.0
  0
VERTEX
  5
190F5
  8
0
 10
182.74290386767819
 20
50.921651402686621
 30
0.0
  0
VERTEX
  5
190F6
  8
0
 10
182.8048792659275
 20
50.997051753171007
 30
0.0
  0
VERTEX
  5
190F7
  8
0
 10
182.86921555119659
 20
51.071544255621149
 30
0.0
  0
VERTEX
  5
190F8
  8
0
 10
182.93588359414051
 20
51.14509518229201
 30
0.0
  0
VERTEX
  5
190F9
  8
0
 10
183.00485320967081
 20
51.217671231752888
 30
0.0
  0
VERTEX
  5
190FA
  8
0
 10
183.07609317062321
 20
51.289239543965387
 30
0.0
  0
VERTEX
  5
190FB
  8
0
 10
183.11255449067119
 20
51.324635654200229
 30
0.0
  0
VERTEX
  5
190FC
  8
0
 10
183.1495712218962
 20
51.35976771516119
 30
0.0
  0
VERTEX
  5
190FD
  8
0
 10
183.22525409505459
 20
51.429223812513477
 30
0.0
  0
VERTEX
  5
190FE
  8
0
 10
183.3031075233927
 20
51.4975763885951
 30
0.0
  0
VERTEX
  5
190FF
  8
0
 10
183.38309625744941
 20
51.564794495616901
 30
0.0
  0
VERTEX
  5
19100
  8
0
 10
183.4651840809673
 20
51.630847699439762
 30
0.0
  0
VERTEX
  5
19101
  8
0
 10
183.54933382729081
 20
51.695706093354403
 30
0.0
  0
VERTEX
  5
19102
  8
0
 10
183.59217005118271
 20
51.727678038305811
 30
0.0
  0
VERTEX
  5
19103
  8
0
 10
183.6355073961937
 20
51.759340311621919
 30
0.0
  0
VERTEX
  5
19104
  8
0
 10
183.72366577112979
 20
51.821721542769723
 30
0.0
  0
VERTEX
  5
19105
  8
0
 10
183.81376903689841
 20
51.882821542636442
 30
0.0
  0
VERTEX
  5
19106
  8
0
 10
183.8595372890579
 20
51.912882412815499
 30
0.0
  0
VERTEX
  5
19107
  8
0
 10
183.90577639771621
 20
51.942612647159862
 30
0.0
  0
VERTEX
  5
19108
  8
0
 10
183.9996461956886
 20
52.001067784902439
 30
0.0
  0
VERTEX
  5
19109
  8
0
 10
184.09533592967111
 20
52.0581604893082
 30
0.0
  0
VERTEX
  5
1910A
  8
0
 10
184.14384976521029
 20
52.086187826563048
 30
0.0
  0
VERTEX
  5
1910B
  8
0
 10
184.1928022745123
 20
52.113864910686011
 30
0.0
  0
VERTEX
  5
1910C
  8
0
 10
184.29200110066989
 20
52.16815582791348
 30
0.0
  0
VERTEX
  5
1910D
  8
0
 10
184.3928874941914
 20
52.221008659856132
 30
0.0
  0
VERTEX
  5
1910E
  8
0
 10
184.49541577704929
 20
52.272399476497142
 30
0.0
  0
VERTEX
  5
1910F
  8
0
 10
184.59953952782331
 20
52.32230500977181
 30
0.0
  0
VERTEX
  5
19110
  8
0
 10
184.70521160271741
 20
52.370702664102801
 30
0.0
  0
VERTEX
  5
19111
  8
0
 10
184.7586133369953
 20
52.394329161953699
 30
0.0
  0
VERTEX
  5
19112
  8
0
 10
184.81238415690589
 20
52.41757052663047
 30
0.0
  0
VERTEX
  5
19113
  8
0
 10
184.92100866619549
 20
52.462887377134429
 30
0.0
  0
VERTEX
  5
19114
  8
0
 10
185.03103594899559
 20
52.506632697641329
 30
0.0
  0
VERTEX
  5
19115
  8
0
 10
185.14241618858611
 20
52.548786681714688
 30
0.0
  0
VERTEX
  5
19116
  8
0
 10
185.25509895567271
 20
52.589330243422623
 30
0.0
  0
VERTEX
  5
19117
  8
0
 10
185.3690332312197
 20
52.628245025979261
 30
0.0
  0
VERTEX
  5
19118
  8
0
 10
185.42645358563919
 20
52.647086090008351
 30
0.0
  0
VERTEX
  5
19119
  8
0
 10
185.48416742954981
 20
52.665513410056192
 30
0.0
  0
VERTEX
  5
1911A
  8
0
 10
185.60044942170001
 20
52.701118521759867
 30
0.0
  0
VERTEX
  5
1911B
  8
0
 10
185.7178265590245
 20
52.73504424027152
 30
0.0
  0
VERTEX
  5
1911C
  8
0
 10
185.8362456970317
 20
52.767275205146213
 30
0.0
  0
VERTEX
  5
1911D
  8
0
 10
185.9556532194465
 20
52.797796823267397
 30
0.0
  0
VERTEX
  5
1911E
  8
0
 10
186.0759950624863
 20
52.826595275454338
 30
0.0
  0
VERTEX
  5
1911F
  8
0
 10
186.13649934296291
 20
52.840344208998552
 30
0.0
  0
VERTEX
  5
19120
  8
0
 10
186.1972167393385
 20
52.853657522718891
 30
0.0
  0
VERTEX
  5
19121
  8
0
 10
186.3192633648311
 20
52.878971312169291
 30
0.0
  0
VERTEX
  5
19122
  8
0
 10
186.44207968028269
 20
52.902525182557561
 30
0.0
  0
VERTEX
  5
19123
  8
0
 10
186.5656100785213
 20
52.924308469469061
 30
0.0
  0
VERTEX
  5
19124
  8
0
 10
186.68979862906221
 20
52.944311310150802
 30
0.0
  0
VERTEX
  5
19125
  8
0
 10
186.81458910343079
 20
52.962524647977148
 30
0.0
  0
VERTEX
  5
19126
  8
0
 10
186.87719241543331
 20
52.970957644566091
 30
0.0
  0
VERTEX
  5
19127
  8
0
 10
186.93992500062151
 20
52.978940236550223
 30
0.0
  0
VERTEX
  5
19128
  8
0
 10
187.0657495726791
 20
52.993550643433572
 30
0.0
  0
VERTEX
  5
19129
  8
0
 10
187.1920058503926
 20
53.00634925351747
 30
0.0
  0
VERTEX
  5
1912A
  8
0
 10
187.3186366690889
 20
53.017330272013972
 30
0.0
  0
VERTEX
  5
1912B
  8
0
 10
187.44558469451511
 20
53.026488727080483
 30
0.0
  0
VERTEX
  5
1912C
  8
0
 10
187.57279244879771
 20
53.033820472071007
 30
0.0
  0
VERTEX
  5
1912D
  8
0
 10
187.63647572955659
 20
53.036800258570317
 30
0.0
  0
VERTEX
  5
1912E
  8
0
 10
187.7002023364665
 20
53.039322187413582
 30
0.0
  0
VERTEX
  5
1912F
  8
0
 10
187.82775667053181
 20
53.042991382113122
 30
0.0
  0
VERTEX
  5
19130
  8
0
 10
187.95539769860369
 20
53.0448263948795
 30
0.0
  0
VERTEX
  5
19131
  8
0
 10
188.0192326638217
 20
53.045055790949789
 30
0.0
  0
SEQEND
  5
19132
  8
0
  0
POLYLINE
  5
18DF9
  8
0
 66
     1
 10
0.0
 20
0.0
 30
0.0
  0
VERTEX
  5
19133
  8
0
 10
188.01990459007911
 20
48.9263925827157
 30
0.0
  0
VERTEX
  5
19134
  8
0
 10
187.9326412041697
 20
48.926504481212419
 30
0.0
  0
VERTEX
  5
19135
  8
0
 10
187.7581882658871
 20
48.927399527167637
 30
0.0
  0
VERTEX
  5
19136
  8
0
 10
187.58395676574349
 20
48.92918886177987
 30
0.0
  0
VERTEX
  5
19137
  8
0
 10
187.49697013359321
 20
48.930418443747477
 30
0.0
  0
VERTEX
  5
19138
  8
0
 10
187.41009412098231
 20
48.93187097109336
 30
0.0
  0
VERTEX
  5
19139
  8
0
 10
187.2367474367588
 20
48.935443585775893
 30
0.0
  0
VERTEX
  5
1913A
  8
0
 10
187.064063381674
 20
48.93990368303875
 30
0.0
  0
VERTEX
  5
1913B
  8
0
 10
186.8921880636785
 20
48.945247489194379
 30
0.0
  0
VERTEX
  5
1913C
  8
0
 10
186.7212669064505
 20
48.951470482849238
 30
0.0
  0
VERTEX
  5
1913D
  8
0
 10
186.55144452635321
 20
48.958567398729492
 30
0.0
  0
VERTEX
  5
1913E
  8
0
 10
186.466990319464
 20
48.9624417297847
 30
0.0
  0
VERTEX
  5
1913F
  8
0
 10
186.38286461007439
 20
48.966532232135712
 30
0.0
  0
VERTEX
  5
19140
  8
0
 10
186.21566979305351
 20
48.975358244023688
 30
0.0
  0
VERTEX
  5
19141
  8
0
 10
186.0500015387978
 20
48.985037966706187
 30
0.0
  0
VERTEX
  5
19142
  8
0
 10
185.88600001918991
 20
48.995563210171511
 30
0.0
  0
VERTEX
  5
19143
  8
0
 10
185.7238039958886
 20
49.006925069012802
 30
0.0
  0
VERTEX
  5
19144
  8
0
 10
185.56355070292261
 20
49.019113929963233
 30
0.0
  0
VERTEX
  5
19145
  8
0
 10
185.484195019635
 20
49.02551529051744
 30
0.0
  0
VERTEX
  5
19146
  8
0
 10
185.40537573057671
 20
49.03211948002955
 30
0.0
  0
VERTEX
  5
19147
  8
0
 10
185.24941291066889
 20
49.045930715217906
 30
0.0
  0
VERTEX
  5
19148
  8
0
 10
185.09579420331571
 20
49.060535949844571
 30
0.0
  0
VERTEX
  5
19149
  8
0
 10
184.9446495852799
 20
49.075922826422868
 30
0.0
  0
VERTEX
  5
1914A
  8
0
 10
184.7961069399982
 20
49.0920783261191
 30
0.0
  0
VERTEX
  5
1914B
  8
0
 10
184.65029194937819
 20
49.108988779767607
 30
0.0
  0
VERTEX
  5
1914C
  8
0
 10
184.57844597197291
 20
49.117722667719647
 30
0.0
  0
VERTEX
  5
1914D
  8
0
 10
184.50732798745949
 20
49.12663987943634
 30
0.0
  0
VERTEX
  5
1914E
  8
0
 10
184.3673360160268
 20
49.145016690532749
 30
0.0
  0
VERTEX
  5
1914F
  8
0
 10
184.2304344822642
 20
49.164103664440042
 30
0.0
  0
VERTEX
  5
19150
  8
0
 10
184.0967392185367
 20
49.183884651672663
 30
0.0
  0
VERTEX
  5
19151
  8
0
 10
183.9663633443852
 20
49.204342915540622
 30
0.0
  0
VERTEX
  5
19152
  8
0
 10
183.83941717081521
 20
49.225461146310181
 30
0.0
  0
VERTEX
  5
19153
  8
0
 10
183.7772639029599
 20
49.236262186894159
 30
0.0
  0
VERTEX
  5
19154
  8
0
 10
183.71600810696339
 20
49.247221475849791
 30
0.0
  0
VERTEX
  5
19155
  8
0
 10
183.59624056921839
 20
49.269605492748219
 30
0.0
  0
VERTEX
  5
19156
  8
0
 10
183.48021589287421
 20
49.292594257892382
 30
0.0
  0
VERTEX
  5
19157
  8
0
 10
183.3680322463903
 20
49.316168320491961
 30
0.0
  0
VERTEX
  5
19158
  8
0
 10
183.25978454833171
 20
49.340307734536367
 30
0.0
  0
VERTEX
  5
19159
  8
0
 10
183.15556438705789
 20
49.36499207567141
 30
0.0
  0
VERTEX
  5
1915A
  8
0
 10
183.1049923243452
 20
49.377532084734788
 30
0.0
  0
VERTEX
  5
1915B
  8
0
 10
183.05545994323009
 20
49.390200458480109
 30
0.0
  0
VERTEX
  5
1915C
  8
0
 10
182.9595559152018
 20
49.415911554153929
 30
0.0
  0
VERTEX
  5
1915D
  8
0
 10
182.86793344735551
 20
49.442103608538993
 30
0.0
  0
VERTEX
  5
1915E
  8
0
 10
182.8237521673725
 20
49.455373085292337
 30
0.0
  0
VERTEX
  5
1915F
  8
0
 10
182.7806700614459
 20
49.468754460542421
 30
0.0
  0
VERTEX
  5
19160
  8
0
 10
182.6978395910098
 20
49.495841560882702
 30
0.0
  0
VERTEX
  5
19161
  8
0
 10
182.61951211889439
 20
49.523341991168742
 30
0.0
  0
VERTEX
  5
19162
  8
0
 10
182.58205786785931
 20
49.537239946881641
 30
0.0
  0
VERTEX
  5
19163
  8
0
 10
182.54575391796109
 20
49.551232483290939
 30
0.0
  0
VERTEX
  5
19164
  8
0
 10
182.47662739501141
 20
49.579489439108499
 30
0.0
  0
VERTEX
  5
19165
  8
0
 10
182.4121910379852
 20
49.608088950415777
 30
0.0
  0
VERTEX
  5
19166
  8
0
 10
182.3524993664735
 20
49.637006819170963
 30
0.0
  0
VERTEX
  5
19167
  8
0
 10
182.29760288558981
 20
49.666218577970007
 30
0.0
  0
VERTEX
  5
19168
  8
0
 10
182.2475480432374
 20
49.695699510748661
 30
0.0
  0
VERTEX
  5
19169
  8
0
 10
182.2243496323448
 20
49.710533130759508
 30
0.0
  0
VERTEX
  5
1916A
  8
0
 10
182.20237719081049
 20
49.725424673694476
 30
0.0
  0
VERTEX
  5
1916B
  8
0
 10
182.1621285473596
 20
49.755368916352019
 30
0.0
  0
VERTEX
  5
1916C
  8
0
 10
182.12683616725539
 20
49.785506902902512
 30
0.0
  0
VERTEX
  5
1916D
  8
0
 10
182.09652991137489
 20
49.81581313360045
 30
0.0
  0
VERTEX
  5
1916E
  8
0
 10
182.07123542183629
 20
49.846261966349012
 30
0.0
  0
VERTEX
  5
1916F
  8
0
 10
182.05097410030291
 20
49.876827638395874
 30
0.0
  0
VERTEX
  5
19170
  8
0
 10
182.0427364015286
 20
49.892146210666773
 30
0.0
  0
VERTEX
  5
19171
  8
0
 10
182.0357630898757
 20
49.907484288130867
 30
0.0
  0
VERTEX
  5
19172
  8
0
 10
182.02561526058801
 20
49.938205976967772
 30
0.0
  0
VERTEX
  5
19173
  8
0
 10
182.0205391985165
 20
49.968966711290648
 30
0.0
  0
VERTEX
  5
19174
  8
0
 10
182.0192329057659
 20
49.984366335815871
 30
0.0
  0
SEQEND
  5
19175
  8
0
  0
POLYLINE
  5
18DFA
  8
0
 66
     1
 10
0.0
 20
0.0
 30
0.0
  0
VERTEX
  5
19176
  8
0
 10
182.0192326638217
 20
49.984353587868988
 30
0.0
  0
VERTEX
  5
19177
  8
0
 10
182.0193670526852
 20
49.991434484296583
 30
0.0
  0
VERTEX
  5
19178
  8
0
 10
182.0204421274731
 20
50.00559500837452
 30
0.0
  0
VERTEX
  5
19179
  8
0
 10
182.02259208441339
 20
50.019751726347927
 30
0.0
  0
VERTEX
  5
1917A
  8
0
 10
182.02407003082641
 20
50.02682786530471
 30
0.0
  0
VERTEX
  5
1917B
  8
0
 10
182.02581653827031
 20
50.03390210157157
 30
0.0
  0
VERTEX
  5
1917C
  8
0
 10
182.030114911276
 20
50.048043598536722
 30
0.0
  0
VERTEX
  5
1917D
  8
0
 10
182.03548643323441
 20
50.062173683325462
 30
0.0
  0
VERTEX
  5
1917E
  8
0
 10
182.04193014165929
 20
50.076289824064759
 30
0.0
  0
VERTEX
  5
1917F
  8
0
 10
182.04944488194681
 20
50.090389491380172
 30
0.0
  0
VERTEX
  5
19180
  8
0
 10
182.05802930758219
 20
50.104470158848962
 30
0.0
  0
VERTEX
  5
19181
  8
0
 10
182.06272217920241
 20
50.111502579052292
 30
0.0
  0
VERTEX
  5
19182
  8
0
 10
182.067681880381
 20
50.118529303452817
 30
0.0
  0
VERTEX
  5
19183
  8
0
 10
182.0784008707648
 20
50.132564406029992
 30
0.0
  0
VERTEX
  5
19184
  8
0
 10
182.0901843580713
 20
50.146572951726711
 30
0.0
  0
VERTEX
  5
19185
  8
0
 10
182.1030302308981
 20
50.160552430447702
 30
0.0
  0
VERTEX
  5
19186
  8
0
 10
182.11693618748151
 20
50.174500337305979
 30
0.0
  0
VERTEX
  5
19187
  8
0
 10
182.13189973610841
 20
50.188414173071749
 30
0.0
  0
VERTEX
  5
19188
  8
0
 10
182.1397772769476
 20
50.195357534942737
 30
0.0
  0
VERTEX
  5
19189
  8
0
 10
182.14791819556291
 20
50.202291444620137
 30
0.0
  0
VERTEX
  5
1918A
  8
0
 10
182.16498869560721
 20
50.216129665378048
 30
0.0
  0
VERTEX
  5
1918B
  8
0
 10
182.18310817749551
 20
50.2299263557695
 30
0.0
  0
VERTEX
  5
1918C
  8
0
 10
182.19256027936211
 20
50.236808354233013
 30
0.0
  0
SEQEND
  5
1918D
  8
0
  0
TEXT
  5
18E62
  8
0
 62
     3
 10
0.0
 20
0.0
 30
0.0
 40
10.0
  1
EFH6565SH-90
  7
STANDARD1
  0
ENDSEC
  0
EOF
