  0
SECTION
  2
HEADER
  9
$ACADVER
  1
AC1009
  9
$INSBASE
 10
0.0
 20
0.0
 30
0.0
  9
$EXTMIN
 10
0.0
 20
-2.960436562073669
 30
0.0
  9
$EXTMAX
 10
203.617938233769
 20
164.0682266005453
 30
0.0
  9
$LIMMIN
 10
0.0
 20
0.0
  9
$LIMMAX
 10
375.0
 20
278.0
  9
$ORTHOMODE
 70
     1
  9
$REGENMODE
 70
     1
  9
$FILLMODE
 70
     1
  9
$QTEXTMODE
 70
     0
  9
$MIRRTEXT
 70
     0
  9
$DRAGMODE
 70
     2
  9
$LTSCALE
 40
10.0
  9
$OSMODE
 70
  3071
  9
$ATTMODE
 70
     1
  9
$TEXTSIZE
 40
0.2
  9
$TRACEWID
 40
0.05
  9
$TEXTSTYLE
  7
STANDARD
  9
$CLAYER
  8
0
  9
$CELTYPE
  6
BYLAYER
  9
$CECOLOR
 62
   256
  9
$DIMSCALE
 40
1.0
  9
$DIMASZ
 40
3.0
  9
$DIMEXO
 40
1.0
  9
$DIMDLI
 40
6.0
  9
$DIMRND
 40
0.0
  9
$DIMDLE
 40
0.0
  9
$DIMEXE
 40
1.0
  9
$DIMTP
 40
495.0
  9
$DIMTM
 40
0.0
  9
$DIMTXT
 40
3.0
  9
$DIMCEN
 40
0.0
  9
$DIMTSZ
 40
0.0
  9
$DIMTOL
 70
     0
  9
$DIMLIM
 70
     0
  9
$DIMTIH
 70
     0
  9
$DIMTOH
 70
     0
  9
$DIMSE1
 70
     0
  9
$DIMSE2
 70
     0
  9
$DIMTAD
 70
     1
  9
$DIMZIN
 70
     0
  9
$DIMBLK
  1

  9
$DIMASO
 70
     1
  9
$DIMSHO
 70
     0
  9
$DIMPOST
  1

  9
$DIMAPOST
  1

  9
$DIMALT
 70
     0
  9
$DIMALTD
 70
     2
  9
$DIMALTF
 40
25.399999999999999
  9
$DIMLFAC
 40
1.0
  9
$DIMTOFL
 70
     1
  9
$DIMTVP
 40
0.0
  9
$DIMTIX
 70
     1
  9
$DIMSOXD
 70
     0
  9
$DIMSAH
 70
     0
  9
$DIMBLK1
  1

  9
$DIMBLK2
  1

  9
$DIMSTYLE
  2
STANDARD
  9
$DIMCLRD
 70
     0
  9
$DIMCLRE
 70
     0
  9
$DIMCLRT
 70
     4
  9
$DIMTFAC
 40
1.0
  9
$DIMGAP
 40
1.0
  9
$LUNITS
 70
     2
  9
$LUPREC
 70
     4
  9
$SKETCHINC
 40
0.1
  9
$FILLETRAD
 40
0.0
  9
$AUNITS
 70
     0
  9
$AUPREC
 70
     0
  9
$MENU
  1
C:\R13\WIN\SUPPORT\ACAD-I
  9
$ELEVATION
 40
0.0
  9
$PELEVATION
 40
0.0
  9
$THICKNESS
 40
0.0
  9
$LIMCHECK
 70
     0
  9
$BLIPMODE
 70
     0
  9
$CHAMFERA
 40
0.0
  9
$CHAMFERB
 40
0.0
  9
$SKPOLY
 70
     0
  9
$TDCREATE
 40
2450834.4199027782
  9
$TDUPDATE
 40
2456598.6573713771
  9
$TDINDWG
 40
0.2724090278
  9
$TDUSRTIMER
 40
0.2724090278
  9
$USRTIMER
 70
     1
  9
$ANGBASE
 50
0.0
  9
$ANGDIR
 70
     0
  9
$PDMODE
 70
     0
  9
$PDSIZE
 40
0.0
  9
$PLINEWID
 40
0.0
  9
$COORDS
 70
     1
  9
$SPLFRAME
 70
     0
  9
$SPLINETYPE
 70
     6
  9
$SPLINESEGS
 70
     8
  9
$ATTDIA
 70
     0
  9
$ATTREQ
 70
     1
  9
$HANDLING
 70
     1
  9
$HANDSEED
  5
17F56
  9
$SURFTAB1
 70
     6
  9
$SURFTAB2
 70
     6
  9
$SURFTYPE
 70
     6
  9
$SURFU
 70
     6
  9
$SURFV
 70
     6
  9
$UCSNAME
  2

  9
$UCSORG
 10
0.0
 20
0.0
 30
0.0
  9
$UCSXDIR
 10
1.0
 20
0.0
 30
0.0
  9
$UCSYDIR
 10
0.0
 20
1.0
 30
0.0
  9
$PUCSNAME
  2

  9
$PUCSORG
 10
0.0
 20
0.0
 30
0.0
  9
$PUCSXDIR
 10
1.0
 20
0.0
 30
0.0
  9
$PUCSYDIR
 10
0.0
 20
1.0
 30
0.0
  9
$USERI1
 70
     4
  9
$USERI2
 70
     1
  9
$USERI3
 70
     1
  9
$USERI4
 70
     0
  9
$USERI5
 70
     0
  9
$USERR1
 40
1.0
  9
$USERR2
 40
3.0
  9
$USERR3
 40
3.0
  9
$USERR4
 40
3.0
  9
$USERR5
 40
10.0
  9
$WORLDVIEW
 70
     1
  9
$SHADEDGE
 70
     3
  9
$SHADEDIF
 70
    70
  9
$TILEMODE
 70
     1
  9
$MAXACTVP
 70
    16
  9
$PLIMCHECK
 70
     0
  9
$PEXTMIN
 10
1.0000000000000000E+020
 20
1.0000000000000000E+020
 30
1.0000000000000000E+020
  9
$PEXTMAX
 10
-1.0000000000000000E+020
 20
-1.0000000000000000E+020
 30
-1.0000000000000000E+020
  9
$PLIMMIN
 10
0.0
 20
0.0
  9
$PLIMMAX
 10
12.0
 20
9.0
  9
$UNITMODE
 70
     0
  9
$VISRETAIN
 70
     0
  9
$PLINEGEN
 70
     0
  9
$PSLTSCALE
 70
     0
  0
ENDSEC
  0
SECTION
  2
TABLES
  0
TABLE
  2
VPORT
 70
     1
  0
VPORT
  2
*ACTIVE
 70
     0
 10
0.0
 20
0.0
 11
1.0
 21
1.0
 12
187.49427839065231
 22
174.97168974450321
 13
0.0
 23
0.0
 14
10.0
 24
10.0
 15
10.0
 25
10.0
 16
0.0
 26
0.0
 36
1.0
 17
0.0
 27
0.0
 37
0.0
 40
359.12869706410731
 41
1.831871345029239
 42
50.0
 43
0.0
 44
0.0
 50
0.0
 51
0.0
 71
     0
 72
   100
 73
     1
 74
     0
 75
     0
 76
     0
 77
     0
 78
     0
  0
ENDTAB
  0
TABLE
  2
LTYPE
 70
     4
  0
LTYPE
  2
CONTINUOUS
 70
     0
  3
Solid Line
 72
    65
 73
     0
 40
0.0
  0
LTYPE
  2
CENTER
 70
     0
  3
____ _ ____ _ ____ _ ____ _ ____ _ ____ _ ____
 72
    65
 73
     4
 40
2.0
 49
1.25
 49
-0.25
 49
0.25
 49
-0.25
  0
LTYPE
  2
HIDDEN
 70
     0
  3
__ __ __ __ __ __ __ __ __ __ __ __ __ __ __ __
 72
    65
 73
     2
 40
0.375
 49
0.25
 49
-0.125
  0
LTYPE
  2
PHANTOM2
 70
     0
  3
___ _ _ ___ _ _ ___ _ _ ___ _ _
 72
    65
 73
     6
 40
1.25
 49
0.625
 49
-0.125
 49
0.125
 49
-0.125
 49
0.125
 49
-0.125
  0
ENDTAB
  0
TABLE
  2
LAYER
 70
     5
  0
LAYER
  2
0
 70
     0
 62
     7
  6
CONTINUOUS
  0
LAYER
  2
1
 70
     0
 62
     1
  6
CENTER
  0
LAYER
  2
3
 70
     0
 62
     3
  6
CONTINUOUS
  0
LAYER
  2
2
 70
     0
 62
     2
  6
HIDDEN
  0
LAYER
  2
DEFPOINTS
 70
     0
 62
     7
  6
CONTINUOUS
  0
ENDTAB
  0
TABLE
  2
STYLE
 70
     2
  0
STYLE
  2
STANDARD
 70
     0
 40
0.0
 41
1.0
 50
0.0
 71
     0
 42
0.2
  3
SIMPLEX
  4
BIGFONT
  0
STYLE
  2
STANDARD1
 70
     0
 40
0.0
 41
1.0
 50
0.0
 71
     0
 42
3.0
  3
txt
  4

  0
ENDTAB
  0
TABLE
  2
VIEW
 70
     0
  0
ENDTAB
  0
TABLE
  2
UCS
 70
     0
  0
ENDTAB
  0
TABLE
  2
APPID
 70
    39
  0
APPID
  2
ACAD
 70
     0
  0
APPID
  2
GENIUS_GENOBJ_13
 70
     0
  0
APPID
  2
GENIUS_GENODEF_13
 70
     0
  0
APPID
  2
GENIUS_GENOENT_13
 70
     0
  0
APPID
  2
GENIUS_GENOLIS_13
 70
     0
  0
APPID
  2
GENIUS_GENOREF_13
 70
     0
  0
APPID
  2
GENIUS_GENOBJ-N-TIT_13
 70
     0
  0
APPID
  2
GENIUS_GENTITLE_13
 70
     0
  0
APPID
  2
GENIUS_GENZVEED_13
 70
     0
  0
APPID
  2
GENIUS_GENOBJ-N-FIL_13
 70
     0
  0
APPID
  2
GENIUS_GENOBJ-N-CRS_13
 70
     0
  0
APPID
  2
GENIUS_GEFINERT_13
 70
     0
  0
APPID
  2
GENIUS_GENOBJ-F-INER_13
 70
     0
  0
APPID
  2
GENIUS_GENOBJ-N-ZOO_13
 70
     0
  0
APPID
  2
GENIUS_GENZOO_13
 70
     0
  0
APPID
  2
GENIUS_GENOBJ-F-TOL_13
 70
     0
  0
APPID
  2
GENIUS_GENOBJ-N-RSSYM_13
 70
     0
  0
APPID
  2
GENIUS_GENSYMENT_13
 70
     0
  0
APPID
  2
GENIUS_GENBH_13
 70
     0
  0
APPID
  2
GENIUS_GENOBJ-NBEHI-BHF_13
 70
     0
  0
APPID
  2
GENIUS_GENOBJ-NBEHI-BHB_13
 70
     0
  0
APPID
  2
GENIUS_GENOBJ-F-PART_13
 70
     0
  0
APPID
  2
GENIUS_GEFSTDP_13
 70
     0
  0
APPID
  2
GENIUS_GENOBJ-N-LEADER_13
 70
     0
  0
APPID
  2
GENIUS_GENOBJ-N-REV_13
 70
     0
  0
APPID
  2
GENIUS_GENCFG_13
 70
     0
  0
APPID
  2
GENIUS_GENCFG0_13
 70
     0
  0
APPID
  2
GENIUS_GENCFG1_13
 70
     0
  0
APPID
  2
GENIUS_GENCFG2_13
 70
     0
  0
APPID
  2
GENIUS_GENCFG3_13
 70
     0
  0
APPID
  2
GENIUS_GEVCFG0_13
 70
     0
  0
APPID
  2
GENIUS_GENCFG4_13
 70
     0
  0
APPID
  2
GENIUS_GENOBJ-N-REC_13
 70
     0
  0
APPID
  2
GENIUS_GENFIL_13
 70
     0
  0
APPID
  2
GENIUS_GENOBJ-N-CHA_13
 70
     0
  0
APPID
  2
GENIUS_GENREC_13
 70
     0
  0
APPID
  2
ACAD_EXEMPT_FROM_CAD_STANDARDS
 70
     0
  0
APPID
  2
ACAD_MLEADERVER
 70
     0
  0
APPID
  2
ACAD_NAV_VCDISPLAY
 70
     0
  0
ENDTAB
  0
TABLE
  2
DIMSTYLE
 70
     1
  0
DIMSTYLE
  2
STANDARD
 70
     0
  3

  4

  5

  6

  7

 40
1.0
 41
0.18
 42
0.0625
 43
0.38
 44
0.18
 45
0.0
 46
0.0
 47
0.0
 48
0.0
140
0.18
141
0.09
142
0.0
143
25.399999999999999
144
1.0
145
0.0
146
1.0
147
0.09
 71
     0
 72
     0
 73
     1
 74
     1
 75
     0
 76
     0
 77
     0
 78
     0
170
     0
171
     2
172
     0
173
     0
174
     0
175
     0
176
     0
177
     0
178
     0
  0
ENDTAB
  0
ENDSEC
  0
SECTION
  2
BLOCKS
  0
BLOCK
  8
0
  2
$MODEL_SPACE
 70
     0
 10
0.0
 20
0.0
 30
0.0
  3
$MODEL_SPACE
  1

  0
ENDBLK
  5
17930
  8
0
  0
BLOCK
 67
     1
  8
0
  2
$PAPER_SPACE
 70
     0
 10
0.0
 20
0.0
 30
0.0
  3
$PAPER_SPACE
  1

  0
ENDBLK
  5
1792E
 67
     1
  8
0
  0
ENDSEC
  0
SECTION
  2
ENTITIES
  0
LINE
  5
17085
  8
0
 10
50.868375600322778
 20
61.56865766637366
 30
0.0
 11
100.86837560032281
 21
61.56865766637366
 31
0.0
  0
LINE
  5
17086
  8
0
 10
52.455637256043339
 20
71.568661163517945
 30
0.0
 11
99.281113944602794
 21
71.568661163517888
 31
0.0
  0
LINE
  5
17087
  8
0
 10
75.768356967833654
 20
75.998341169656953
 30
0.0
 11
75.968394232811477
 21
75.998341169656953
 31
0.0
  0
ARC
  5
17088
  8
0
 10
76.968394232811477
 20
80.068657666373724
 30
0.0
 40
1.0
 50
89.999999999999801
 51
179.9999999999998
1001
GENIUS_GENODEF_13
1002
{
1000
HIER
1070
     0
1002
}
1002
{
1000
MANEDIT
1070
     0
1002
}
1002
{
1000
NOSEL
1070
     0
1002
}
1002
{
1000
BEHIND
1070
     0
1002
}
1002
{
1000
REACTOR
1002
}
1001
GENIUS_GENOBJ-N-FIL_13
1002
{
1000
OWNER
1000
GEN
1002
}
  0
ARC
  5
17089
  8
0
 10
74.768356464206093
 20
80.068657666373653
 30
0.0
 40
1.0
 50
0.0000070897760689
 51
89.999999999999801
1001
GENIUS_GENODEF_13
1002
{
1000
HIER
1070
     0
1002
}
1002
{
1000
MANEDIT
1070
     0
1002
}
1002
{
1000
NOSEL
1070
     0
1002
}
1002
{
1000
BEHIND
1070
     0
1002
}
1002
{
1000
REACTOR
1002
}
1001
GENIUS_GENOBJ-N-FIL_13
1002
{
1000
OWNER
1000
GEN
1002
}
  0
LINE
  5
1708A
  8
2
 10
138.11797423377391
 20
65.068661163517802
 30
0.0
 11
148.11793823377391
 21
65.068661163517802
 31
0.0
  0
LINE
  5
1708D
  8
1
 10
128.117938233769
 20
136.06821160054531
 30
0.0
 11
203.617938233769
 21
136.06821160054531
 31
0.0
  0
LINE
  5
1708E
  8
0
 10
132.61817523376581
 20
161.06819760054529
 30
0.0
 11
153.368026233769
 21
161.06819760054529
 31
0.0
  0
LINE
  5
1708F
  8
0
 10
132.61817523360639
 20
111.0681877321221
 30
0.0
 11
173.3678742336096
 21
111.0681877321221
 31
0.0
  0
LINE
  5
17090
  8
0
 10
131.11793823376891
 20
61.568663499800948
 30
0.0
 11
161.45476523376891
 21
61.56865766637366
 31
0.0
  0
CIRCLE
  5
17092
  8
0
 10
143.11793823377391
 20
151.06821160054531
 30
0.0
 40
5.0
  0
CIRCLE
  5
17093
  8
0
 10
143.11793823377391
 20
121.0682116005453
 30
0.0
 40
5.0
  0
CIRCLE
  5
17097
  8
0
 10
143.11793823377391
 20
121.0682116005453
 30
0.0
 40
3.25
  0
CIRCLE
  5
17099
  8
0
 10
143.11793823377391
 20
151.06821160054531
 30
0.0
 40
3.25
  0
LINE
  5
17474
  8
1
 10
143.11793823377391
 20
60.068657666373667
 30
0.0
 11
143.11793823377391
 21
73.068586666373676
 31
0.0
  0
LINE
  5
17477
  8
2
 10
139.86795923377389
 20
61.56865766637366
 30
0.0
 11
139.86795923377389
 21
65.068661783343956
 31
0.0
  0
LINE
  5
17478
  8
2
 10
146.3679172337738
 20
61.56865766637366
 30
0.0
 11
146.3679172337738
 21
65.068660543691664
 31
0.0
  0
LINE
  5
1747A
  8
3
 10
176.32013623376901
 20
124.4504506005453
 30
0.0
 11
176.32013623376901
 21
135.0965486005453
 31
0.0
  0
LINE
  5
1747C
  8
1
 10
165.86793823376891
 20
164.0682266005453
 30
0.0
 11
165.86793823376891
 21
108.0681877321221
 31
0.0
  0
ARC
  5
1747D
  8
0
 10
156.368005233769
 20
124.9682906005453
 30
0.0
 40
1.4999679999999991
 50
180.0
 51
270.0
  0
LINE
  5
1747E
  8
0
 10
200.617938233769
 20
159.56807460054529
 30
0.0
 11
200.617938233769
 21
112.5684086005453
 31
0.0
  0
ARC
  5
1747F
  8
0
 10
158.36800123376901
 20
125.16832960054531
 30
0.0
 40
1.5
 50
180.0
 51
270.0
1001
GENIUS_GENODEF_13
1002
{
1000
HIER
1070
     0
1002
}
1002
{
1000
MANEDIT
1070
     0
1002
}
1002
{
1000
NOSEL
1070
     0
1002
}
1002
{
1000
BEHIND
1070
     0
1002
}
1002
{
1000
REACTOR
1002
}
1001
GENIUS_GENOBJ-N-FIL_13
1002
{
1000
OWNER
1000
GEN
1002
}
  0
CIRCLE
  5
17480
  8
0
 10
188.61793823376891
 20
121.0682116005453
 30
0.0
 40
5.0
  0
LINE
  5
17481
  8
0
 10
199.11770023361279
 20
111.0682167321221
 30
0.0
 11
178.3678492336096
 21
111.0682167321221
 31
0.0
  0
LINE
  5
17482
  8
0
 10
175.36787023376891
 20
123.66832960054531
 30
0.0
 11
158.36800123376901
 21
123.66832960054531
 31
0.0
  0
LINE
  5
17483
  8
0
 10
156.368005233769
 20
123.4683016005454
 30
0.0
 11
173.36787423376899
 21
123.4683016005454
 31
0.0
  0
LINE
  5
17484
  8
3
 10
155.41573923376899
 20
122.4015206005454
 30
0.0
 11
155.41573923376899
 21
111.8320066005453
 31
0.0
  0
LINE
  5
17486
  8
0
 10
174.86787423376899
 20
121.9683016005453
 30
0.0
 11
174.86787423376899
 21
112.5683896005453
 31
0.0
  0
LINE
  5
17487
  8
0
 10
176.86786023376899
 20
112.5684086005453
 30
0.0
 11
176.86786023376899
 21
122.16833960054539
 31
0.0
  0
ARC
  5
17488
  8
0
 10
178.3678492336096
 20
112.56820673212211
 30
0.0
 40
1.4999679999999991
 50
180.0
 51
270.0
  0
ARC
  5
17489
  8
0
 10
173.3678742336096
 20
112.5681877321221
 30
0.0
 40
1.5
 50
270.0
 51
0.0
1001
GENIUS_GENODEF_13
1002
{
1000
HIER
1070
     0
1002
}
1002
{
1000
MANEDIT
1070
     0
1002
}
1002
{
1000
NOSEL
1070
     0
1002
}
1002
{
1000
BEHIND
1070
     0
1002
}
1002
{
1000
REACTOR
1002
}
1001
GENIUS_GENOBJ-N-FIL_13
1002
{
1000
OWNER
1000
GEN
1002
}
  0
ARC
  5
1748A
  8
0
 10
175.36787023376891
 20
122.16833960054539
 30
0.0
 40
1.4999679999999991
 50
0.0
 51
90.0
  0
ARC
  5
1748B
  8
0
 10
173.36787423376899
 20
121.9683016005453
 30
0.0
 40
1.5
 50
0.0
 51
90.0
1001
GENIUS_GENODEF_13
1002
{
1000
HIER
1070
     0
1002
}
1002
{
1000
MANEDIT
1070
     0
1002
}
1002
{
1000
NOSEL
1070
     0
1002
}
1002
{
1000
BEHIND
1070
     0
1002
}
1002
{
1000
REACTOR
1002
}
1001
GENIUS_GENOBJ-N-FIL_13
1002
{
1000
OWNER
1000
GEN
1002
}
  0
CIRCLE
  5
1748C
  8
0
 10
188.61793823376891
 20
121.0682116005453
 30
0.0
 40
3.25
  0
ARC
  5
1748D
  8
0
 10
199.11791165196379
 20
112.56822229894949
 30
0.0
 40
1.5000055817265101
 50
269.99192444387319
 51
359.99940539320733
  0
LINE
  5
17498
  8
0
 10
199.1177002337721
 20
161.0682266005453
 30
0.0
 11
158.36800123376901
 21
161.0682266005453
 31
0.0
  0
LINE
  5
17499
  8
0
 10
200.617938233769
 20
61.56865766637366
 30
0.0
 11
170.28111023376891
 21
61.56865766637366
 31
0.0
  0
LINE
  5
1749B
  8
0
 10
175.36787023376891
 20
135.9682416005453
 30
0.0
 11
158.36800123376901
 21
135.9682416005453
 31
0.0
  0
LINE
  5
1749C
  8
0
 10
156.368005233769
 20
136.16821160054531
 30
0.0
 11
173.3678742337689
 21
136.16821160054531
 31
0.0
  0
LINE
  5
1749D
  8
0
 10
156.368005233769
 20
148.46812360054531
 30
0.0
 11
173.36787423376899
 21
148.46812360054531
 31
0.0
  0
LINE
  5
1749E
  8
0
 10
175.36787023376891
 20
148.66815160054529
 30
0.0
 11
158.36800123376901
 21
148.66815160054529
 31
0.0
  0
ARC
  5
1749F
  8
0
 10
156.368005233769
 20
149.96811360054531
 30
0.0
 40
1.4999679999999991
 50
180.0
 51
270.0
  0
ARC
  5
174A0
  8
0
 10
158.36800123376901
 20
150.16815160054529
 30
0.0
 40
1.5
 50
180.0
 51
270.0
1001
GENIUS_GENODEF_13
1002
{
1000
HIER
1070
     0
1002
}
1002
{
1000
MANEDIT
1070
     0
1002
}
1002
{
1000
NOSEL
1070
     0
1002
}
1002
{
1000
BEHIND
1070
     0
1002
}
1002
{
1000
REACTOR
1002
}
1001
GENIUS_GENOBJ-N-FIL_13
1002
{
1000
OWNER
1000
GEN
1002
}
  0
LINE
  5
174A1
  8
0
 10
154.868015233769
 20
134.66822160054531
 30
0.0
 11
154.868015233769
 21
124.9682906005453
 31
0.0
  0
LINE
  5
174A2
  8
0
 10
156.86800123376901
 20
125.16832960054531
 30
0.0
 11
156.86800123376901
 21
134.4682416005453
 31
0.0
  0
ARC
  5
174A3
  8
0
 10
156.368005233769
 20
134.66822160054531
 30
0.0
 40
1.4999679999999991
 50
90.0
 51
180.0
  0
ARC
  5
174A4
  8
0
 10
158.36800123376901
 20
134.4682416005453
 30
0.0
 40
1.5
 50
90.0
 51
180.0
1001
GENIUS_GENODEF_13
1002
{
1000
HIER
1070
     0
1002
}
1002
{
1000
MANEDIT
1070
     0
1002
}
1002
{
1000
NOSEL
1070
     0
1002
}
1002
{
1000
BEHIND
1070
     0
1002
}
1002
{
1000
REACTOR
1002
}
1001
GENIUS_GENOBJ-N-FIL_13
1002
{
1000
OWNER
1000
GEN
1002
}
  0
LINE
  5
174A5
  8
3
 10
155.41573923376899
 20
147.68600260054529
 30
0.0
 11
155.41573923376899
 21
137.0399046005453
 31
0.0
  0
ARC
  5
174A6
  8
0
 10
153.36801138427569
 20
159.5680087506972
 30
0.0
 40
1.500003849921685
 50
0.0013693598160249
 51
89.999432792592685
  0
ARC
  5
174A7
  8
0
 10
158.36800123376901
 20
159.5680636005454
 30
0.0
 40
1.5
 50
90.0
 51
180.0
1001
GENIUS_GENODEF_13
1002
{
1000
HIER
1070
     0
1002
}
1002
{
1000
MANEDIT
1070
     0
1002
}
1002
{
1000
NOSEL
1070
     0
1002
}
1002
{
1000
BEHIND
1070
     0
1002
}
1002
{
1000
REACTOR
1002
}
1001
GENIUS_GENOBJ-N-FIL_13
1002
{
1000
OWNER
1000
GEN
1002
}
  0
LINE
  5
174A8
  8
0
 10
154.868015233769
 20
159.56804460054531
 30
0.0
 11
154.868015233769
 21
149.96811360054531
 31
0.0
  0
LINE
  5
174A9
  8
0
 10
156.86800123376901
 20
150.16815160054529
 30
0.0
 11
156.86800123376901
 21
159.5680636005454
 31
0.0
  0
ARC
  5
174AB
  8
0
 10
175.36787023376891
 20
147.16816260054529
 30
0.0
 40
1.4999679999999991
 50
0.0
 51
90.0
  0
ARC
  5
174AC
  8
0
 10
173.36787423376899
 20
146.96812360054531
 30
0.0
 40
1.5
 50
0.0
 51
90.0
1001
GENIUS_GENODEF_13
1002
{
1000
HIER
1070
     0
1002
}
1002
{
1000
MANEDIT
1070
     0
1002
}
1002
{
1000
NOSEL
1070
     0
1002
}
1002
{
1000
BEHIND
1070
     0
1002
}
1002
{
1000
REACTOR
1002
}
1001
GENIUS_GENOBJ-N-FIL_13
1002
{
1000
OWNER
1000
GEN
1002
}
  0
CIRCLE
  5
174AD
  8
0
 10
188.61793823376891
 20
151.06821160054531
 30
0.0
 40
5.0
  0
CIRCLE
  5
174AE
  8
0
 10
188.61793823376891
 20
151.06821160054531
 30
0.0
 40
3.25
  0
ARC
  5
174AF
  8
0
 10
175.36787023376891
 20
137.46823160054529
 30
0.0
 40
1.4999679999999991
 50
270.0
 51
0.0
  0
ARC
  5
174B0
  8
0
 10
173.3678742337689
 20
137.66821160054531
 30
0.0
 40
1.5
 50
270.0
 51
0.0
1001
GENIUS_GENODEF_13
1002
{
1000
HIER
1070
     0
1002
}
1002
{
1000
MANEDIT
1070
     0
1002
}
1002
{
1000
NOSEL
1070
     0
1002
}
1002
{
1000
BEHIND
1070
     0
1002
}
1002
{
1000
REACTOR
1002
}
1001
GENIUS_GENOBJ-N-FIL_13
1002
{
1000
OWNER
1000
GEN
1002
}
  0
LINE
  5
174B1
  8
0
 10
174.86787423376899
 20
146.96812360054531
 30
0.0
 11
174.8678742337689
 21
137.66821160054531
 31
0.0
  0
LINE
  5
174B2
  8
0
 10
176.86786023376899
 20
137.46823160054529
 30
0.0
 11
176.86786023376899
 21
147.16816260054529
 31
0.0
  0
LINE
  5
1777A
  8
3
 10
176.32013623376901
 20
149.73493260054539
 30
0.0
 11
176.32013623376901
 21
160.3044466005453
 31
0.0
  0
LINE
  5
1777E
  8
2
 10
148.11793823377391
 20
65.068662117095798
 30
0.0
 11
148.11793823377391
 21
71.56866116351793
 31
0.0
  0
LINE
  5
17780
  8
0
 10
161.45476523376891
 20
61.56865766637366
 30
0.0
 11
168.19729223376891
 21
63.375320833834898
 31
0.0
  0
LINE
  5
17781
  8
0
 10
170.28111023376891
 20
61.56865766637366
 30
0.0
 11
165.86793823376891
 21
62.751163666373657
 31
0.0
  0
ARC
  5
17782
  8
0
 10
155.41577541146631
 20
73.068480321903422
 30
0.0
 40
1.499872958016772
 50
269.52539517145618
 51
354.5382874664428
  0
LINE
  5
17786
  8
1
 10
188.61793823376891
 20
60.068657666373682
 30
0.0
 11
188.61793823376891
 21
73.068586666373676
 31
0.0
  0
LINE
  5
17787
  8
0
 10
176.86786023376891
 20
61.56865766637366
 30
0.0
 11
177.0166842337689
 21
70.094775666373664
 31
0.0
  0
ARC
  5
1778B
  8
0
 10
178.516613671295
 20
70.068525299901438
 30
0.0
 40
1.5001376764473471
 50
90.006433248425452
 51
178.99734875470031
  0
ARC
  5
1778C
  8
0
 10
176.32009984241159
 20
73.068481521084038
 30
0.0
 40
1.4998738551518329
 50
185.4615828181002
 51
270.0013901643631
  0
ARC
  5
17896
  8
0
 10
199.1178985130216
 20
159.5681868886997
 30
0.0
 40
1.500039724950132
 50
359.99571102202418
 51
90.007573508888299
  0
ARC
  5
17898
  8
0
 10
52.455637256043339
 20
70.068661163519394
 30
0.0
 40
1.5
 50
89.999999999996319
 51
179.41234464977049
1001
GENIUS_GENODEF_13
1002
{
1000
HIER
1070
     0
1002
}
1002
{
1000
MANEDIT
1070
     0
1002
}
1002
{
1000
NOSEL
1070
     0
1002
}
1002
{
1000
BEHIND
1070
     0
1002
}
1002
{
1000
REACTOR
1002
}
1001
GENIUS_GENOBJ-N-FIL_13
1002
{
1000
OWNER
1000
GEN
1002
}
  0
LINE
  5
17899
  8
0
 10
200.617938233769
 20
64.568636666373664
 30
0.0
 11
199.60197023377211
 21
70.329067666373675
 31
0.0
  0
LINE
  5
1789A
  8
0
 10
200.617938233769
 20
61.56865766637366
 30
0.0
 11
200.617938233769
 21
64.568636666373664
 31
0.0
  0
ARC
  5
1789B
  8
0
 10
198.124584814716
 20
70.068491191982005
 30
0.0
 40
1.5001681081682869
 50
10.00278169526846
 51
89.99295649964921
  0
LINE
  5
1789E
  8
1
 10
60.868375600322743
 20
60.068657666373667
 30
0.0
 11
60.868375600322743
 21
73.068586666374586
 31
0.0
  0
LINE
  5
1789F
  8
1
 10
75.868375600322551
 20
84.068389600545757
 30
0.0
 11
75.868375600322494
 21
58.56865766637366
 31
0.0
  0
LINE
  5
178A0
  8
0
 10
50.868375600322807
 20
61.568657666375259
 30
0.0
 11
51.058230336129853
 21
80.078914007280034
 31
0.0
  0
ARC
  5
178A6
  8
0
 10
62.268435600323471
 20
80.068657666374577
 30
0.0
 40
1.0
 50
359.99999999999648
 51
89.999999999996533
1001
GENIUS_GENODEF_13
1002
{
1000
HIER
1070
     0
1002
}
1002
{
1000
MANEDIT
1070
     0
1002
}
1002
{
1000
NOSEL
1070
     0
1002
}
1002
{
1000
BEHIND
1070
     0
1002
}
1002
{
1000
REACTOR
1002
}
1001
GENIUS_GENOBJ-N-FIL_13
1002
{
1000
OWNER
1000
GEN
1002
}
  0
ARC
  5
178A7
  8
0
 10
64.468473368928855
 20
80.068657666374364
 30
0.0
 40
1.0
 50
89.999999999996533
 51
179.99999291022019
1001
GENIUS_GENODEF_13
1002
{
1000
HIER
1070
     0
1002
}
1002
{
1000
MANEDIT
1070
     0
1002
}
1002
{
1000
NOSEL
1070
     0
1002
}
1002
{
1000
BEHIND
1070
     0
1002
}
1002
{
1000
REACTOR
1002
}
1001
GENIUS_GENOBJ-N-FIL_13
1002
{
1000
OWNER
1000
GEN
1002
}
  0
LINE
  5
178A8
  8
0
 10
63.26843560032296
 20
71.568586666374472
 30
0.0
 11
63.2684356003235
 21
80.068657666374492
 31
0.0
  0
LINE
  5
178A9
  8
0
 10
52.058177738482257
 20
81.068657666375174
 30
0.0
 11
62.268435600323528
 21
81.068657666374634
 31
0.0
  0
ARC
  5
178AA
  8
0
 10
52.0581777384822
 20
80.068657666375174
 30
0.0
 40
1.0
 50
89.999999999996433
 51
179.41234464977049
1001
GENIUS_GENODEF_13
1002
{
1000
HIER
1070
     0
1002
}
1002
{
1000
MANEDIT
1070
     0
1002
}
1002
{
1000
NOSEL
1070
     0
1002
}
1002
{
1000
BEHIND
1070
     0
1002
}
1002
{
1000
REACTOR
1002
}
1001
GENIUS_GENOBJ-N-FIL_13
1002
{
1000
OWNER
1000
GEN
1002
}
  0
LINE
  5
178AB
  8
0
 10
75.768357515971189
 20
71.568586666373676
 30
0.0
 11
75.768356464206107
 21
80.068657790113605
 31
0.0
  0
LINE
  5
178AC
  8
0
 10
63.468472317163219
 20
71.568586666374443
 30
0.0
 11
63.468473368928869
 21
80.068657790114372
 31
0.0
  0
LINE
  5
178AD
  8
0
 10
64.468473368928926
 20
81.068657666374406
 30
0.0
 11
74.768356967834805
 21
81.068657666373738
 31
0.0
  0
LINE
  5
178B0
  8
1
 10
90.868375600322494
 20
60.068657666373667
 30
0.0
 11
90.868375600322608
 21
73.068586666373633
 31
0.0
  0
LINE
  5
178B1
  8
0
 10
100.86837560032281
 20
61.56865766637366
 30
0.0
 11
100.6785208645169
 21
80.078914007278456
 31
0.0
  0
ARC
  5
178B5
  8
0
 10
89.468315600322768
 20
80.068657666373696
 30
0.0
 40
1.0
 50
89.999999999999801
 51
179.9999999999998
1001
GENIUS_GENODEF_13
1002
{
1000
HIER
1070
     0
1002
}
1002
{
1000
MANEDIT
1070
     0
1002
}
1002
{
1000
NOSEL
1070
     0
1002
}
1002
{
1000
BEHIND
1070
     0
1002
}
1002
{
1000
REACTOR
1002
}
1001
GENIUS_GENOBJ-N-FIL_13
1002
{
1000
OWNER
1000
GEN
1002
}
  0
LINE
  5
178B6
  8
0
 10
88.46831560032274
 20
71.568586666373676
 30
0.0
 11
88.46831560032274
 21
80.068657666373696
 31
0.0
  0
LINE
  5
178B7
  8
0
 10
88.268278883482481
 20
71.568586666373648
 30
0.0
 11
88.268277831717398
 21
80.068657790113576
 31
0.0
  0
LINE
  5
178B8
  8
0
 10
75.968394232811448
 20
71.568586666373704
 30
0.0
 11
75.968394232811477
 21
80.068657666373724
 31
0.0
  0
LINE
  5
178B9
  8
0
 10
87.268277831717398
 20
81.068657666373667
 30
0.0
 11
76.968394232811477
 21
81.068657666373696
 31
0.0
  0
ARC
  5
178BA
  8
0
 10
87.268277831717398
 20
80.068657666373639
 30
0.0
 40
1.0
 50
0.0000070897760689
 51
89.999999999999801
1001
GENIUS_GENODEF_13
1002
{
1000
HIER
1070
     0
1002
}
1002
{
1000
MANEDIT
1070
     0
1002
}
1002
{
1000
NOSEL
1070
     0
1002
}
1002
{
1000
BEHIND
1070
     0
1002
}
1002
{
1000
REACTOR
1002
}
1001
GENIUS_GENOBJ-N-FIL_13
1002
{
1000
OWNER
1000
GEN
1002
}
  0
ARC
  5
178BB
  8
0
 10
99.281113944602794
 20
70.068661163517888
 30
0.0
 40
1.5
 50
0.5876553502258158
 51
90.0
1001
GENIUS_GENODEF_13
1002
{
1000
HIER
1070
     0
1002
}
1002
{
1000
MANEDIT
1070
     0
1002
}
1002
{
1000
NOSEL
1070
     0
1002
}
1002
{
1000
BEHIND
1070
     0
1002
}
1002
{
1000
REACTOR
1002
}
1001
GENIUS_GENOBJ-N-FIL_13
1002
{
1000
OWNER
1000
GEN
1002
}
  0
LINE
  5
178BC
  8
0
 10
99.678573462164621
 20
81.068657666373639
 30
0.0
 11
89.468315600322768
 21
81.068657666373738
 31
0.0
  0
ARC
  5
178BD
  8
0
 10
99.678573462164621
 20
80.068657666373639
 30
0.0
 40
1.0
 50
0.5876553502258158
 51
89.999999999999872
1001
GENIUS_GENODEF_13
1002
{
1000
HIER
1070
     0
1002
}
1002
{
1000
MANEDIT
1070
     0
1002
}
1002
{
1000
NOSEL
1070
     0
1002
}
1002
{
1000
BEHIND
1070
     0
1002
}
1002
{
1000
REACTOR
1002
}
1001
GENIUS_GENOBJ-N-FIL_13
1002
{
1000
OWNER
1000
GEN
1002
}
  0
LINE
  5
178C4
  8
1
 10
195.11793823376891
 20
121.0682116005453
 30
0.0
 11
182.11793823376891
 21
121.0682116005453
 31
0.0
  0
LINE
  5
178C5
  8
1
 10
188.61793823376891
 20
127.5682116005453
 30
0.0
 11
188.61793823376891
 21
114.5682116005453
 31
0.0
  0
LINE
  5
178C8
  8
1
 10
195.11793823376891
 20
151.06821160054531
 30
0.0
 11
182.11793823376891
 21
151.06821160054531
 31
0.0
  0
LINE
  5
178C9
  8
1
 10
188.61793823376891
 20
157.56821160054531
 30
0.0
 11
188.61793823376891
 21
144.56821160054531
 31
0.0
  0
LINE
  5
178CA
  8
1
 10
149.61793823377391
 20
151.06821160054531
 30
0.0
 11
136.61793823377391
 21
151.06821160054531
 31
0.0
  0
LINE
  5
178CB
  8
1
 10
143.11793823377391
 20
157.56821160054531
 30
0.0
 11
143.11793823377391
 21
144.56821160054531
 31
0.0
  0
LINE
  5
178CC
  8
1
 10
149.61793823377391
 20
121.0682116005453
 30
0.0
 11
136.61793823377391
 21
121.0682116005453
 31
0.0
  0
LINE
  5
178CD
  8
1
 10
143.11793823377391
 20
127.5682116005453
 30
0.0
 11
143.11793823377391
 21
114.5682116005453
 31
0.0
  0
LINE
  5
178CE
  8
1
 10
177.86801223376889
 20
72.068582666373686
 30
0.0
 11
153.8678622337689
 21
72.068582666373686
 31
0.0
  0
LINE
  5
178CF
  8
1
 10
165.86793723376891
 20
84.068657666373653
 30
0.0
 11
165.86793723376891
 21
60.068507666373698
 31
0.0
  0
ARC
  5
17982
  8
0
 10
132.61796481525531
 20
112.56822229894949
 30
0.0
 40
1.5000055817265101
 50
180.0005946067927
 51
270.00807555612681
  0
LINE
  5
17983
  8
0
 10
131.11793823376891
 20
159.56807460054529
 30
0.0
 11
131.11793823376891
 21
112.5684086005453
 31
0.0
  0
ARC
  5
17984
  8
0
 10
132.61797795451631
 20
159.5681868886997
 30
0.0
 40
1.50003972495017
 50
89.992426491111686
 51
180.00428897797471
  0
CIRCLE
  5
179F9
  8
0
 10
165.86793723376891
 20
72.068582666373686
 30
0.0
 40
3.0
  0
LINE
  5
17A62
  8
0
 10
133.6111052337483
 20
71.568659288814771
 30
0.0
 11
155.40335148047029
 21
71.568658820481133
 31
0.0
  0
LINE
  5
17A6C
  8
0
 10
178.5164452337136
 20
71.568662966892575
 30
0.0
 11
198.12476923378949
 21
71.568659288814771
 31
0.0
  0
LINE
  5
17ACD
  8
0
 10
176.32013623376889
 20
71.56860766637368
 30
0.0
 11
178.51644523370831
 21
71.568662966892575
 31
0.0
  0
LINE
  5
17AEE
  8
2
 10
138.11793823377391
 20
65.068662117095798
 30
0.0
 11
138.11793823377391
 21
71.56866116351793
 31
0.0
  0
LINE
  5
17AEF
  8
2
 10
183.61793823376891
 20
65.068662117095698
 30
0.0
 11
183.61793823376891
 21
71.568661163517831
 31
0.0
  0
LINE
  5
17AF0
  8
2
 10
193.61793823376891
 20
65.068662117095698
 30
0.0
 11
193.61793823376891
 21
71.568661163517831
 31
0.0
  0
LINE
  5
17AF1
  8
2
 10
191.86791723376891
 20
61.568657666373561
 30
0.0
 11
191.86791723376891
 21
65.068660543691564
 31
0.0
  0
LINE
  5
17AF2
  8
2
 10
185.36795923376889
 20
61.568657666373561
 30
0.0
 11
185.36795923376889
 21
65.068661783343856
 31
0.0
  0
LINE
  5
17AF3
  8
2
 10
183.6179742337689
 20
65.068661163517703
 30
0.0
 11
193.61793823376891
 21
65.068661163517703
 31
0.0
  0
LINE
  5
17AF4
  8
2
 10
55.868375600322778
 20
65.068662117095812
 30
0.0
 11
55.86837560032275
 21
71.56866116351793
 31
0.0
  0
LINE
  5
17AF5
  8
2
 10
65.868375600322722
 20
65.068662117095812
 30
0.0
 11
65.86837560032275
 21
71.56866116351793
 31
0.0
  0
LINE
  5
17AF6
  8
2
 10
64.118354600322689
 20
61.568657666373667
 30
0.0
 11
64.118354600322689
 21
65.068660543691664
 31
0.0
  0
LINE
  5
17AF7
  8
2
 10
57.618396600322761
 20
61.568657666373667
 30
0.0
 11
57.618396600322761
 21
65.06866178334397
 31
0.0
  0
LINE
  5
17AF8
  8
2
 10
55.868411600322752
 20
65.068661163517817
 30
0.0
 11
65.868375600322722
 21
65.068661163517817
 31
0.0
  0
LINE
  5
17AF9
  8
2
 10
85.868411600322503
 20
65.068661163517532
 30
0.0
 11
95.868375600322494
 21
65.068661163517532
 31
0.0
  0
LINE
  5
17AFA
  8
2
 10
87.618396600322512
 20
61.568657666373383
 30
0.0
 11
87.618396600322512
 21
65.068661783343686
 31
0.0
  0
LINE
  5
17AFB
  8
2
 10
94.118354600322448
 20
61.568657666373383
 30
0.0
 11
94.118354600322448
 21
65.068660543691379
 31
0.0
  0
LINE
  5
17AFC
  8
2
 10
95.868375600322494
 20
65.068662117095528
 30
0.0
 11
95.868375600322494
 21
71.568661163517646
 31
0.0
  0
LINE
  5
17AFD
  8
2
 10
85.868375600322537
 20
65.068662117095528
 30
0.0
 11
85.868375600322494
 21
71.568661163517646
 31
0.0
  0
LINE
  5
17B18
  8
0
 10
131.11793623376889
 20
61.56865766637366
 30
0.0
 11
131.11793623376889
 21
64.568636666373664
 31
0.0
  0
LINE
  5
17B19
  8
0
 10
131.11793623376889
 20
64.568636666373664
 30
0.0
 11
132.13390423376569
 21
70.329067666373675
 31
0.0
  0
ARC
  5
17B1A
  8
0
 10
133.6112896528218
 20
70.068491191982005
 30
0.0
 40
1.5001681081682869
 50
90.007043500350775
 51
169.99721830473149
  0
ARC
  5
17B2B
  8
0
 10
165.86793723376891
 20
72.068657666373667
 30
0.0
 40
9.0
 50
284.99989187231722
 51
174.53548115480729
  0
LINE
  5
17D89
  8
3
 10
135.3481542500256
 20
133.73078076652681
 30
0.0
 11
135.3481542500256
 21
132.7927938215268
 31
0.0
  0
LINE
  5
17D8A
  8
3
 10
135.16406334002559
 20
133.7082580565268
 30
0.0
 11
135.16406334002559
 21
132.4282829055268
 31
0.0
  0
ARC
  5
17D8B
  8
3
 10
134.66077356502561
 20
132.86946019152691
 30
0.0
 40
0.978203689
 50
59.035688151000123
 51
214.83817733699939
  0
ARC
  5
17D8C
  8
3
 10
135.75724514902561
 20
133.29532287352691
 30
0.0
 40
0.350649342
 50
0.0
 51
85.000000000000256
  0
LINE
  5
17D8D
  8
3
 10
135.16406334002559
 20
138.83240407652681
 30
0.0
 11
135.16406334002559
 21
139.89821367252679
 31
0.0
  0
LINE
  5
17D8E
  8
3
 10
134.62640102702559
 20
138.83240407652681
 30
0.0
 11
134.62640102702559
 21
139.89821367252679
 31
0.0
  0
ARC
  5
17D8F
  8
3
 10
134.89523218402559
 20
139.53370275652679
 30
0.0
 40
0.4529220670000001
 50
126.40921806899929
 51
180.0
  0
ARC
  5
17D90
  8
3
 10
134.89523218402559
 20
139.53370275652679
 30
0.0
 40
0.4529220670000001
 50
0.0
 51
53.590781931000642
  0
ARC
  5
17D91
  8
3
 10
134.89523218402559
 20
139.53370275652679
 30
0.0
 40
1.2126623080000001
 50
0.0
 51
180.0
  0
LINE
  5
17D92
  8
3
 10
135.78780625302559
 20
133.6446378885268
 30
0.0
 11
135.46355299302559
 21
133.6730063725268
 31
0.0
  0
ARC
  5
17D93
  8
3
 10
135.2130656780256
 20
134.25088699552691
 30
0.0
 40
0.894828813
 50
0.0
 51
140.75318405900131
  0
LINE
  5
17D94
  8
3
 10
134.95995579902561
 20
138.49863784752679
 30
0.0
 11
136.8208814750256
 21
138.49863784752679
 31
0.0
  0
LINE
  5
17D95
  8
3
 10
134.9004981030256
 20
137.6979885275268
 30
0.0
 11
136.8208814750256
 21
137.6979885275268
 31
0.0
  0
LINE
  5
17D96
  8
3
 10
135.3481542500256
 20
135.4502612515268
 30
0.0
 11
136.1078944910256
 21
135.4502612515268
 31
0.0
  0
ARC
  5
17D97
  8
3
 10
134.89523218402559
 20
136.26844304452689
 30
0.0
 40
1.2126623080000001
 50
0.0
 51
180.0
  0
LINE
  5
17D98
  8
3
 10
135.3481542500256
 20
133.91844310352681
 30
0.0
 11
136.1078944910256
 21
133.91844310352681
 31
0.0
  0
LINE
  5
17D99
  8
3
 10
135.33354386102559
 20
138.7155209625268
 30
0.0
 11
136.1078944910256
 21
138.7155209625268
 31
0.0
  0
LINE
  5
17D9A
  8
3
 10
136.8208814750256
 20
137.6979885275268
 30
0.0
 11
136.8208814750256
 21
138.49863784752679
 31
0.0
  0
LINE
  5
17D9B
  8
3
 10
136.1078944910256
 20
135.4502612515268
 30
0.0
 11
136.1078944910256
 21
136.2684430445268
 31
0.0
  0
LINE
  5
17D9C
  8
3
 10
136.1078944910256
 20
134.2508869955268
 30
0.0
 11
136.1078944910256
 21
133.91844310352681
 31
0.0
  0
LINE
  5
17D9D
  8
3
 10
136.1078944910256
 20
138.7155209625268
 30
0.0
 11
136.1078944910256
 21
139.53370275652679
 31
0.0
  0
ARC
  5
17D9E
  8
3
 10
134.5303674000256
 20
134.9123445195269
 30
0.0
 40
0.8477975240000001
 50
180.0
 51
321.30619107899861
  0
LINE
  5
17D9F
  8
3
 10
135.3481542500256
 20
133.91844310352681
 30
0.0
 11
135.3481542500256
 21
134.32753400252679
 31
0.0
  0
LINE
  5
17DA0
  8
3
 10
133.68256987602561
 20
137.15448203652679
 30
0.0
 11
133.68256987602561
 21
138.11876772652681
 31
0.0
  0
ARC
  5
17DA1
  8
3
 10
133.9747776610256
 20
135.80091059352691
 30
0.0
 40
0.292207785
 50
180.0
 51
270.0
  0
LINE
  5
17DA2
  8
3
 10
133.68256987602561
 20
135.80091059352679
 30
0.0
 11
133.68256987602561
 21
136.2684430445268
 31
0.0
  0
LINE
  5
17DA3
  8
3
 10
133.68256987602561
 20
135.26259891452679
 30
0.0
 11
133.68256987602561
 21
134.91234451952681
 31
0.0
  0
ARC
  5
17DA4
  8
3
 10
134.48614128502561
 20
134.84474177652689
 30
0.0
 40
0.043831168
 50
180.0
 51
320.75318405900128
  0
LINE
  5
17DA5
  8
3
 10
135.3481542500256
 20
135.4502612515268
 30
0.0
 11
135.3481542500256
 21
136.2684430445268
 31
0.0
  0
LINE
  5
17DA6
  8
3
 10
135.16406334002559
 20
135.56714436552679
 30
0.0
 11
135.16406334002559
 21
136.63295396052681
 31
0.0
  0
LINE
  5
17DA7
  8
3
 10
134.62640102702559
 20
135.56714436552679
 30
0.0
 11
134.62640102702559
 21
136.63295396052681
 31
0.0
  0
LINE
  5
17DA8
  8
3
 10
134.44231011702561
 20
135.4502612515268
 30
0.0
 11
134.44231011702561
 21
136.2684430445268
 31
0.0
  0
ARC
  5
17DA9
  8
3
 10
134.89523218402559
 20
136.26844304452689
 30
0.0
 40
0.4529220670000001
 50
126.40921806899929
 51
180.0
  0
ARC
  5
17DAA
  8
3
 10
134.35966127502559
 20
135.42104047252681
 30
0.0
 40
0.087662335
 50
19.471220633998492
 51
90.0
  0
LINE
  5
17DAB
  8
3
 10
134.62640102702559
 20
135.56714436552679
 30
0.0
 11
135.16406334002559
 21
135.56714436552679
 31
0.0
  0
LINE
  5
17DAC
  8
3
 10
134.44231011702561
 20
135.26259891452679
 30
0.0
 11
134.44231011702561
 21
134.8447417765268
 31
0.0
  0
ARC
  5
17DAD
  8
3
 10
134.9004981030256
 20
136.06162493252691
 30
0.0
 40
1.6363635959999989
 50
90.0
 51
138.0981078030027
  0
LINE
  5
17DAE
  8
3
 10
133.68256987602561
 20
135.26259891452679
 30
0.0
 11
134.44231011702561
 21
135.26259891452679
 31
0.0
  0
LINE
  5
17DAF
  8
3
 10
133.9747776610256
 20
135.50870280852681
 30
0.0
 11
134.35966127502559
 21
135.50870280852681
 31
0.0
  0
ARC
  5
17DB0
  8
3
 10
135.2604919150256
 20
134.32753400252679
 30
0.0
 40
0.087662335
 50
0.0
 51
141.30619107899849
  0
ARC
  5
17DB1
  8
3
 10
134.89523218402559
 20
136.26844304452689
 30
0.0
 40
0.4529220670000001
 50
0.0
 51
53.590781931000642
  0
ARC
  5
17DB2
  8
3
 10
-135.47883354502559
 20
133.84766388052691
 30
0.0
 40
0.175324671
210
0.0
220
0.0
230
-1.0
 50
270.0
 51
318.18968510400128
  0
LINE
  5
17DB3
  8
3
 10
133.68256987602561
 20
138.99567659252679
 30
0.0
 11
133.68256987602561
 21
139.53370275652679
 31
0.0
  0
ARC
  5
17DB4
  8
3
 10
133.9747776610256
 20
138.99567659252679
 30
0.0
 40
0.292207785
 50
180.0
 51
267.58742227799911
  0
ARC
  5
17DB5
  8
3
 10
134.3594430360256
 20
138.59926261352689
 30
0.0
 40
0.087662335
 50
19.038679716999059
 51
87.587422277999195
  0
LINE
  5
17DB6
  8
3
 10
135.3481542500256
 20
138.7155209625268
 30
0.0
 11
135.3481542500256
 21
139.53370275652679
 31
0.0
  0
LINE
  5
17DB7
  8
3
 10
134.62640102702559
 20
138.83240407652681
 30
0.0
 11
135.16406334002559
 21
138.83240407652681
 31
0.0
  0
LINE
  5
17DB8
  8
3
 10
134.44231011702561
 20
138.62785862752679
 30
0.0
 11
134.44231011702561
 21
139.53370275652679
 31
0.0
  0
LINE
  5
17DB9
  8
3
 10
133.9624771790256
 20
138.70372781652679
 30
0.0
 11
134.3631331810256
 21
138.68684724652681
 31
0.0
  0
ARC
  5
17DBA
  8
3
 10
134.95995579902561
 20
136.16097556752689
 30
0.0
 40
2.3376622799999991
 50
90.0
 51
123.1229402079975
  0
ARC
  5
17DBB
  8
3
 10
134.89523218402559
 20
132.79279382152691
 30
0.0
 40
1.2126623080000001
 50
270.0
 51
0.0
  0
CIRCLE
  5
17DBC
  8
3
 10
135.92424982002561
 20
131.6105634865269
 30
0.0
 40
0.131493503
  0
LINE
  5
17DBD
  8
3
 10
136.1078944910256
 20
133.2953228735268
 30
0.0
 11
136.1078944910256
 21
132.7927938215268
 31
0.0
  0
LINE
  5
17DBE
  8
3
 10
134.1501023320256
 20
131.58013151352679
 30
0.0
 11
134.89523218402559
 21
131.58013151352679
 31
0.0
  0
ARC
  5
17DBF
  8
3
 10
134.1501023320256
 20
130.9957159435269
 30
0.0
 40
0.58441557
 50
90.0
 51
143.1301023539996
  0
ARC
  5
17DC0
  8
3
 10
134.01603743602561
 20
131.9976880585269
 30
0.0
 40
0.350649342
 50
116.80786761499979
 51
161.98954309499911
  0
LINE
  5
17DC1
  8
3
 10
134.7082191850256
 20
133.17404613852679
 30
0.0
 11
134.7082191850256
 21
132.36909253352681
 31
0.0
  0
LINE
  5
17DC2
  8
3
 10
134.44523217802561
 20
132.9695006895268
 30
0.0
 11
134.44523217802561
 21
132.85717576052679
 31
0.0
  0
ARC
  5
17DC3
  8
3
 10
-135.02964774802561
 20
132.85717576052679
 30
0.0
 40
0.58441557
210
0.0
220
0.0
230
-1.0
 50
303.36701296899793
 51
0.0
  0
ARC
  5
17DC4
  8
3
 10
-134.67899840602561
 20
132.96950068952691
 30
0.0
 40
0.233766228
210
0.0
220
0.0
230
-1.0
 50
0.0
 51
90.0
  0
ARC
  5
17DC5
  8
3
 10
-134.67899840602561
 20
133.1740461385269
 30
0.0
 40
0.029220778
210
0.0
220
0.0
230
-1.0
 50
90.0
 51
180.0
  0
LINE
  5
17DC6
  8
3
 10
133.68256987602561
 20
132.10610552652679
 30
0.0
 11
133.68256987602561
 21
131.34636528552679
 31
0.0
  0
ARC
  5
17DC7
  8
3
 10
134.89523218402559
 20
132.79279382152691
 30
0.0
 40
0.4529220670000001
 50
306.40921806899928
 51
0.0
  0
LINE
  5
17DC9
  8
3
 10
196.38772221751239
 20
138.40567243456391
 30
0.0
 11
196.38772221751239
 21
139.34365937956389
 31
0.0
  0
LINE
  5
17DCA
  8
3
 10
196.5718131275124
 20
138.42819514456389
 30
0.0
 11
196.5718131275124
 21
139.7081702955638
 31
0.0
  0
ARC
  5
17DCB
  8
3
 10
197.0751029025123
 20
139.26699300956381
 30
0.0
 40
0.978203689
 50
239.03568815099931
 51
34.838177336999813
  0
ARC
  5
17DCC
  8
3
 10
195.9786313185123
 20
138.8411303275638
 30
0.0
 40
0.350649342
 50
180.0
 51
265.00000000000023
  0
LINE
  5
17DCD
  8
3
 10
196.5718131275124
 20
133.3040491245639
 30
0.0
 11
196.5718131275124
 21
132.23823952856389
 31
0.0
  0
LINE
  5
17DCE
  8
3
 10
197.10947544051231
 20
133.3040491245639
 30
0.0
 11
197.10947544051231
 21
132.23823952856389
 31
0.0
  0
ARC
  5
17DCF
  8
3
 10
196.8406442835124
 20
132.60275044456381
 30
0.0
 40
0.4529220670000001
 50
306.4092180689982
 51
0.0
  0
ARC
  5
17DD0
  8
3
 10
196.8406442835124
 20
132.60275044456381
 30
0.0
 40
0.4529220670000001
 50
180.0
 51
233.59078193100149
  0
ARC
  5
17DD1
  8
3
 10
196.8406442835124
 20
132.60275044456381
 30
0.0
 40
1.2126623080000001
 50
180.0
 51
0.0
  0
LINE
  5
17DD2
  8
3
 10
195.94807021451231
 20
138.49181531256389
 30
0.0
 11
196.2723234745124
 21
138.46344682856389
 31
0.0
  0
ARC
  5
17DD3
  8
3
 10
196.52281078951231
 20
137.8855662055638
 30
0.0
 40
0.894828813
 50
180.0
 51
320.75318405900128
  0
LINE
  5
17DD4
  8
3
 10
196.77592066851241
 20
133.63781535356381
 30
0.0
 11
194.91499499251239
 21
133.63781535356381
 31
0.0
  0
LINE
  5
17DD5
  8
3
 10
196.83537836451239
 20
134.43846467356391
 30
0.0
 11
194.91499499251239
 21
134.43846467356391
 31
0.0
  0
LINE
  5
17DD6
  8
3
 10
196.38772221751239
 20
136.68619194956389
 30
0.0
 11
195.6279819765123
 21
136.68619194956389
 31
0.0
  0
ARC
  5
17DD7
  8
3
 10
196.8406442835124
 20
135.8680101565638
 30
0.0
 40
1.2126623080000001
 50
180.0
 51
0.0
  0
LINE
  5
17DD8
  8
3
 10
196.38772221751239
 20
138.2180100975639
 30
0.0
 11
195.6279819765123
 21
138.2180100975639
 31
0.0
  0
LINE
  5
17DD9
  8
3
 10
196.4023326065124
 20
133.42093223856389
 30
0.0
 11
195.6279819765123
 21
133.42093223856389
 31
0.0
  0
LINE
  5
17DDA
  8
3
 10
194.91499499251239
 20
134.43846467356391
 30
0.0
 11
194.91499499251239
 21
133.63781535356381
 31
0.0
  0
LINE
  5
17DDB
  8
3
 10
195.6279819765123
 20
136.68619194956389
 30
0.0
 11
195.6279819765123
 21
135.86801015656391
 31
0.0
  0
LINE
  5
17DDC
  8
3
 10
195.6279819765123
 20
137.88556620556389
 30
0.0
 11
195.6279819765123
 21
138.2180100975639
 31
0.0
  0
LINE
  5
17DDD
  8
3
 10
195.6279819765123
 20
133.42093223856389
 30
0.0
 11
195.6279819765123
 21
132.6027504445639
 31
0.0
  0
ARC
  5
17DDE
  8
3
 10
197.20550906751239
 20
137.22410868156379
 30
0.0
 40
0.8477975240000001
 50
0.0
 51
141.30619107899841
  0
LINE
  5
17DDF
  8
3
 10
196.38772221751239
 20
138.2180100975639
 30
0.0
 11
196.38772221751239
 21
137.8089191985639
 31
0.0
  0
LINE
  5
17DE0
  8
3
 10
198.05330659151241
 20
134.9819711645639
 30
0.0
 11
198.05330659151241
 21
134.01768547456379
 31
0.0
  0
ARC
  5
17DE1
  8
3
 10
197.76109880651231
 20
136.33554260756381
 30
0.0
 40
0.292207785
 50
0.0
 51
90.0
  0
LINE
  5
17DE2
  8
3
 10
198.05330659151241
 20
136.33554260756389
 30
0.0
 11
198.05330659151241
 21
135.86801015656391
 31
0.0
  0
LINE
  5
17DE3
  8
3
 10
198.05330659151241
 20
136.8738542865639
 30
0.0
 11
198.05330659151241
 21
137.22410868156379
 31
0.0
  0
ARC
  5
17DE4
  8
3
 10
197.2497351825123
 20
137.2917114245638
 30
0.0
 40
0.043831168
 50
0.0
 51
140.75318405900131
  0
LINE
  5
17DE5
  8
3
 10
196.38772221751239
 20
136.68619194956389
 30
0.0
 11
196.38772221751239
 21
135.86801015656391
 31
0.0
  0
LINE
  5
17DE6
  8
3
 10
196.5718131275124
 20
136.5693088355639
 30
0.0
 11
196.5718131275124
 21
135.50349924056391
 31
0.0
  0
LINE
  5
17DE7
  8
3
 10
197.10947544051231
 20
136.5693088355639
 30
0.0
 11
197.10947544051231
 21
135.50349924056391
 31
0.0
  0
LINE
  5
17DE8
  8
3
 10
197.29356635051229
 20
136.68619194956389
 30
0.0
 11
197.29356635051229
 21
135.86801015656391
 31
0.0
  0
ARC
  5
17DE9
  8
3
 10
196.8406442835124
 20
135.8680101565638
 30
0.0
 40
0.4529220670000001
 50
306.4092180689982
 51
0.0
  0
ARC
  5
17DEA
  8
3
 10
197.3762151925124
 20
136.71541272856379
 30
0.0
 40
0.087662335
 50
199.471220633999
 51
270.0
  0
LINE
  5
17DEB
  8
3
 10
197.10947544051231
 20
136.5693088355639
 30
0.0
 11
196.5718131275124
 21
136.5693088355639
 31
0.0
  0
LINE
  5
17DEC
  8
3
 10
197.29356635051229
 20
136.8738542865639
 30
0.0
 11
197.29356635051229
 21
137.29171142456391
 31
0.0
  0
ARC
  5
17DED
  8
3
 10
196.83537836451239
 20
136.07482826856381
 30
0.0
 40
1.6363635959999989
 50
270.0
 51
318.09810780300148
  0
LINE
  5
17DEE
  8
3
 10
198.05330659151241
 20
136.8738542865639
 30
0.0
 11
197.29356635051229
 21
136.8738542865639
 31
0.0
  0
LINE
  5
17DEF
  8
3
 10
197.76109880651231
 20
136.6277503925638
 30
0.0
 11
197.3762151925124
 21
136.6277503925638
 31
0.0
  0
ARC
  5
17DF0
  8
3
 10
196.47538455251239
 20
137.8089191985639
 30
0.0
 40
0.087662335
 50
180.0
 51
321.30619107899872
  0
ARC
  5
17DF1
  8
3
 10
196.8406442835124
 20
135.8680101565638
 30
0.0
 40
0.4529220670000001
 50
180.0
 51
233.59078193100149
  0
ARC
  5
17DF2
  8
3
 10
-196.2570429225124
 20
138.28878932056381
 30
0.0
 40
0.175324671
210
0.0
220
0.0
230
-1.0
 50
90.0
 51
138.1896851040014
  0
LINE
  5
17DF3
  8
3
 10
198.05330659151241
 20
133.1407766085639
 30
0.0
 11
198.05330659151241
 21
132.6027504445639
 31
0.0
  0
ARC
  5
17DF4
  8
3
 10
197.76109880651231
 20
133.14077660856381
 30
0.0
 40
0.292207785
 50
0.0
 51
87.587422277999195
  0
ARC
  5
17DF5
  8
3
 10
197.37643343151231
 20
133.5371905875638
 30
0.0
 40
0.087662335
 50
199.03867971699901
 51
267.58742227799911
  0
LINE
  5
17DF6
  8
3
 10
196.38772221751239
 20
133.42093223856389
 30
0.0
 11
196.38772221751239
 21
132.6027504445639
 31
0.0
  0
LINE
  5
17DF7
  8
3
 10
197.10947544051231
 20
133.3040491245639
 30
0.0
 11
196.5718131275124
 21
133.3040491245639
 31
0.0
  0
LINE
  5
17DF8
  8
3
 10
197.29356635051229
 20
133.5085945735639
 30
0.0
 11
197.29356635051229
 21
132.6027504445639
 31
0.0
  0
LINE
  5
17DF9
  8
3
 10
197.77339928851231
 20
133.43272538456389
 30
0.0
 11
197.3727432865123
 21
133.44960595456391
 31
0.0
  0
ARC
  5
17DFA
  8
3
 10
196.77592066851241
 20
135.9754776335638
 30
0.0
 40
2.3376622799999991
 50
270.0
 51
303.12294020799737
  0
ARC
  5
17DFB
  8
3
 10
196.8406442835124
 20
139.3436593795638
 30
0.0
 40
1.2126623080000001
 50
90.0
 51
180.0
  0
CIRCLE
  5
17DFC
  8
3
 10
195.81162664751241
 20
140.52588971456379
 30
0.0
 40
0.131493503
  0
LINE
  5
17DFD
  8
3
 10
195.6279819765123
 20
138.84113032756389
 30
0.0
 11
195.6279819765123
 21
139.34365937956389
 31
0.0
  0
LINE
  5
17DFE
  8
3
 10
197.58577413551239
 20
140.55632168756389
 30
0.0
 11
196.8406442835124
 21
140.55632168756389
 31
0.0
  0
ARC
  5
17DFF
  8
3
 10
197.58577413551239
 20
141.14073725756381
 30
0.0
 40
0.58441557
 50
270.0
 51
323.13010235399958
  0
ARC
  5
17E00
  8
3
 10
197.71983903151229
 20
140.13876514256381
 30
0.0
 40
0.350649342
 50
296.80786761500048
 51
341.98954309499902
  0
LINE
  5
17E01
  8
3
 10
197.02765728251239
 20
138.96240706256381
 30
0.0
 11
197.02765728251239
 21
139.76736066756391
 31
0.0
  0
LINE
  5
17E02
  8
3
 10
197.2906442895123
 20
139.16695251156389
 30
0.0
 11
197.2906442895123
 21
139.2792774405639
 31
0.0
  0
ARC
  5
17E03
  8
3
 10
-196.7062287195123
 20
139.27927744056379
 30
0.0
 40
0.58441557
210
0.0
220
0.0
230
-1.0
 50
123.36701296899869
 51
180.0
  0
ARC
  5
17E04
  8
3
 10
-197.05687806151229
 20
139.16695251156381
 30
0.0
 40
0.233766228
210
0.0
220
0.0
230
-1.0
 50
180.0
 51
270.0
  0
ARC
  5
17E05
  8
3
 10
-197.05687806151229
 20
138.96240706256381
 30
0.0
 40
0.029220778
210
0.0
220
0.0
230
-1.0
 50
270.0
 51
0.0
  0
LINE
  5
17E06
  8
3
 10
198.05330659151241
 20
140.0303476745639
 30
0.0
 11
198.05330659151241
 21
140.79008791556379
 31
0.0
  0
ARC
  5
17E07
  8
3
 10
196.8406442835124
 20
139.3436593795638
 30
0.0
 40
0.4529220670000001
 50
126.4092180689985
 51
180.0
  0
TEXT
  5
17EF3
  8
0
 62
     3
 10
0.0
 20
0.0
 30
0.0
 40
10.0
  1
EFH7050AHH
  7
STANDARD1
  0
ENDSEC
  0
EOF
