  0
SECTION
  2
HEADER
  9
$ACADVER
  1
AC1009
  9
$INSBASE
 10
0.0
 20
0.0
 30
0.0
  9
$EXTMIN
 10
0.0
 20
-2.960436562073669
 30
0.0
  9
$EXTMAX
 10
282.0
 20
227.09999999999999
 30
0.0
  9
$LIMMIN
 10
0.0
 20
0.0
  9
$LIMMAX
 10
375.0
 20
278.0
  9
$ORTHOMODE
 70
     1
  9
$REGENMODE
 70
     1
  9
$FILLMODE
 70
     1
  9
$QTEXTMODE
 70
     0
  9
$MIRRTEXT
 70
     0
  9
$DRAGMODE
 70
     2
  9
$LTSCALE
 40
5.0
  9
$OSMODE
 70
    37
  9
$ATTMODE
 70
     1
  9
$TEXTSIZE
 40
0.2
  9
$TRACEWID
 40
0.05
  9
$TEXTSTYLE
  7
STANDARD
  9
$CLAYER
  8
0
  9
$CELTYPE
  6
BYLAYER
  9
$CECOLOR
 62
   256
  9
$DIMSCALE
 40
1.0
  9
$DIMASZ
 40
3.0
  9
$DIMEXO
 40
1.0
  9
$DIMDLI
 40
6.0
  9
$DIMRND
 40
0.0
  9
$DIMDLE
 40
0.0
  9
$DIMEXE
 40
1.0
  9
$DIMTP
 40
495.0
  9
$DIMTM
 40
0.0
  9
$DIMTXT
 40
3.0
  9
$DIMCEN
 40
0.0
  9
$DIMTSZ
 40
0.0
  9
$DIMTOL
 70
     0
  9
$DIMLIM
 70
     0
  9
$DIMTIH
 70
     0
  9
$DIMTOH
 70
     0
  9
$DIMSE1
 70
     0
  9
$DIMSE2
 70
     0
  9
$DIMTAD
 70
     1
  9
$DIMZIN
 70
     0
  9
$DIMBLK
  1

  9
$DIMASO
 70
     1
  9
$DIMSHO
 70
     0
  9
$DIMPOST
  1

  9
$DIMAPOST
  1

  9
$DIMALT
 70
     0
  9
$DIMALTD
 70
     2
  9
$DIMALTF
 40
25.399999999999999
  9
$DIMLFAC
 40
1.0
  9
$DIMTOFL
 70
     1
  9
$DIMTVP
 40
0.0
  9
$DIMTIX
 70
     1
  9
$DIMSOXD
 70
     0
  9
$DIMSAH
 70
     0
  9
$DIMBLK1
  1

  9
$DIMBLK2
  1

  9
$DIMSTYLE
  2
STANDARD
  9
$DIMCLRD
 70
     0
  9
$DIMCLRE
 70
     0
  9
$DIMCLRT
 70
     4
  9
$DIMTFAC
 40
1.0
  9
$DIMGAP
 40
1.0
  9
$LUNITS
 70
     2
  9
$LUPREC
 70
     1
  9
$SKETCHINC
 40
0.1
  9
$FILLETRAD
 40
0.0
  9
$AUNITS
 70
     0
  9
$AUPREC
 70
     1
  9
$MENU
  1
C:\R13\WIN\SUPPORT\ACAD-I
  9
$ELEVATION
 40
0.0
  9
$PELEVATION
 40
0.0
  9
$THICKNESS
 40
0.0
  9
$LIMCHECK
 70
     0
  9
$BLIPMODE
 70
     0
  9
$CHAMFERA
 40
0.0
  9
$CHAMFERB
 40
0.0
  9
$SKPOLY
 70
     0
  9
$TDCREATE
 40
2450834.4199027782
  9
$TDUPDATE
 40
2457163.49253147
  9
$TDINDWG
 40
0.2995182176
  9
$TDUSRTIMER
 40
0.2995182176
  9
$USRTIMER
 70
     1
  9
$ANGBASE
 50
0.0
  9
$ANGDIR
 70
     0
  9
$PDMODE
 70
     0
  9
$PDSIZE
 40
0.0
  9
$PLINEWID
 40
0.0
  9
$COORDS
 70
     1
  9
$SPLFRAME
 70
     0
  9
$SPLINETYPE
 70
     6
  9
$SPLINESEGS
 70
     8
  9
$ATTDIA
 70
     0
  9
$ATTREQ
 70
     1
  9
$HANDLING
 70
     1
  9
$HANDSEED
  5
183C3
  9
$SURFTAB1
 70
     6
  9
$SURFTAB2
 70
     6
  9
$SURFTYPE
 70
     6
  9
$SURFU
 70
     6
  9
$SURFV
 70
     6
  9
$UCSNAME
  2

  9
$UCSORG
 10
0.0
 20
0.0
 30
0.0
  9
$UCSXDIR
 10
1.0
 20
0.0
 30
0.0
  9
$UCSYDIR
 10
0.0
 20
1.0
 30
0.0
  9
$PUCSNAME
  2

  9
$PUCSORG
 10
0.0
 20
0.0
 30
0.0
  9
$PUCSXDIR
 10
1.0
 20
0.0
 30
0.0
  9
$PUCSYDIR
 10
0.0
 20
1.0
 30
0.0
  9
$USERI1
 70
     4
  9
$USERI2
 70
     1
  9
$USERI3
 70
     1
  9
$USERI4
 70
     0
  9
$USERI5
 70
     0
  9
$USERR1
 40
1.0
  9
$USERR2
 40
3.0
  9
$USERR3
 40
3.0
  9
$USERR4
 40
3.0
  9
$USERR5
 40
10.0
  9
$WORLDVIEW
 70
     1
  9
$SHADEDGE
 70
     3
  9
$SHADEDIF
 70
    70
  9
$TILEMODE
 70
     1
  9
$MAXACTVP
 70
    16
  9
$PLIMCHECK
 70
     0
  9
$PEXTMIN
 10
1.0000000000000000E+020
 20
1.0000000000000000E+020
 30
1.0000000000000000E+020
  9
$PEXTMAX
 10
-1.0000000000000000E+020
 20
-1.0000000000000000E+020
 30
-1.0000000000000000E+020
  9
$PLIMMIN
 10
0.0
 20
0.0
  9
$PLIMMAX
 10
12.0
 20
9.0
  9
$UNITMODE
 70
     0
  9
$VISRETAIN
 70
     0
  9
$PLINEGEN
 70
     0
  9
$PSLTSCALE
 70
     0
  0
ENDSEC
  0
SECTION
  2
TABLES
  0
TABLE
  2
VPORT
 70
     1
  0
VPORT
  2
*ACTIVE
 70
     0
 10
0.0
 20
0.0
 11
1.0
 21
1.0
 12
326.92307692307691
 22
180.0
 13
0.0
 23
0.0
 14
10.0
 24
10.0
 15
10.0
 25
10.0
 16
0.0
 26
0.0
 36
1.0
 17
0.0
 27
0.0
 37
0.0
 40
360.0
 41
1.816239316239316
 42
50.0
 43
0.0
 44
0.0
 50
0.0
 51
0.0
 71
     0
 72
   100
 73
     1
 74
     0
 75
     0
 76
     0
 77
     0
 78
     0
  0
ENDTAB
  0
TABLE
  2
LTYPE
 70
     4
  0
LTYPE
  2
CONTINUOUS
 70
     0
  3
Solid Line
 72
    65
 73
     0
 40
0.0
  0
LTYPE
  2
CENTER
 70
     0
  3
____ _ ____ _ ____ _ ____ _ ____ _ ____ _ ____
 72
    65
 73
     4
 40
2.0
 49
1.25
 49
-0.25
 49
0.25
 49
-0.25
  0
LTYPE
  2
HIDDEN
 70
     0
  3
__ __ __ __ __ __ __ __ __ __ __ __ __ __ __ __
 72
    65
 73
     2
 40
0.375
 49
0.25
 49
-0.125
  0
LTYPE
  2
PHANTOM2
 70
     0
  3
___ _ _ ___ _ _ ___ _ _ ___ _ _
 72
    65
 73
     6
 40
1.25
 49
0.625
 49
-0.125
 49
0.125
 49
-0.125
 49
0.125
 49
-0.125
  0
ENDTAB
  0
TABLE
  2
LAYER
 70
     4
  0
LAYER
  2
0
 70
     0
 62
     7
  6
CONTINUOUS
  0
LAYER
  2
1
 70
     0
 62
     1
  6
CENTER
  0
LAYER
  2
2
 70
     0
 62
     2
  6
HIDDEN
  0
LAYER
  2
DEFPOINTS
 70
     0
 62
     7
  6
CONTINUOUS
  0
ENDTAB
  0
TABLE
  2
STYLE
 70
     2
  0
STYLE
  2
STANDARD
 70
     0
 40
0.0
 41
1.0
 50
0.0
 71
     0
 42
0.2
  3
SIMPLEX
  4
BIGFONT
  0
STYLE
  2
STANDARD1
 70
     0
 40
0.0
 41
1.0
 50
0.0
 71
     0
 42
3.0
  3
txt
  4

  0
ENDTAB
  0
TABLE
  2
VIEW
 70
     0
  0
ENDTAB
  0
TABLE
  2
UCS
 70
     0
  0
ENDTAB
  0
TABLE
  2
APPID
 70
    41
  0
APPID
  2
ACAD
 70
     0
  0
APPID
  2
GENIUS_GENOBJ_13
 70
     0
  0
APPID
  2
GENIUS_GENODEF_13
 70
     0
  0
APPID
  2
GENIUS_GENOENT_13
 70
     0
  0
APPID
  2
GENIUS_GENOLIS_13
 70
     0
  0
APPID
  2
GENIUS_GENOREF_13
 70
     0
  0
APPID
  2
GENIUS_GENOBJ-N-TIT_13
 70
     0
  0
APPID
  2
GENIUS_GENTITLE_13
 70
     0
  0
APPID
  2
GENIUS_GENZVEED_13
 70
     0
  0
APPID
  2
GENIUS_GENOBJ-N-FIL_13
 70
     0
  0
APPID
  2
GENIUS_GENOBJ-N-CRS_13
 70
     0
  0
APPID
  2
GENIUS_GEFINERT_13
 70
     0
  0
APPID
  2
GENIUS_GENOBJ-F-INER_13
 70
     0
  0
APPID
  2
GENIUS_GENOBJ-N-ZOO_13
 70
     0
  0
APPID
  2
GENIUS_GENZOO_13
 70
     0
  0
APPID
  2
GENIUS_GENOBJ-F-TOL_13
 70
     0
  0
APPID
  2
GENIUS_GENOBJ-N-RSSYM_13
 70
     0
  0
APPID
  2
GENIUS_GENSYMENT_13
 70
     0
  0
APPID
  2
GENIUS_GENBH_13
 70
     0
  0
APPID
  2
GENIUS_GENOBJ-NBEHI-BHF_13
 70
     0
  0
APPID
  2
GENIUS_GENOBJ-NBEHI-BHB_13
 70
     0
  0
APPID
  2
GENIUS_GENOBJ-F-PART_13
 70
     0
  0
APPID
  2
GENIUS_GEFSTDP_13
 70
     0
  0
APPID
  2
GENIUS_GENOBJ-N-LEADER_13
 70
     0
  0
APPID
  2
GENIUS_GENOBJ-N-REV_13
 70
     0
  0
APPID
  2
GENIUS_GENCFG_13
 70
     0
  0
APPID
  2
GENIUS_GENCFG0_13
 70
     0
  0
APPID
  2
GENIUS_GENCFG1_13
 70
     0
  0
APPID
  2
GENIUS_GENCFG2_13
 70
     0
  0
APPID
  2
GENIUS_GENCFG3_13
 70
     0
  0
APPID
  2
GENIUS_GEVCFG0_13
 70
     0
  0
APPID
  2
GENIUS_GENCFG4_13
 70
     0
  0
APPID
  2
GENIUS_GENOBJ-N-REC_13
 70
     0
  0
APPID
  2
GENIUS_GENFIL_13
 70
     0
  0
APPID
  2
GENIUS_GENOBJ-N-CHA_13
 70
     0
  0
APPID
  2
GENIUS_GENREC_13
 70
     0
  0
APPID
  2
ACAD_EXEMPT_FROM_CAD_STANDARDS
 70
     0
  0
APPID
  2
ACAD_MLEADERVER
 70
     0
  0
APPID
  2
ACAD_NAV_VCDISPLAY
 70
     0
  0
APPID
  2
ACAD_DSTYLE_DIMJAG
 70
     0
  0
APPID
  2
ACAD_DSTYLE_DIMTALN
 70
     0
  0
ENDTAB
  0
TABLE
  2
DIMSTYLE
 70
     1
  0
DIMSTYLE
  2
STANDARD
 70
     0
  3

  4

  5

  6

  7

 40
1.0
 41
0.18
 42
0.0625
 43
0.38
 44
0.18
 45
0.0
 46
0.0
 47
0.0
 48
0.0
140
0.18
141
0.09
142
0.0
143
25.399999999999999
144
1.0
145
0.0
146
1.0
147
0.09
 71
     0
 72
     0
 73
     1
 74
     1
 75
     0
 76
     0
 77
     0
 78
     0
170
     0
171
     2
172
     0
173
     0
174
     0
175
     0
176
     0
177
     0
178
     0
  0
ENDTAB
  0
ENDSEC
  0
SECTION
  2
BLOCKS
  0
BLOCK
  8
0
  2
$MODEL_SPACE
 70
     0
 10
0.0
 20
0.0
 30
0.0
  3
$MODEL_SPACE
  1

  0
ENDBLK
  5
17930
  8
0
  0
BLOCK
 67
     1
  8
0
  2
$PAPER_SPACE
 70
     0
 10
0.0
 20
0.0
 30
0.0
  3
$PAPER_SPACE
  1

  0
ENDBLK
  5
1792E
 67
     1
  8
0
  0
ENDSEC
  0
SECTION
  2
ENTITIES
  0
TEXT
  5
17EF3
  8
0
 62
     3
 10
0.0
 20
0.0
 30
0.0
 40
10.0
  1
EFH80102CH6
  7
STANDARD1
  0
LINE
  5
17FF2
  8
1
 10
275.0
 20
207.34999999999999
 30
0.0
 11
258.5
 21
207.34999999999999
 31
0.0
  0
LINE
  5
17FF3
  8
1
 10
266.75
 20
215.59999999999999
 30
0.0
 11
266.75
 21
199.09999999999991
 31
0.0
  0
LINE
  5
17FF4
  8
1
 10
275.0
 20
134.84999999999999
 30
0.0
 11
258.5
 21
134.84999999999999
 31
0.0
  0
LINE
  5
17FF5
  8
1
 10
266.75
 20
143.09999999999999
 30
0.0
 11
266.75
 21
126.59999999999999
 31
0.0
  0
LINE
  5
17FF6
  8
1
 10
242.0
 20
115.09999999999999
 30
0.0
 11
242.0
 21
227.09999999999999
 31
0.0
  0
LINE
  5
17FF7
  8
1
 10
225.5
 20
134.84999999999999
 30
0.0
 11
209.0
 21
134.84999999999999
 31
0.0
  0
LINE
  5
17FF8
  8
1
 10
217.25
 20
143.09999999999999
 30
0.0
 11
217.25
 21
126.59999999999999
 31
0.0
  0
LINE
  5
17FF9
  8
1
 10
225.5
 20
207.34999999999999
 30
0.0
 11
209.0
 21
207.34999999999999
 31
0.0
  0
LINE
  5
17FFA
  8
1
 10
217.25
 20
215.59999999999999
 30
0.0
 11
217.25
 21
199.09999999999991
 31
0.0
  0
LINE
  5
17FFB
  8
0
 10
246.35468014853271
 20
121.42999999999989
 30
0.0
 11
246.35468014853271
 21
120.09999999999999
 31
0.0
  0
LINE
  5
17FFC
  8
0
 10
246.35468014853271
 20
138.0
 30
0.0
 11
246.35468014853271
 21
137.86000000000001
 31
0.0
  0
LINE
  5
17FFD
  8
0
 10
246.35468014853271
 20
154.59
 30
0.0
 11
246.35468014853271
 21
154.43999999999991
 31
0.0
  0
LINE
  5
17FFE
  8
0
 10
246.35468014853271
 20
171.1699999999999
 30
0.0
 11
246.35468014853271
 21
171.02999999999989
 31
0.0
  0
LINE
  5
17FFF
  8
0
 10
246.35468014853271
 20
187.75999999999999
 30
0.0
 11
246.35468014853271
 21
187.6099999999999
 31
0.0
  0
LINE
  5
18000
  8
0
 10
246.35468014853279
 20
204.34
 30
0.0
 11
246.35468014853279
 21
204.19999999999999
 31
0.0
  0
LINE
  5
18001
  8
0
 10
246.35468014853279
 20
222.09999999999999
 30
0.0
 11
246.35468014853279
 21
220.77000000000001
 31
0.0
  0
CIRCLE
  5
18002
  8
0
 10
266.75
 20
134.84999999999999
 30
0.0
 40
3.249999999999996
  0
CIRCLE
  5
18003
  8
0
 10
266.75
 20
207.34999999999999
 30
0.0
 40
3.2500000000000031
  0
LINE
  5
18004
  8
0
 10
282.0
 20
222.09999999999999
 30
0.0
 11
246.35468014853279
 21
222.09999999999999
 31
0.0
  0
LINE
  5
18005
  8
0
 10
282.0
 20
120.09999999999999
 30
0.0
 11
246.35468014853271
 21
120.09999999999999
 31
0.0
  0
LINE
  5
18006
  8
0
 10
282.0
 20
120.09999999999999
 30
0.0
 11
282.0
 21
222.09999999999999
 31
0.0
  0
CIRCLE
  5
1800F
  8
0
 10
266.75
 20
207.34999999999999
 30
0.0
 40
5.2500000000000044
  0
LINE
  5
18010
  8
0
 10
255.8039533528688
 20
120.09999999999999
 30
0.0
 11
255.8039533528688
 21
121.42999999999989
 31
0.0
  0
LINE
  5
18012
  8
0
 10
255.8039533528688
 20
222.09999999999999
 30
0.0
 11
255.8039533528688
 21
204.19999999999999
 31
0.0
  0
LINE
  5
18013
  8
0
 10
255.8039533528688
 20
187.75999999999999
 30
0.0
 11
255.8039533528688
 21
171.02999999999989
 31
0.0
  0
LINE
  5
18014
  8
0
 10
255.8039533528688
 20
154.59
 30
0.0
 11
255.8039533528688
 21
137.86000000000001
 31
0.0
  0
CIRCLE
  5
18015
  8
0
 10
266.75
 20
134.84999999999999
 30
0.0
 40
5.2499999999999973
  0
LINE
  5
18016
  8
0
 10
254.30000000000001
 20
121.42999999999989
 30
0.0
 11
254.30000000000001
 21
137.86000000000001
 31
0.0
  0
LINE
  5
18017
  8
0
 10
254.30000000000001
 20
154.59
 30
0.0
 11
254.30000000000001
 21
171.02999999999989
 31
0.0
  0
LINE
  5
18018
  8
0
 10
254.30000000000001
 20
187.75999999999999
 30
0.0
 11
254.30000000000001
 21
204.19999999999999
 31
0.0
  0
LINE
  5
18019
  8
0
 10
255.8039533528688
 20
121.42999999999989
 30
0.0
 11
234.90000000000001
 21
121.42999999999989
 31
0.0
  0
LINE
  5
1801A
  8
0
 10
255.8039533528688
 20
137.86000000000001
 30
0.0
 11
234.90000000000001
 21
137.86000000000001
 31
0.0
  0
LINE
  5
1801C
  8
0
 10
234.90000000000001
 20
137.86000000000001
 30
0.0
 11
234.90000000000001
 21
121.42999999999989
 31
0.0
  0
LINE
  5
1801D
  8
0
 10
255.8039533528688
 20
171.02999999999989
 30
0.0
 11
234.90000000000001
 21
171.02999999999989
 31
0.0
  0
LINE
  5
1801E
  8
0
 10
255.8039533528688
 20
154.59
 30
0.0
 11
234.90000000000001
 21
154.59
 31
0.0
  0
LINE
  5
18020
  8
0
 10
234.90000000000001
 20
171.02999999999989
 30
0.0
 11
234.90000000000001
 21
154.59
 31
0.0
  0
LINE
  5
18022
  8
0
 10
255.8039533528688
 20
204.19999999999999
 30
0.0
 11
234.90000000000001
 21
204.19999999999999
 31
0.0
  0
LINE
  5
18023
  8
0
 10
255.8039533528688
 20
187.75999999999999
 30
0.0
 11
234.90000000000001
 21
187.75999999999999
 31
0.0
  0
LINE
  5
18024
  8
0
 10
234.90000000000001
 20
204.19999999999999
 30
0.0
 11
234.90000000000001
 21
187.75999999999999
 31
0.0
  0
LINE
  5
18025
  8
0
 10
244.5
 20
220.77000000000001
 30
0.0
 11
244.5
 21
222.09999999999999
 31
0.0
  0
LINE
  5
18026
  8
0
 10
244.5
 20
204.19999999999999
 30
0.0
 11
244.5
 21
204.34
 31
0.0
  0
LINE
  5
18027
  8
0
 10
244.5
 20
187.6099999999999
 30
0.0
 11
244.5
 21
187.75999999999999
 31
0.0
  0
LINE
  5
18028
  8
0
 10
244.5
 20
171.02999999999989
 30
0.0
 11
244.5
 21
171.1699999999999
 31
0.0
  0
LINE
  5
18029
  8
0
 10
244.5
 20
154.43999999999991
 30
0.0
 11
244.5
 21
154.59
 31
0.0
  0
LINE
  5
1802A
  8
0
 10
244.5
 20
137.86000000000001
 30
0.0
 11
244.5
 21
138.0
 31
0.0
  0
LINE
  5
1802B
  8
0
 10
244.5
 20
120.09999999999999
 30
0.0
 11
244.5
 21
121.42999999999989
 31
0.0
  0
LINE
  5
1802C
  8
0
 10
239.5
 20
121.42999999999989
 30
0.0
 11
239.5
 21
120.09999999999999
 31
0.0
  0
LINE
  5
1802D
  8
0
 10
239.5
 20
138.0
 30
0.0
 11
239.5
 21
137.86000000000001
 31
0.0
  0
LINE
  5
1802E
  8
0
 10
239.5
 20
154.59
 30
0.0
 11
239.5
 21
154.43999999999991
 31
0.0
  0
LINE
  5
1802F
  8
0
 10
239.5
 20
171.1699999999999
 30
0.0
 11
239.5
 21
171.02999999999989
 31
0.0
  0
LINE
  5
18030
  8
0
 10
239.5
 20
187.75999999999999
 30
0.0
 11
239.5
 21
187.6099999999999
 31
0.0
  0
LINE
  5
18031
  8
0
 10
239.5
 20
204.34
 30
0.0
 11
239.5
 21
204.19999999999999
 31
0.0
  0
LINE
  5
18032
  8
0
 10
239.5
 20
222.09999999999999
 30
0.0
 11
239.5
 21
220.77000000000001
 31
0.0
  0
LINE
  5
18033
  8
0
 10
244.5
 20
120.09999999999999
 30
0.0
 11
239.5
 21
120.09999999999999
 31
0.0
  0
LINE
  5
18034
  8
0
 10
244.5
 20
222.09999999999999
 30
0.0
 11
239.5
 21
222.09999999999999
 31
0.0
  0
LINE
  5
18035
  8
0
 10
237.64531985146721
 20
137.86000000000001
 30
0.0
 11
237.64531985146721
 21
138.0
 31
0.0
  0
LINE
  5
18036
  8
0
 10
237.64531985146721
 20
120.09999999999999
 30
0.0
 11
237.64531985146721
 21
121.42999999999989
 31
0.0
  0
LINE
  5
18037
  8
0
 10
237.64531985146721
 20
171.02999999999989
 30
0.0
 11
237.64531985146721
 21
171.1699999999999
 31
0.0
  0
LINE
  5
18038
  8
0
 10
237.64531985146721
 20
154.43999999999991
 30
0.0
 11
237.64531985146721
 21
154.59
 31
0.0
  0
LINE
  5
18039
  8
0
 10
237.64531985146721
 20
204.19999999999999
 30
0.0
 11
237.64531985146721
 21
204.34
 31
0.0
  0
LINE
  5
1803A
  8
0
 10
237.64531985146721
 20
187.6099999999999
 30
0.0
 11
237.64531985146721
 21
187.75999999999999
 31
0.0
  0
LINE
  5
1803B
  8
0
 10
237.64531985146721
 20
220.77000000000001
 30
0.0
 11
237.64531985146721
 21
222.09999999999999
 31
0.0
  0
CIRCLE
  5
1803C
  8
0
 10
217.25
 20
134.84999999999999
 30
0.0
 40
3.2500000000000031
  0
CIRCLE
  5
1803D
  8
0
 10
217.25
 20
207.34999999999999
 30
0.0
 40
3.249999999999996
  0
LINE
  5
1803E
  8
0
 10
202.0
 20
222.09999999999999
 30
0.0
 11
237.64531985146721
 21
222.09999999999999
 31
0.0
  0
LINE
  5
1803F
  8
0
 10
202.0
 20
120.09999999999999
 30
0.0
 11
237.64531985146721
 21
120.09999999999999
 31
0.0
  0
LINE
  5
18040
  8
0
 10
202.0
 20
222.09999999999999
 30
0.0
 11
202.0
 21
120.09999999999999
 31
0.0
  0
CIRCLE
  5
18049
  8
0
 10
217.25
 20
134.84999999999999
 30
0.0
 40
5.2500000000000044
  0
LINE
  5
1804A
  8
0
 10
228.1960466471312
 20
222.09999999999999
 30
0.0
 11
228.1960466471312
 21
220.77000000000001
 31
0.0
  0
LINE
  5
1804C
  8
0
 10
228.1960466471312
 20
120.09999999999999
 30
0.0
 11
228.1960466471312
 21
138.0
 31
0.0
  0
LINE
  5
1804D
  8
0
 10
228.1960466471312
 20
154.43999999999991
 30
0.0
 11
228.1960466471312
 21
171.1699999999999
 31
0.0
  0
LINE
  5
1804E
  8
0
 10
228.1960466471312
 20
187.6099999999999
 30
0.0
 11
228.1960466471312
 21
204.34
 31
0.0
  0
CIRCLE
  5
1804F
  8
0
 10
217.25
 20
207.34999999999999
 30
0.0
 40
5.2499999999999973
  0
LINE
  5
18050
  8
0
 10
229.7000000000001
 20
187.6099999999999
 30
0.0
 11
229.7000000000001
 21
171.1699999999999
 31
0.0
  0
LINE
  5
18051
  8
0
 10
229.7000000000001
 20
154.43999999999991
 30
0.0
 11
229.7000000000001
 21
138.0
 31
0.0
  0
LINE
  5
18052
  8
0
 10
229.7000000000001
 20
220.77000000000001
 30
0.0
 11
229.7000000000001
 21
204.34
 31
0.0
  0
LINE
  5
18053
  8
0
 10
228.1960466471312
 20
154.43999999999991
 30
0.0
 11
249.09999999999991
 21
154.43999999999991
 31
0.0
  0
LINE
  5
18055
  8
0
 10
228.1960466471312
 20
138.0
 30
0.0
 11
249.09999999999991
 21
138.0
 31
0.0
  0
LINE
  5
18056
  8
0
 10
249.09999999999991
 20
138.0
 30
0.0
 11
249.09999999999991
 21
154.43999999999991
 31
0.0
  0
LINE
  5
18057
  8
0
 10
228.1960466471312
 20
171.1699999999999
 30
0.0
 11
249.09999999999991
 21
171.1699999999999
 31
0.0
  0
LINE
  5
18058
  8
0
 10
228.1960466471312
 20
187.6099999999999
 30
0.0
 11
249.09999999999991
 21
187.6099999999999
 31
0.0
  0
LINE
  5
1805A
  8
0
 10
249.09999999999991
 20
171.1699999999999
 30
0.0
 11
249.09999999999991
 21
187.6099999999999
 31
0.0
  0
LINE
  5
1805B
  8
0
 10
228.1960466471312
 20
204.34
 30
0.0
 11
249.09999999999999
 21
204.34
 31
0.0
  0
LINE
  5
1805C
  8
0
 10
228.1960466471312
 20
220.77000000000001
 30
0.0
 11
249.09999999999999
 21
220.77000000000001
 31
0.0
  0
LINE
  5
1805E
  8
0
 10
249.09999999999999
 20
204.34
 30
0.0
 11
249.09999999999999
 21
220.77000000000001
 31
0.0
  0
LINE
  5
180E0
  8
2
 10
61.5
 20
56.5
 30
0.0
 11
61.5
 21
50.0
 31
0.0
  0
LINE
  5
180E1
  8
2
 10
68.0
 20
50.0
 30
0.0
 11
68.0
 21
56.5
 31
0.0
  0
LINE
  5
180E2
  8
2
 10
134.0
 20
56.5
 30
0.0
 11
134.0
 21
50.0
 31
0.0
  0
LINE
  5
180E3
  8
2
 10
140.5
 20
50.0
 30
0.0
 11
140.5
 21
56.5
 31
0.0
  0
LINE
  5
180E4
  8
2
 10
70.0
 20
56.5
 30
0.0
 11
59.5
 21
56.5
 31
0.0
  0
LINE
  5
180E5
  8
2
 10
59.5
 20
63.0
 30
0.0
 11
59.5
 21
56.5
 31
0.0
  0
LINE
  5
180E6
  8
2
 10
70.0
 20
56.5
 30
0.0
 11
70.0
 21
63.0
 31
0.0
  0
LINE
  5
180E7
  8
2
 10
142.5
 20
56.5
 30
0.0
 11
132.0
 21
56.5
 31
0.0
  0
LINE
  5
180E8
  8
2
 10
132.0
 20
63.0
 30
0.0
 11
132.0
 21
56.5
 31
0.0
  0
LINE
  5
180E9
  8
2
 10
142.5
 20
56.5
 30
0.0
 11
142.5
 21
63.0
 31
0.0
  0
LINE
  5
1810A
  8
1
 10
137.25
 20
66.0
 30
0.0
 11
137.25
 21
47.0
 31
0.0
  0
LINE
  5
1810B
  8
1
 10
64.75
 20
66.0
 30
0.0
 11
64.75
 21
47.0
 31
0.0
  0
LINE
  5
1810C
  8
0
 10
67.759999999999991
 20
63.0
 30
0.0
 11
67.759999999999991
 21
70.099999999999994
 31
0.0
  0
LINE
  5
1810D
  8
0
 10
51.329999999999991
 20
63.0
 30
0.0
 11
51.329999999999991
 21
70.099999999999994
 31
0.0
  0
LINE
  5
1810E
  8
0
 10
67.759999999999991
 20
70.099999999999994
 30
0.0
 11
51.329999999999991
 21
70.099999999999994
 31
0.0
  0
LINE
  5
1810F
  8
0
 10
100.93000000000001
 20
63.0
 30
0.0
 11
100.93000000000001
 21
70.099999999999994
 31
0.0
  0
LINE
  5
18110
  8
0
 10
84.490000000000009
 20
63.0
 30
0.0
 11
84.490000000000009
 21
70.099999999999994
 31
0.0
  0
LINE
  5
18111
  8
0
 10
100.93000000000001
 20
70.099999999999994
 30
0.0
 11
84.490000000000009
 21
70.099999999999994
 31
0.0
  0
LINE
  5
18112
  8
0
 10
117.66
 20
63.0
 30
0.0
 11
117.66
 21
70.099999999999994
 31
0.0
  0
LINE
  5
18113
  8
0
 10
134.09999999999999
 20
63.0
 30
0.0
 11
134.09999999999999
 21
70.099999999999994
 31
0.0
  0
LINE
  5
18114
  8
0
 10
134.09999999999999
 20
70.099999999999994
 30
0.0
 11
117.66
 21
70.099999999999994
 31
0.0
  0
LINE
  5
18118
  8
0
 10
152.0
 20
50.0
 30
0.0
 11
152.0
 21
63.0
 31
0.0
  0
LINE
  5
18119
  8
0
 10
50.0
 20
50.0
 30
0.0
 11
50.0
 21
63.0
 31
0.0
  0
LINE
  5
1811A
  8
0
 10
50.0
 20
63.0
 30
0.0
 11
152.0
 21
63.0
 31
0.0
  0
LINE
  5
1811C
  8
0
 10
50.0
 20
50.0
 30
0.0
 11
152.0
 21
50.0
 31
0.0
  0
LINE
  5
1811D
  8
0
 10
51.329999999999991
 20
65.5
 30
0.0
 11
50.0
 21
65.5
 31
0.0
  0
LINE
  5
1811E
  8
0
 10
67.899999999999977
 20
65.5
 30
0.0
 11
67.759999999999991
 21
65.5
 31
0.0
  0
LINE
  5
1811F
  8
0
 10
84.490000000000009
 20
65.5
 30
0.0
 11
84.339999999999975
 21
65.5
 31
0.0
  0
LINE
  5
18120
  8
0
 10
101.06999999999999
 20
65.5
 30
0.0
 11
100.93000000000001
 21
65.5
 31
0.0
  0
LINE
  5
18121
  8
0
 10
117.66
 20
65.5
 30
0.0
 11
117.51000000000001
 21
65.5
 31
0.0
  0
LINE
  5
18122
  8
0
 10
134.24000000000001
 20
65.5
 30
0.0
 11
134.09999999999999
 21
65.5
 31
0.0
  0
LINE
  5
18123
  8
0
 10
152.0
 20
65.5
 30
0.0
 11
150.66999999999999
 21
65.5
 31
0.0
  0
LINE
  5
18124
  8
0
 10
50.0
 20
63.0
 30
0.0
 11
50.0
 21
65.5
 31
0.0
  0
LINE
  5
18125
  8
0
 10
152.0
 20
63.0
 30
0.0
 11
152.0
 21
65.5
 31
0.0
  0
LINE
  5
18126
  8
0
 10
84.339999999999975
 20
70.099999999999994
 30
0.0
 11
67.899999999999977
 21
70.099999999999994
 31
0.0
  0
LINE
  5
18127
  8
0
 10
67.899999999999977
 20
70.099999999999994
 30
0.0
 11
67.899999999999977
 21
63.0
 31
0.0
  0
LINE
  5
18128
  8
0
 10
84.339999999999975
 20
70.099999999999994
 30
0.0
 11
84.339999999999975
 21
63.0
 31
0.0
  0
LINE
  5
18129
  8
0
 10
117.51000000000001
 20
70.099999999999994
 30
0.0
 11
101.06999999999999
 21
70.099999999999994
 31
0.0
  0
LINE
  5
1812A
  8
0
 10
101.06999999999999
 20
70.099999999999994
 30
0.0
 11
101.06999999999999
 21
63.0
 31
0.0
  0
LINE
  5
1812B
  8
0
 10
117.51000000000001
 20
70.099999999999994
 30
0.0
 11
117.51000000000001
 21
63.0
 31
0.0
  0
LINE
  5
1812C
  8
0
 10
150.66999999999999
 20
70.099999999999994
 30
0.0
 11
134.24000000000001
 21
70.099999999999994
 31
0.0
  0
LINE
  5
1812D
  8
0
 10
150.66999999999999
 20
70.099999999999994
 30
0.0
 11
150.66999999999999
 21
63.0
 31
0.0
  0
LINE
  5
1812E
  8
0
 10
134.24000000000001
 20
70.099999999999994
 30
0.0
 11
134.24000000000001
 21
63.0
 31
0.0
  0
LINE
  5
18157
  8
2
 10
263.5
 20
56.5
 30
0.0
 11
263.5
 21
50.0
 31
0.0
  0
LINE
  5
18158
  8
2
 10
270.0
 20
50.0
 30
0.0
 11
270.0
 21
56.5
 31
0.0
  0
LINE
  5
18159
  8
2
 10
261.5
 20
63.0
 30
0.0
 11
261.5
 21
56.5
 31
0.0
  0
LINE
  5
1815A
  8
2
 10
272.0
 20
56.5
 30
0.0
 11
272.0
 21
63.0
 31
0.0
  0
LINE
  5
1815B
  8
2
 10
272.0
 20
56.5
 30
0.0
 11
261.5
 21
56.5
 31
0.0
  0
LINE
  5
1815E
  8
2
 10
214.0
 20
56.5
 30
0.0
 11
214.0
 21
50.0
 31
0.0
  0
LINE
  5
1815F
  8
2
 10
220.5
 20
50.0
 30
0.0
 11
220.5
 21
56.5
 31
0.0
  0
LINE
  5
18160
  8
2
 10
222.5
 20
56.5
 30
0.0
 11
212.0
 21
56.5
 31
0.0
  0
LINE
  5
18161
  8
2
 10
212.0
 20
63.0
 30
0.0
 11
212.0
 21
56.5
 31
0.0
  0
LINE
  5
18162
  8
2
 10
222.5
 20
56.5
 30
0.0
 11
222.5
 21
63.0
 31
0.0
  0
LINE
  5
18163
  8
1
 10
266.75
 20
66.0
 30
0.0
 11
266.75
 21
47.0
 31
0.0
  0
LINE
  5
18164
  8
1
 10
231.90000000000001
 20
63.0
 30
0.0
 11
252.09999999999999
 21
63.0
 31
0.0
  0
LINE
  5
18165
  8
1
 10
242.0
 20
52.899999999999999
 30
0.0
 11
242.0
 21
73.099999999999994
 31
0.0
  0
LINE
  5
18166
  8
1
 10
217.25
 20
66.0
 30
0.0
 11
217.25
 21
47.0
 31
0.0
  0
LINE
  5
18167
  8
0
 10
278.64896367218603
 20
63.0
 30
0.0
 11
254.30000000000001
 21
63.0
 31
0.0
  0
LINE
  5
18168
  8
0
 10
254.30000000000001
 20
63.0
 30
0.0
 11
246.09837398373989
 21
68.797700465650536
 31
0.0
  0
ARC
  5
18169
  8
0
 10
242.0
 20
63.0
 30
0.0
 40
7.0999999999999979
 50
54.743644472188912
 51
230.16502123062389
  0
LINE
  5
1816A
  8
0
 10
237.45189184638821
 20
57.547962562211303
 30
0.0
 11
246.5
 21
50.0
 31
0.0
  0
LINE
  5
1816B
  8
0
 10
246.5
 20
50.0
 30
0.0
 11
282.0
 21
50.0
 31
0.0
  0
ARC
  5
1816C
  8
0
 10
266.77999999999997
 20
40.750000000000043
 30
0.0
 40
24.809999999999949
 50
116.257375452308
 51
143.87898986328011
  0
LINE
  5
1816D
  8
0
 10
246.35589849449451
 20
54.126527210102317
 30
0.0
 11
246.5
 21
50.0
 31
0.0
  0
ARC
  5
1816E
  8
0
 10
248.35468014853279
 20
54.19632620350734
 30
0.0
 40
2.0000000000000049
 50
143.87898618154219
 51
181.99999999999949
  0
LINE
  5
1816F
  8
0
 10
282.0
 20
50.0
 30
0.0
 11
281.64713615324331
 21
60.104698490107502
 31
0.0
  0
ARC
  5
18170
  8
0
 10
278.64896367218603
 20
60.0
 30
0.0
 40
3.0000000000000151
 50
2.000000000000357
 51
90.0
  0
CIRCLE
  5
18171
  8
0
 10
242.0
 20
63.0
 30
0.0
 40
2.5
  0
LINE
  5
18172
  8
0
 10
205.351036327814
 20
63.0
 30
0.0
 11
229.7000000000001
 21
63.0
 31
0.0
  0
LINE
  5
18173
  8
0
 10
229.7000000000001
 20
63.0
 30
0.0
 11
237.90162601626011
 21
68.797700465650536
 31
0.0
  0
LINE
  5
18174
  8
0
 10
242.0
 20
53.753915288511713
 30
0.0
 11
237.5
 21
50.0
 31
0.0
  0
LINE
  5
18175
  8
0
 10
237.5
 20
50.0
 30
0.0
 11
202.0
 21
50.0
 31
0.0
  0
LINE
  5
18176
  8
0
 10
237.5
 20
50.0
 30
0.0
 11
237.6441015055054
 21
54.126527210102317
 31
0.0
  0
ARC
  5
18177
  8
0
 10
235.64531985146721
 20
54.19632620350734
 30
0.0
 40
2.0000000000000151
 50
358.0000000000004
 51
36.12101381845774
  0
ARC
  5
18178
  8
0
 10
217.21999999999991
 20
40.749999999999908
 30
0.0
 40
24.810000000000109
 50
36.12101013671991
 51
63.742624547691911
  0
ARC
  5
18179
  8
0
 10
205.351036327814
 20
60.0
 30
0.0
 40
3.0000000000000111
 50
90.0
 51
177.9999999999996
  0
LINE
  5
1817A
  8
0
 10
202.0
 20
50.0
 30
0.0
 11
202.35286384675669
 21
60.104698490107502
 31
0.0
  0
ENDSEC
  0
EOF
