  0
SECTION
  2
HEADER
  9
$ACADVER
  1
AC1009
  9
$INSBASE
 10
0.0
 20
0.0
 30
0.0
  9
$EXTMIN
 10
0.0
 20
-2.960436562073669
 30
0.0
  9
$EXTMAX
 10
228.0
 20
189.5
 30
0.0
  9
$LIMMIN
 10
0.0
 20
0.0
  9
$LIMMAX
 10
420.0
 20
330.0
  9
$ORTHOMODE
 70
     1
  9
$REGENMODE
 70
     1
  9
$FILLMODE
 70
     1
  9
$QTEXTMODE
 70
     0
  9
$MIRRTEXT
 70
     0
  9
$DRAGMODE
 70
     2
  9
$LTSCALE
 40
5.0
  9
$OSMODE
 70
    37
  9
$ATTMODE
 70
     1
  9
$TEXTSIZE
 40
0.2
  9
$TRACEWID
 40
0.05
  9
$TEXTSTYLE
  7
STANDARD
  9
$CLAYER
  8
0
  9
$CELTYPE
  6
BYLAYER
  9
$CECOLOR
 62
   256
  9
$DIMSCALE
 40
1.0
  9
$DIMASZ
 40
3.0
  9
$DIMEXO
 40
1.0
  9
$DIMDLI
 40
0.3799999999999999
  9
$DIMRND
 40
0.0
  9
$DIMDLE
 40
0.0
  9
$DIMEXE
 40
1.0
  9
$DIMTP
 40
0.0
  9
$DIMTM
 40
0.0
  9
$DIMTXT
 40
3.0
  9
$DIMCEN
 40
0.09
  9
$DIMTSZ
 40
0.0
  9
$DIMTOL
 70
     0
  9
$DIMLIM
 70
     0
  9
$DIMTIH
 70
     0
  9
$DIMTOH
 70
     0
  9
$DIMSE1
 70
     0
  9
$DIMSE2
 70
     0
  9
$DIMTAD
 70
     1
  9
$DIMZIN
 70
     0
  9
$DIMBLK
  1

  9
$DIMASO
 70
     0
  9
$DIMSHO
 70
     1
  9
$DIMPOST
  1

  9
$DIMAPOST
  1

  9
$DIMALT
 70
     0
  9
$DIMALTD
 70
     2
  9
$DIMALTF
 40
25.399999999999999
  9
$DIMLFAC
 40
1.0
  9
$DIMTOFL
 70
     0
  9
$DIMTVP
 40
0.0
  9
$DIMTIX
 70
     0
  9
$DIMSOXD
 70
     0
  9
$DIMSAH
 70
     0
  9
$DIMBLK1
  1

  9
$DIMBLK2
  1

  9
$DIMSTYLE
  2
STANDARD
  9
$DIMCLRD
 70
     0
  9
$DIMCLRE
 70
     0
  9
$DIMCLRT
 70
     0
  9
$DIMTFAC
 40
1.0
  9
$DIMGAP
 40
0.5
  9
$LUNITS
 70
     2
  9
$LUPREC
 70
     1
  9
$SKETCHINC
 40
0.1
  9
$FILLETRAD
 40
0.5
  9
$AUNITS
 70
     0
  9
$AUPREC
 70
     1
  9
$MENU
  1
ACAD
  9
$ELEVATION
 40
0.0
  9
$PELEVATION
 40
0.0
  9
$THICKNESS
 40
0.0
  9
$LIMCHECK
 70
     0
  9
$BLIPMODE
 70
     0
  9
$CHAMFERA
 40
0.1
  9
$CHAMFERB
 40
0.1
  9
$SKPOLY
 70
     0
  9
$TDCREATE
 40
2449640.5627083331
  9
$TDUPDATE
 40
2457165.4723727428
  9
$TDINDWG
 40
1.0794694676000001
  9
$TDUSRTIMER
 40
1.0794694676000001
  9
$USRTIMER
 70
     1
  9
$ANGBASE
 50
0.0
  9
$ANGDIR
 70
     0
  9
$PDMODE
 70
     0
  9
$PDSIZE
 40
0.0
  9
$PLINEWID
 40
0.0
  9
$COORDS
 70
     1
  9
$SPLFRAME
 70
     0
  9
$SPLINETYPE
 70
     6
  9
$SPLINESEGS
 70
     8
  9
$ATTDIA
 70
     0
  9
$ATTREQ
 70
     1
  9
$HANDLING
 70
     1
  9
$HANDSEED
  5
1AA8
  9
$SURFTAB1
 70
     6
  9
$SURFTAB2
 70
     6
  9
$SURFTYPE
 70
     6
  9
$SURFU
 70
     6
  9
$SURFV
 70
     6
  9
$UCSNAME
  2

  9
$UCSORG
 10
0.0
 20
0.0
 30
0.0
  9
$UCSXDIR
 10
1.0
 20
0.0
 30
0.0
  9
$UCSYDIR
 10
0.0
 20
1.0
 30
0.0
  9
$PUCSNAME
  2

  9
$PUCSORG
 10
0.0
 20
0.0
 30
0.0
  9
$PUCSXDIR
 10
1.0
 20
0.0
 30
0.0
  9
$PUCSYDIR
 10
0.0
 20
1.0
 30
0.0
  9
$USERI1
 70
     0
  9
$USERI2
 70
     1
  9
$USERI3
 70
     1
  9
$USERI4
 70
     0
  9
$USERI5
 70
     0
  9
$USERR1
 40
0.0
  9
$USERR2
 40
0.0
  9
$USERR3
 40
0.0
  9
$USERR4
 40
0.0
  9
$USERR5
 40
10.0
  9
$WORLDVIEW
 70
     1
  9
$SHADEDGE
 70
     3
  9
$SHADEDIF
 70
    70
  9
$TILEMODE
 70
     1
  9
$MAXACTVP
 70
    16
  9
$PLIMCHECK
 70
     0
  9
$PEXTMIN
 10
1.0000000000000000E+020
 20
1.0000000000000000E+020
 30
1.0000000000000000E+020
  9
$PEXTMAX
 10
-1.0000000000000000E+020
 20
-1.0000000000000000E+020
 30
-1.0000000000000000E+020
  9
$PLIMMIN
 10
0.0
 20
0.0
  9
$PLIMMAX
 10
12.0
 20
9.0
  9
$UNITMODE
 70
     0
  9
$VISRETAIN
 70
     0
  9
$PLINEGEN
 70
     0
  9
$PSLTSCALE
 70
     0
  0
ENDSEC
  0
SECTION
  2
TABLES
  0
TABLE
  2
VPORT
 70
     1
  0
VPORT
  2
*ACTIVE
 70
     0
 10
0.0
 20
0.0
 11
1.0
 21
1.0
 12
245.19230769230771
 22
135.0
 13
0.0
 23
0.0
 14
1.8999999999999999
 24
1.8999999999999999
 15
10.0
 25
10.0
 16
0.0
 26
0.0
 36
1.0
 17
0.0
 27
0.0
 37
0.0
 40
270.0
 41
1.816239316239316
 42
50.0
 43
0.0
 44
0.0
 50
0.0
 51
0.0
 71
     0
 72
   100
 73
     1
 74
     0
 75
     0
 76
     0
 77
     0
 78
     1
  0
ENDTAB
  0
TABLE
  2
LTYPE
 70
     4
  0
LTYPE
  2
CONTINUOUS
 70
     0
  3
Solid Line
 72
    65
 73
     0
 40
0.0
  0
LTYPE
  2
CENTER
 70
     0
  3
____ _ ____ _ ____ _ ____ _ ____ _ ____ _ ____
 72
    65
 73
     4
 40
2.0
 49
1.25
 49
-0.25
 49
0.25
 49
-0.25
  0
LTYPE
  2
HIDDEN
 70
     0
  3
_ _ _ _ _ _ _ _ _ _ _ _ _ _ _ _ _ _ _ _ _ _ _
 72
    65
 73
     2
 40
0.375
 49
0.25
 49
-0.125
  0
LTYPE
  2
PHANTOM2
 70
     0
  3
___ _ _ ___ _ _ ___ _ _ ___ _ _
 72
    65
 73
     6
 40
1.25
 49
0.625
 49
-0.125
 49
0.125
 49
-0.125
 49
0.125
 49
-0.125
  0
ENDTAB
  0
TABLE
  2
LAYER
 70
     4
  0
LAYER
  2
0
 70
     0
 62
     7
  6
CONTINUOUS
  0
LAYER
  2
WAKU
 70
     0
 62
     7
  6
CONTINUOUS
  0
LAYER
  2
1
 70
     0
 62
     1
  6
CENTER
  0
LAYER
  2
2
 70
     0
 62
     2
  6
HIDDEN
  0
ENDTAB
  0
TABLE
  2
STYLE
 70
     2
  0
STYLE
  2
STANDARD
 70
     0
 40
0.0
 41
1.0
 50
0.0
 71
     0
 42
0.2
  3
ROMANS
  4
EXTFONT
  0
STYLE
  2
STANDARD1
 70
     0
 40
0.0
 41
1.0
 50
0.0
 71
     0
 42
3.0
  3
txt
  4

  0
ENDTAB
  0
TABLE
  2
VIEW
 70
     0
  0
ENDTAB
  0
TABLE
  2
UCS
 70
     0
  0
ENDTAB
  0
TABLE
  2
APPID
 70
     7
  0
APPID
  2
ACAD
 70
     0
  0
APPID
  2
GENIUS_GENOREF_13
 70
     0
  0
APPID
  2
ACAD_MLEADERVER
 70
     0
  0
APPID
  2
ACAD_EXEMPT_FROM_CAD_STANDARDS
 70
     0
  0
APPID
  2
ACAD_NAV_VCDISPLAY
 70
     0
  0
APPID
  2
ACAD_DSTYLE_DIMJAG
 70
     0
  0
APPID
  2
ACAD_DSTYLE_DIMTALN
 70
     0
  0
ENDTAB
  0
TABLE
  2
DIMSTYLE
 70
     1
  0
DIMSTYLE
  2
STANDARD
 70
     0
  3

  4

  5

  6

  7

 40
1.0
 41
0.18
 42
0.0625
 43
0.38
 44
0.18
 45
0.0
 46
0.0
 47
0.0
 48
0.0
140
0.18
141
0.09
142
0.0
143
25.399999999999999
144
1.0
145
0.0
146
1.0
147
0.09
 71
     0
 72
     0
 73
     1
 74
     1
 75
     0
 76
     0
 77
     0
 78
     0
170
     0
171
     2
172
     0
173
     0
174
     0
175
     0
176
     0
177
     0
178
     0
  0
ENDTAB
  0
ENDSEC
  0
SECTION
  2
BLOCKS
  0
BLOCK
  8
0
  2
$MODEL_SPACE
 70
     0
 10
0.0
 20
0.0
 30
0.0
  3
$MODEL_SPACE
  1

  0
ENDBLK
  5
9
  8
0
  0
BLOCK
 67
     1
  8
0
  2
$PAPER_SPACE
 70
     0
 10
0.0
 20
0.0
 30
0.0
  3
$PAPER_SPACE
  1

  0
ENDBLK
  5
E
 67
     1
  8
0
  0
BLOCK
  8
0
  2
ARROW1
 70
     0
 10
0.0
 20
0.0
 30
0.0
  3
ARROW1
  1

  0
SOLID
  5
24
  8
WAKU
  6
CONTINUOUS
 62
     4
 10
-1.0
 20
0.1666666666666714
 30
0.0
 11
-1.0
 21
-0.1666666666666714
 31
0.0
 12
0.0
 22
0.0
 32
0.0
 13
0.0
 23
0.0
 33
0.0
  0
ENDBLK
  5
27
  8
0
  0
ENDSEC
  0
SECTION
  2
ENTITIES
  0
TEXT
  5
1020
  8
0
 62
     3
 10
0.0
 20
0.0
 30
0.0
 40
10.0
  1
EFHC6365EH6
  7
STANDARD1
  0
LINE
  5
11D6
  8
2
 10
221.5
 20
61.326874328995927
 30
0.0
 11
221.5
 21
54.5
 31
0.0
  0
LINE
  5
11D7
  8
2
 10
211.5
 20
63.366566637205992
 30
0.0
 11
211.5
 21
54.5
 31
0.0
  0
LINE
  5
11D8
  8
2
 10
219.75
 20
50.0
 30
0.0
 11
219.75
 21
54.5
 31
0.0
  0
LINE
  5
11D9
  8
2
 10
213.25
 20
54.5
 30
0.0
 11
213.25
 21
50.0
 31
0.0
  0
LINE
  5
11DB
  8
2
 10
211.5
 20
54.5
 30
0.0
 11
221.5
 21
54.5
 31
0.0
  0
LINE
  5
11DC
  8
2
 10
216.5
 20
62.373645434200341
 30
0.0
 11
216.5
 21
54.5
 31
0.0
  0
LINE
  5
11DF
  8
2
 10
209.43538133750121
 20
63.776567366429269
 30
0.0
 11
209.43538133750121
 21
65.0
 31
0.0
  0
LINE
  5
11E0
  8
2
 10
220.63007250476701
 20
61.553478122213541
 30
0.0
 11
209.43538133750121
 21
63.776567366429269
 31
0.0
  0
LINE
  5
11E1
  8
2
 10
227.91232325129971
 20
52.880023600790402
 30
0.0
 11
226.7000036524656
 21
52.880023600790402
 31
0.0
  0
ARC
  5
11E2
  8
2
 10
219.13999999999999
 20
54.050000000000011
 30
0.0
 40
7.6499999999999959
 50
351.20276815579649
 51
78.768085871427843
  0
LINE
  5
11E3
  8
2
 10
181.49999999999989
 20
63.366566637205992
 30
0.0
 11
181.5
 21
54.5
 31
0.0
  0
LINE
  5
11E4
  8
2
 10
171.5
 20
61.326874328995927
 30
0.0
 11
171.5
 21
54.5
 31
0.0
  0
LINE
  5
11E5
  8
2
 10
179.75
 20
50.0
 30
0.0
 11
179.75
 21
54.5
 31
0.0
  0
LINE
  5
11E6
  8
2
 10
173.25
 20
54.5
 30
0.0
 11
173.25
 21
50.0
 31
0.0
  0
LINE
  5
11E8
  8
2
 10
171.5
 20
54.5
 30
0.0
 11
181.5
 21
54.5
 31
0.0
  0
LINE
  5
11E9
  8
2
 10
176.5
 20
62.373645434200341
 30
0.0
 11
176.5
 21
54.5
 31
0.0
  0
LINE
  5
11EC
  8
2
 10
183.56461866249879
 20
63.776567366429269
 30
0.0
 11
183.56461866249879
 21
65.0
 31
0.0
  0
ARC
  5
11ED
  8
2
 10
173.86000000000001
 20
54.050000000000011
 30
0.0
 40
7.649999999999987
 50
101.2319141285721
 51
188.79723184420351
  0
LINE
  5
11EE
  8
2
 10
165.08767674870029
 20
52.880023600790402
 30
0.0
 11
166.2999963475344
 21
52.880023600790402
 31
0.0
  0
LINE
  5
11EF
  8
2
 10
172.36992749523299
 20
61.553478122213541
 30
0.0
 11
183.56461866249879
 21
63.776567366429269
 31
0.0
  0
LINE
  5
11F0
  8
1
 10
216.5
 20
65.373645434200341
 30
0.0
 11
216.5
 21
47.0
 31
0.0
  0
LINE
  5
11F1
  8
1
 10
192.0
 20
65.0
 30
0.0
 11
201.0
 21
65.0
 31
0.0
  0
LINE
  5
11F2
  8
1
 10
196.5
 20
60.5
 30
0.0
 11
196.5
 21
69.5
 31
0.0
  0
LINE
  5
11F3
  8
1
 10
176.5
 20
65.373645434200341
 30
0.0
 11
176.5
 21
47.0
 31
0.0
  0
LINE
  5
11F4
  8
0
 10
199.0
 20
52.880023600790388
 30
0.0
 11
196.5
 21
55.52926311354323
 31
0.0
  0
LINE
  5
11F5
  8
0
 10
199.7662353662131
 20
70.619760362550906
 30
0.0
 11
209.43538133750121
 21
65.0
 31
0.0
  0
LINE
  5
11F6
  8
0
 10
228.0
 20
50.0
 30
0.0
 11
199.0
 21
50.0
 31
0.0
  0
LINE
  5
11F7
  8
0
 10
227.91232325129971
 20
52.880023600790402
 30
0.0
 11
228.0
 21
52.880023600790402
 31
0.0
  0
ARC
  5
11F8
  8
0
 10
219.13999999999999
 20
54.050000000000011
 30
0.0
 40
8.8499999999999908
 50
352.40321774885638
 51
78.768085871427843
  0
LINE
  5
11F9
  8
0
 10
228.0
 20
52.880023600790402
 30
0.0
 11
228.0
 21
50.0
 31
0.0
  0
LINE
  5
11FA
  8
0
 10
209.43538133750121
 20
65.0
 30
0.0
 11
220.86380936825989
 21
62.730494298247052
 31
0.0
  0
ARC
  5
11FB
  8
0
 10
228.4799999999999
 20
38.050000000000061
 30
0.0
 40
32.999999999999908
 50
125.2475069920518
 51
153.295147752422
  0
LINE
  5
11FC
  8
0
 10
199.0
 20
50.0
 30
0.0
 11
199.0
 21
52.880023600790388
 31
0.0
  0
CIRCLE
  5
11FD
  8
0
 10
196.5
 20
65.0
 30
0.0
 40
2.5
  0
LINE
  5
11FE
  8
0
 10
194.0
 20
52.880023600790388
 30
0.0
 11
201.22741966145711
 21
60.538889897741981
 31
0.0
  0
LINE
  5
11FF
  8
0
 10
193.23376463378679
 20
70.619760362550906
 30
0.0
 11
183.56461866249879
 21
65.0
 31
0.0
  0
ARC
  5
1200
  8
0
 10
196.5
 20
65.0
 30
0.0
 40
6.4999999999999973
 50
316.66012887296728
 51
120.1653877640184
  0
LINE
  5
1201
  8
0
 10
165.0
 20
52.880023600790402
 30
0.0
 11
165.0
 21
50.0
 31
0.0
  0
LINE
  5
1202
  8
0
 10
165.0
 20
50.0
 30
0.0
 11
194.0
 21
50.0
 31
0.0
  0
LINE
  5
1203
  8
0
 10
194.0
 20
50.0
 30
0.0
 11
194.0
 21
52.880023600790388
 31
0.0
  0
ARC
  5
1204
  8
0
 10
164.5199999999999
 20
38.049999999999983
 30
0.0
 40
33.000000000000043
 50
26.704852247577961
 51
54.752493007948182
  0
LINE
  5
1205
  8
0
 10
183.56461866249879
 20
65.0
 30
0.0
 11
172.13619063174011
 21
62.730494298247052
 31
0.0
  0
ARC
  5
1206
  8
0
 10
173.86000000000001
 20
54.049999999999997
 30
0.0
 40
8.8500000000000032
 50
101.2319141285721
 51
187.59678225114359
  0
LINE
  5
1207
  8
0
 10
165.08767674870029
 20
52.880023600790402
 30
0.0
 11
165.0
 21
52.880023600790402
 31
0.0
  0
LINE
  5
1252
  8
1
 10
102.5
 20
65.373645434200341
 30
0.0
 11
102.5
 21
47.0
 31
0.0
  0
LINE
  5
1253
  8
1
 10
62.5
 20
65.373645434200341
 30
0.0
 11
62.5
 21
47.0
 31
0.0
  0
LINE
  5
1254
  8
1
 10
47.0
 20
65.0
 30
0.0
 11
118.0
 21
65.0
 31
0.0
  0
LINE
  5
1255
  8
0
 10
71.539999999999964
 20
71.5
 30
0.0
 11
60.970000000000027
 21
71.5
 31
0.0
  0
LINE
  5
1256
  8
0
 10
71.539999999999964
 20
71.5
 30
0.0
 11
71.539999999999964
 21
65.0
 31
0.0
  0
LINE
  5
1257
  8
0
 10
60.970000000000027
 20
71.5
 30
0.0
 11
60.970000000000027
 21
65.0
 31
0.0
  0
LINE
  5
1258
  8
0
 10
93.199999999999974
 20
71.5
 30
0.0
 11
82.629999999999995
 21
71.5
 31
0.0
  0
LINE
  5
1259
  8
0
 10
82.629999999999995
 20
71.5
 30
0.0
 11
82.629999999999995
 21
65.0
 31
0.0
  0
LINE
  5
125A
  8
0
 10
93.199999999999974
 20
71.5
 30
0.0
 11
93.199999999999974
 21
65.0
 31
0.0
  0
LINE
  5
125B
  8
0
 10
113.89
 20
71.5
 30
0.0
 11
104.28999999999991
 21
71.5
 31
0.0
  0
LINE
  5
125C
  8
0
 10
104.28999999999991
 20
71.5
 30
0.0
 11
104.28999999999991
 21
65.0
 31
0.0
  0
LINE
  5
125D
  8
0
 10
113.89
 20
71.5
 30
0.0
 11
113.89
 21
65.0
 31
0.0
  0
LINE
  5
1261
  8
0
 10
51.787500000000023
 20
63.776567366429269
 30
0.0
 11
51.625
 21
63.776567366429269
 31
0.0
  0
LINE
  5
1262
  8
0
 10
113.375
 20
63.776567366429269
 30
0.0
 11
113.21250000000001
 21
63.776567366429269
 31
0.0
  0
LINE
  5
1263
  8
0
 10
51.787500000000023
 20
64.796094561071556
 30
0.0
 11
51.787500000000023
 21
52.880023600790402
 31
0.0
  0
LINE
  5
1264
  8
0
 10
113.21250000000001
 20
64.796094561071556
 30
0.0
 11
113.21250000000001
 21
52.880023600790402
 31
0.0
  0
LINE
  5
1265
  8
0
 10
113.21250000000001
 20
64.796094561071556
 30
0.0
 11
51.787500000000023
 21
64.796094561071556
 31
0.0
  0
LINE
  5
1266
  8
0
 10
51.625
 20
65.0
 30
0.0
 11
51.625
 21
52.880023600790402
 31
0.0
  0
LINE
  5
1267
  8
0
 10
115.0
 20
65.0
 30
0.0
 11
50.0
 21
65.0
 31
0.0
  0
LINE
  5
1268
  8
0
 10
113.375
 20
65.0
 30
0.0
 11
113.375
 21
52.880023600790402
 31
0.0
  0
LINE
  5
126E
  8
0
 10
115.0
 20
50.0
 30
0.0
 11
50.0
 21
50.0
 31
0.0
  0
LINE
  5
126F
  8
0
 10
115.0
 20
52.880023600790402
 30
0.0
 11
50.0
 21
52.880023600790402
 31
0.0
  0
LINE
  5
1270
  8
0
 10
115.0
 20
65.0
 30
0.0
 11
115.0
 21
50.0
 31
0.0
  0
LINE
  5
1271
  8
0
 10
50.0
 20
65.0
 30
0.0
 11
50.0
 21
50.0
 31
0.0
  0
LINE
  5
1272
  8
0
 10
51.110000000000007
 20
67.5
 30
0.0
 11
50.399999999999977
 21
67.5
 31
0.0
  0
LINE
  5
1273
  8
0
 10
60.970000000000027
 20
67.5
 30
0.0
 11
60.710000000000043
 21
67.5
 31
0.0
  0
LINE
  5
1274
  8
0
 10
71.800000000000011
 20
67.5
 30
0.0
 11
71.539999999999964
 21
67.5
 31
0.0
  0
LINE
  5
1275
  8
0
 10
82.629999999999995
 20
67.5
 30
0.0
 11
82.370000000000005
 21
67.5
 31
0.0
  0
LINE
  5
1276
  8
0
 10
93.460000000000036
 20
67.5
 30
0.0
 11
93.199999999999974
 21
67.5
 31
0.0
  0
LINE
  5
1277
  8
0
 10
104.28999999999991
 20
67.5
 30
0.0
 11
104.03
 21
67.5
 31
0.0
  0
LINE
  5
1278
  8
0
 10
114.59999999999999
 20
67.5
 30
0.0
 11
113.89
 21
67.5
 31
0.0
  0
LINE
  5
1279
  8
0
 10
114.59999999999999
 20
67.5
 30
0.0
 11
114.59999999999999
 21
65.0
 31
0.0
  0
LINE
  5
127A
  8
0
 10
50.399999999999977
 20
67.5
 30
0.0
 11
50.399999999999977
 21
65.0
 31
0.0
  0
LINE
  5
127B
  8
0
 10
51.110000000000007
 20
65.0
 30
0.0
 11
51.110000000000007
 21
71.5
 31
0.0
  0
LINE
  5
127C
  8
0
 10
60.710000000000043
 20
65.0
 30
0.0
 11
60.710000000000043
 21
71.5
 31
0.0
  0
LINE
  5
127D
  8
0
 10
60.710000000000043
 20
71.5
 30
0.0
 11
51.110000000000007
 21
71.5
 31
0.0
  0
LINE
  5
127E
  8
0
 10
82.370000000000005
 20
65.0
 30
0.0
 11
82.370000000000005
 21
71.5
 31
0.0
  0
LINE
  5
127F
  8
0
 10
71.800000000000011
 20
65.0
 30
0.0
 11
71.800000000000011
 21
71.5
 31
0.0
  0
LINE
  5
1280
  8
0
 10
82.370000000000005
 20
71.5
 30
0.0
 11
71.800000000000011
 21
71.5
 31
0.0
  0
LINE
  5
1281
  8
0
 10
104.03
 20
65.0
 30
0.0
 11
104.03
 21
71.5
 31
0.0
  0
LINE
  5
1282
  8
0
 10
93.460000000000036
 20
65.0
 30
0.0
 11
93.460000000000036
 21
71.5
 31
0.0
  0
LINE
  5
1283
  8
0
 10
104.03
 20
71.5
 30
0.0
 11
93.460000000000036
 21
71.5
 31
0.0
  0
CIRCLE
  5
1284
  8
2
 10
176.5
 20
174.0
 30
0.0
 40
3.25
  0
CIRCLE
  5
1285
  8
2
 10
176.5
 20
134.0
 30
0.0
 40
3.25
  0
LINE
  5
1286
  8
2
 10
171.5
 20
176.88675134594811
 30
0.0
 11
171.5
 21
171.1132486540518
 31
0.0
  0
LINE
  5
1287
  8
2
 10
171.5
 20
136.88675134594811
 30
0.0
 11
171.5
 21
131.1132486540518
 31
0.0
  0
LINE
  5
1289
  8
2
 10
171.5
 20
171.11324865405189
 30
0.0
 11
176.5
 21
168.22649730810369
 31
0.0
  0
LINE
  5
128A
  8
2
 10
176.5
 20
179.77350269189631
 30
0.0
 11
171.5
 21
176.88675134594811
 31
0.0
  0
LINE
  5
128D
  8
2
 10
171.5
 20
131.1132486540518
 30
0.0
 11
176.5
 21
128.22649730810369
 31
0.0
  0
LINE
  5
128E
  8
2
 10
176.5
 20
139.7735026918962
 30
0.0
 11
171.5
 21
136.88675134594811
 31
0.0
  0
LINE
  5
1293
  8
2
 10
181.5
 20
171.1132486540518
 30
0.0
 11
181.5
 21
176.88675134594811
 31
0.0
  0
LINE
  5
1295
  8
2
 10
176.5
 20
179.77350269189631
 30
0.0
 11
181.5
 21
176.88675134594811
 31
0.0
  0
LINE
  5
1296
  8
2
 10
181.5
 20
171.1132486540518
 30
0.0
 11
176.5
 21
168.22649730810369
 31
0.0
  0
LINE
  5
1297
  8
2
 10
181.5
 20
131.1132486540518
 30
0.0
 11
176.5
 21
128.22649730810369
 31
0.0
  0
LINE
  5
1299
  8
2
 10
176.5
 20
139.7735026918962
 30
0.0
 11
181.5
 21
136.88675134594811
 31
0.0
  0
LINE
  5
129A
  8
2
 10
181.5
 20
131.1132486540518
 30
0.0
 11
181.5
 21
136.88675134594811
 31
0.0
  0
CIRCLE
  5
12B0
  8
2
 10
216.5
 20
174.0
 30
0.0
 40
3.25
  0
CIRCLE
  5
12B1
  8
2
 10
216.5
 20
134.0
 30
0.0
 40
3.25
  0
LINE
  5
12B2
  8
2
 10
221.5
 20
171.1132486540518
 30
0.0
 11
221.5
 21
176.88675134594811
 31
0.0
  0
LINE
  5
12B3
  8
2
 10
221.5
 20
131.1132486540518
 30
0.0
 11
221.5
 21
136.88675134594811
 31
0.0
  0
LINE
  5
12B6
  8
2
 10
221.5
 20
176.88675134594811
 30
0.0
 11
216.5
 21
179.77350269189631
 31
0.0
  0
LINE
  5
12B7
  8
2
 10
216.5
 20
168.22649730810369
 30
0.0
 11
221.5
 21
171.1132486540518
 31
0.0
  0
LINE
  5
12BA
  8
2
 10
221.5
 20
136.88675134594811
 30
0.0
 11
216.5
 21
139.7735026918962
 31
0.0
  0
LINE
  5
12BB
  8
2
 10
216.5
 20
128.22649730810369
 30
0.0
 11
221.5
 21
131.1132486540518
 31
0.0
  0
LINE
  5
12BF
  8
2
 10
211.5
 20
176.88675134594811
 30
0.0
 11
211.5
 21
171.1132486540518
 31
0.0
  0
LINE
  5
12C0
  8
2
 10
211.5
 20
171.1132486540518
 30
0.0
 11
216.5
 21
168.22649730810369
 31
0.0
  0
LINE
  5
12C1
  8
2
 10
216.5
 20
179.77350269189631
 30
0.0
 11
211.5
 21
176.88675134594811
 31
0.0
  0
LINE
  5
12C4
  8
2
 10
211.5
 20
131.1132486540518
 30
0.0
 11
216.5
 21
128.22649730810369
 31
0.0
  0
LINE
  5
12C5
  8
2
 10
216.5
 20
139.7735026918962
 30
0.0
 11
211.5
 21
136.88675134594811
 31
0.0
  0
LINE
  5
12C6
  8
2
 10
211.5
 20
136.88675134594811
 30
0.0
 11
211.5
 21
131.1132486540518
 31
0.0
  0
LINE
  5
12D0
  8
1
 10
168.72649730810369
 20
174.0
 30
0.0
 11
184.27350269189631
 21
174.0
 31
0.0
  0
LINE
  5
12D1
  8
1
 10
176.5
 20
166.22649730810369
 30
0.0
 11
176.5
 21
181.77350269189631
 31
0.0
  0
LINE
  5
12D4
  8
1
 10
196.49999999999989
 20
189.5
 30
0.0
 11
196.5
 21
118.5
 31
0.0
  0
LINE
  5
12D9
  8
0
 10
165.0
 20
121.5
 30
0.0
 11
165.0
 21
186.5
 31
0.0
  0
LINE
  5
12DA
  8
0
 10
166.21000000000001
 20
184.875
 30
0.0
 11
166.21000000000001
 21
184.71250000000001
 31
0.0
  0
LINE
  5
12DB
  8
0
 10
166.21000000000001
 20
123.28749999999999
 30
0.0
 11
166.21000000000001
 21
123.125
 31
0.0
  0
LINE
  5
12DC
  8
0
 10
183.56461866249879
 20
123.28749999999999
 30
0.0
 11
165.21000000000001
 21
123.28749999999999
 31
0.0
  0
LINE
  5
12DD
  8
0
 10
183.56461866249879
 20
184.71250000000001
 30
0.0
 11
165.21000000000001
 21
184.71250000000001
 31
0.0
  0
LINE
  5
12DE
  8
0
 10
165.21000000000001
 20
184.71250000000001
 30
0.0
 11
165.21000000000001
 21
123.28749999999999
 31
0.0
  0
LINE
  5
12DF
  8
0
 10
183.56461866249879
 20
184.875
 30
0.0
 11
165.00999999999999
 21
184.875
 31
0.0
  0
LINE
  5
12E0
  8
0
 10
165.00999999999999
 20
186.5
 30
0.0
 11
165.00999999999999
 21
184.875
 31
0.0
  0
LINE
  5
12E1
  8
0
 10
183.56461866249879
 20
123.125
 30
0.0
 11
165.00999999999999
 21
123.125
 31
0.0
  0
LINE
  5
12E2
  8
0
 10
165.00999999999999
 20
123.125
 30
0.0
 11
165.00999999999999
 21
121.5
 31
0.0
  0
LINE
  5
12E6
  8
0
 10
194.0
 20
186.5
 30
0.0
 11
165.0
 21
186.5
 31
0.0
  0
LINE
  5
12E7
  8
0
 10
194.0
 20
186.09999999999999
 30
0.0
 11
194.0
 21
186.5
 31
0.0
  0
LINE
  5
12E9
  8
0
 10
194.0
 20
121.5
 30
0.0
 11
165.0
 21
121.5
 31
0.0
  0
LINE
  5
12EA
  8
0
 10
194.0
 20
121.5
 30
0.0
 11
194.0
 21
121.90000000000001
 31
0.0
  0
LINE
  5
12EB
  8
0
 10
183.56461866249879
 20
121.5
 30
0.0
 11
183.56461866249879
 21
186.5
 31
0.0
  0
LINE
  5
12ED
  8
0
 10
203.0
 20
153.87
 30
0.0
 11
183.56461866249879
 21
153.87
 31
0.0
  0
LINE
  5
12EE
  8
0
 10
203.0
 20
143.30000000000001
 30
0.0
 11
183.56461866249879
 21
143.30000000000001
 31
0.0
  0
LINE
  5
12EF
  8
0
 10
203.0
 20
175.53
 30
0.0
 11
183.56461866249879
 21
175.53
 31
0.0
  0
LINE
  5
12F0
  8
0
 10
203.0
 20
164.96000000000001
 30
0.0
 11
183.56461866249879
 21
164.96000000000001
 31
0.0
  0
LINE
  5
12F1
  8
0
 10
203.0
 20
122.61
 30
0.0
 11
183.56461866249879
 21
122.61
 31
0.0
  0
LINE
  5
12F2
  8
0
 10
203.0
 20
132.21000000000001
 30
0.0
 11
183.56461866249879
 21
132.21000000000001
 31
0.0
  0
LINE
  5
12F4
  8
0
 10
203.0
 20
143.30000000000001
 30
0.0
 11
203.0
 21
153.87
 31
0.0
  0
LINE
  5
12F6
  8
0
 10
203.0
 20
164.96000000000001
 30
0.0
 11
203.0
 21
175.53
 31
0.0
  0
LINE
  5
12F8
  8
0
 10
203.0
 20
122.61
 30
0.0
 11
203.0
 21
132.21000000000001
 31
0.0
  0
LINE
  5
12F9
  8
0
 10
199.0
 20
185.38999999999999
 30
0.0
 11
199.0
 21
186.09999999999999
 31
0.0
  0
LINE
  5
12FA
  8
0
 10
199.0
 20
175.53
 30
0.0
 11
199.0
 21
175.78999999999999
 31
0.0
  0
LINE
  5
12FB
  8
0
 10
199.0
 20
164.69999999999999
 30
0.0
 11
199.0
 21
164.96000000000001
 31
0.0
  0
LINE
  5
12FC
  8
0
 10
199.0
 20
153.87
 30
0.0
 11
199.0
 21
154.13
 31
0.0
  0
LINE
  5
12FD
  8
0
 10
199.0
 20
143.03999999999999
 30
0.0
 11
199.0
 21
143.30000000000001
 31
0.0
  0
LINE
  5
12FE
  8
0
 10
199.0
 20
132.21000000000001
 30
0.0
 11
199.0
 21
132.47
 31
0.0
  0
LINE
  5
12FF
  8
0
 10
199.0
 20
121.90000000000001
 30
0.0
 11
199.0
 21
122.61
 31
0.0
  0
LINE
  5
1300
  8
0
 10
194.0
 20
122.61
 30
0.0
 11
194.0
 21
121.90000000000001
 31
0.0
  0
LINE
  5
1301
  8
0
 10
194.0
 20
132.47
 30
0.0
 11
194.0
 21
132.21000000000001
 31
0.0
  0
LINE
  5
1302
  8
0
 10
194.0
 20
143.30000000000001
 30
0.0
 11
194.0
 21
143.03999999999999
 31
0.0
  0
LINE
  5
1303
  8
0
 10
194.0
 20
154.13
 30
0.0
 11
194.0
 21
153.87
 31
0.0
  0
LINE
  5
1304
  8
0
 10
194.0
 20
164.96000000000001
 30
0.0
 11
194.0
 21
164.69999999999999
 31
0.0
  0
LINE
  5
1305
  8
0
 10
194.0
 20
175.78999999999999
 30
0.0
 11
194.0
 21
175.53
 31
0.0
  0
LINE
  5
1306
  8
0
 10
194.0
 20
186.09999999999999
 30
0.0
 11
194.0
 21
185.38999999999999
 31
0.0
  0
LINE
  5
1307
  8
0
 10
199.0
 20
121.90000000000001
 30
0.0
 11
194.0
 21
121.90000000000001
 31
0.0
  0
LINE
  5
1308
  8
0
 10
199.0
 20
186.09999999999999
 30
0.0
 11
194.0
 21
186.09999999999999
 31
0.0
  0
LINE
  5
1309
  8
0
 10
228.0
 20
186.5
 30
0.0
 11
228.0
 21
121.5
 31
0.0
  0
LINE
  5
130A
  8
0
 10
226.78999999999999
 20
184.71250000000001
 30
0.0
 11
226.78999999999999
 21
184.875
 31
0.0
  0
LINE
  5
130B
  8
0
 10
226.78999999999999
 20
123.125
 30
0.0
 11
226.78999999999999
 21
123.28749999999999
 31
0.0
  0
LINE
  5
130C
  8
0
 10
209.4353813375011
 20
123.28749999999999
 30
0.0
 11
227.78999999999999
 21
123.28749999999999
 31
0.0
  0
LINE
  5
130D
  8
0
 10
209.4353813375011
 20
184.71250000000001
 30
0.0
 11
227.78999999999999
 21
184.71250000000001
 31
0.0
  0
LINE
  5
130E
  8
0
 10
227.78999999999999
 20
123.28749999999999
 30
0.0
 11
227.78999999999999
 21
184.71250000000001
 31
0.0
  0
LINE
  5
130F
  8
0
 10
209.4353813375011
 20
184.875
 30
0.0
 11
227.99000000000001
 21
184.875
 31
0.0
  0
LINE
  5
1310
  8
0
 10
227.99000000000001
 20
184.875
 30
0.0
 11
227.99000000000001
 21
186.5
 31
0.0
  0
LINE
  5
1311
  8
0
 10
209.4353813375011
 20
123.125
 30
0.0
 11
227.99000000000001
 21
123.125
 31
0.0
  0
LINE
  5
1312
  8
0
 10
227.99000000000001
 20
121.5
 30
0.0
 11
227.99000000000001
 21
123.125
 31
0.0
  0
LINE
  5
1316
  8
0
 10
199.0
 20
186.5
 30
0.0
 11
199.0
 21
186.09999999999999
 31
0.0
  0
LINE
  5
1317
  8
0
 10
199.0
 20
186.5
 30
0.0
 11
228.0
 21
186.5
 31
0.0
  0
LINE
  5
1319
  8
0
 10
199.0
 20
121.5
 30
0.0
 11
228.0
 21
121.5
 31
0.0
  0
LINE
  5
131A
  8
0
 10
199.0
 20
121.90000000000001
 30
0.0
 11
199.0
 21
121.5
 31
0.0
  0
LINE
  5
131B
  8
0
 10
209.4353813375011
 20
186.5
 30
0.0
 11
209.4353813375011
 21
121.5
 31
0.0
  0
LINE
  5
131D
  8
0
 10
190.0
 20
132.47
 30
0.0
 11
209.4353813375011
 21
132.47
 31
0.0
  0
LINE
  5
131E
  8
0
 10
190.0
 20
143.03999999999999
 30
0.0
 11
209.4353813375011
 21
143.03999999999999
 31
0.0
  0
LINE
  5
131F
  8
0
 10
190.0
 20
175.78999999999999
 30
0.0
 11
209.4353813375011
 21
175.78999999999999
 31
0.0
  0
LINE
  5
1320
  8
0
 10
190.0
 20
185.38999999999999
 30
0.0
 11
209.4353813375011
 21
185.38999999999999
 31
0.0
  0
LINE
  5
1321
  8
0
 10
190.0
 20
154.13
 30
0.0
 11
209.4353813375011
 21
154.13
 31
0.0
  0
LINE
  5
1322
  8
0
 10
190.0
 20
164.69999999999999
 30
0.0
 11
209.4353813375011
 21
164.69999999999999
 31
0.0
  0
LINE
  5
1324
  8
0
 10
190.0
 20
185.38999999999999
 30
0.0
 11
190.0
 21
175.78999999999999
 31
0.0
  0
LINE
  5
1326
  8
0
 10
190.0
 20
164.69999999999999
 30
0.0
 11
190.0
 21
154.13
 31
0.0
  0
LINE
  5
1328
  8
0
 10
190.0
 20
143.03999999999999
 30
0.0
 11
190.0
 21
132.47
 31
0.0
  0
LINE
  5
16EE
  8
1
 10
208.72649730810369
 20
174.0
 30
0.0
 11
224.27350269189631
 21
174.0
 31
0.0
  0
LINE
  5
16EF
  8
1
 10
216.5
 20
166.22649730810369
 30
0.0
 11
216.5
 21
181.77350269189631
 31
0.0
  0
LINE
  5
16F0
  8
1
 10
208.72649730810369
 20
134.0
 30
0.0
 11
224.27350269189631
 21
134.0
 31
0.0
  0
LINE
  5
16F1
  8
1
 10
216.5
 20
126.2264973081037
 30
0.0
 11
216.5
 21
141.77350269189631
 31
0.0
  0
LINE
  5
16F2
  8
1
 10
168.72649730810369
 20
134.0
 30
0.0
 11
184.27350269189631
 21
134.0
 31
0.0
  0
LINE
  5
16F3
  8
1
 10
176.5
 20
126.2264973081037
 30
0.0
 11
176.5
 21
141.77350269189631
 31
0.0
  0
ENDSEC
  0
EOF
