  0
SECTION
  2
HEADER
  9
$ACADVER
  1
AC1009
  9
$INSBASE
 10
0.0
 20
0.0
 30
0.0
  9
$EXTMIN
 10
0.0
 20
-2.960436562073669
 30
0.0
  9
$EXTMAX
 10
177.99999999999989
 20
158.00000004214681
 30
0.0
  9
$LIMMIN
 10
0.0
 20
0.0
  9
$LIMMAX
 10
420.0
 20
330.0
  9
$ORTHOMODE
 70
     1
  9
$REGENMODE
 70
     1
  9
$FILLMODE
 70
     1
  9
$QTEXTMODE
 70
     0
  9
$MIRRTEXT
 70
     0
  9
$DRAGMODE
 70
     2
  9
$LTSCALE
 40
5.0
  9
$OSMODE
 70
    37
  9
$ATTMODE
 70
     1
  9
$TEXTSIZE
 40
0.2
  9
$TRACEWID
 40
0.05
  9
$TEXTSTYLE
  7
STANDARD
  9
$CLAYER
  8
0
  9
$CELTYPE
  6
BYLAYER
  9
$CECOLOR
 62
   256
  9
$DIMSCALE
 40
1.0
  9
$DIMASZ
 40
3.0
  9
$DIMEXO
 40
1.0
  9
$DIMDLI
 40
0.3799999999999999
  9
$DIMRND
 40
0.0
  9
$DIMDLE
 40
0.0
  9
$DIMEXE
 40
1.0
  9
$DIMTP
 40
0.0
  9
$DIMTM
 40
0.0
  9
$DIMTXT
 40
3.0
  9
$DIMCEN
 40
0.09
  9
$DIMTSZ
 40
0.0
  9
$DIMTOL
 70
     0
  9
$DIMLIM
 70
     0
  9
$DIMTIH
 70
     0
  9
$DIMTOH
 70
     0
  9
$DIMSE1
 70
     0
  9
$DIMSE2
 70
     0
  9
$DIMTAD
 70
     1
  9
$DIMZIN
 70
     8
  9
$DIMBLK
  1

  9
$DIMASO
 70
     0
  9
$DIMSHO
 70
     1
  9
$DIMPOST
  1

  9
$DIMAPOST
  1

  9
$DIMALT
 70
     0
  9
$DIMALTD
 70
     2
  9
$DIMALTF
 40
25.399999999999999
  9
$DIMLFAC
 40
1.0
  9
$DIMTOFL
 70
     0
  9
$DIMTVP
 40
0.0
  9
$DIMTIX
 70
     0
  9
$DIMSOXD
 70
     0
  9
$DIMSAH
 70
     0
  9
$DIMBLK1
  1

  9
$DIMBLK2
  1

  9
$DIMSTYLE
  2
STANDARD
  9
$DIMCLRD
 70
     0
  9
$DIMCLRE
 70
     0
  9
$DIMCLRT
 70
     0
  9
$DIMTFAC
 40
1.0
  9
$DIMGAP
 40
0.5
  9
$LUNITS
 70
     2
  9
$LUPREC
 70
     1
  9
$SKETCHINC
 40
0.1
  9
$FILLETRAD
 40
0.5
  9
$AUNITS
 70
     0
  9
$AUPREC
 70
     1
  9
$MENU
  1
ACAD
  9
$ELEVATION
 40
0.0
  9
$PELEVATION
 40
0.0
  9
$THICKNESS
 40
0.0
  9
$LIMCHECK
 70
     0
  9
$BLIPMODE
 70
     0
  9
$CHAMFERA
 40
0.1
  9
$CHAMFERB
 40
0.1
  9
$SKPOLY
 70
     0
  9
$TDCREATE
 40
2449640.5627083331
  9
$TDUPDATE
 40
2457893.6526782061
  9
$TDINDWG
 40
1.5842662963
  9
$TDUSRTIMER
 40
1.5842662963
  9
$USRTIMER
 70
     1
  9
$ANGBASE
 50
0.0
  9
$ANGDIR
 70
     0
  9
$PDMODE
 70
     0
  9
$PDSIZE
 40
0.0
  9
$PLINEWID
 40
0.0
  9
$COORDS
 70
     1
  9
$SPLFRAME
 70
     0
  9
$SPLINETYPE
 70
     6
  9
$SPLINESEGS
 70
     8
  9
$ATTDIA
 70
     0
  9
$ATTREQ
 70
     1
  9
$HANDLING
 70
     1
  9
$HANDSEED
  5
6F1A
  9
$SURFTAB1
 70
     6
  9
$SURFTAB2
 70
     6
  9
$SURFTYPE
 70
     6
  9
$SURFU
 70
     6
  9
$SURFV
 70
     6
  9
$UCSNAME
  2

  9
$UCSORG
 10
0.0
 20
0.0
 30
0.0
  9
$UCSXDIR
 10
1.0
 20
0.0
 30
0.0
  9
$UCSYDIR
 10
0.0
 20
1.0
 30
0.0
  9
$PUCSNAME
  2

  9
$PUCSORG
 10
0.0
 20
0.0
 30
0.0
  9
$PUCSXDIR
 10
1.0
 20
0.0
 30
0.0
  9
$PUCSYDIR
 10
0.0
 20
1.0
 30
0.0
  9
$USERI1
 70
     0
  9
$USERI2
 70
     1
  9
$USERI3
 70
     1
  9
$USERI4
 70
     0
  9
$USERI5
 70
     0
  9
$USERR1
 40
0.0
  9
$USERR2
 40
0.0
  9
$USERR3
 40
0.0
  9
$USERR4
 40
0.0
  9
$USERR5
 40
10.0
  9
$WORLDVIEW
 70
     1
  9
$SHADEDGE
 70
     3
  9
$SHADEDIF
 70
    70
  9
$TILEMODE
 70
     1
  9
$MAXACTVP
 70
    16
  9
$PLIMCHECK
 70
     0
  9
$PEXTMIN
 10
1.0000000000000000E+020
 20
1.0000000000000000E+020
 30
1.0000000000000000E+020
  9
$PEXTMAX
 10
-1.0000000000000000E+020
 20
-1.0000000000000000E+020
 30
-1.0000000000000000E+020
  9
$PLIMMIN
 10
0.0
 20
0.0
  9
$PLIMMAX
 10
12.0
 20
9.0
  9
$UNITMODE
 70
     0
  9
$VISRETAIN
 70
     0
  9
$PLINEGEN
 70
     0
  9
$PSLTSCALE
 70
     0
  0
ENDSEC
  0
SECTION
  2
TABLES
  0
TABLE
  2
VPORT
 70
     1
  0
VPORT
  2
*ACTIVE
 70
     0
 10
0.0
 20
0.0
 11
1.0
 21
1.0
 12
172.54273504273499
 22
95.0
 13
0.0
 23
0.0
 14
1.8999999999999999
 24
1.8999999999999999
 15
10.0
 25
10.0
 16
0.0
 26
0.0
 36
1.0
 17
0.0
 27
0.0
 37
0.0
 40
190.0
 41
1.816239316239316
 42
50.0
 43
0.0
 44
0.0
 50
0.0
 51
0.0
 71
     0
 72
   100
 73
     1
 74
     0
 75
     0
 76
     0
 77
     0
 78
     1
  0
ENDTAB
  0
TABLE
  2
LTYPE
 70
     4
  0
LTYPE
  2
CONTINUOUS
 70
     0
  3
Solid Line
 72
    65
 73
     0
 40
0.0
  0
LTYPE
  2
CENTER
 70
     0
  3
____ _ ____ _ ____ _ ____ _ ____ _ ____ _ ____
 72
    65
 73
     4
 40
2.0
 49
1.25
 49
-0.25
 49
0.25
 49
-0.25
  0
LTYPE
  2
HIDDEN
 70
     0
  3
_ _ _ _ _ _ _ _ _ _ _ _ _ _ _ _ _ _ _ _ _ _ _
 72
    65
 73
     2
 40
0.375
 49
0.25
 49
-0.125
  0
LTYPE
  2
PHANTOM2
 70
     0
  3
___ _ _ ___ _ _ ___ _ _ ___ _ _
 72
    65
 73
     6
 40
1.25
 49
0.625
 49
-0.125
 49
0.125
 49
-0.125
 49
0.125
 49
-0.125
  0
ENDTAB
  0
TABLE
  2
LAYER
 70
     5
  0
LAYER
  2
0
 70
     0
 62
     7
  6
CONTINUOUS
  0
LAYER
  2
WAKU
 70
     0
 62
     7
  6
CONTINUOUS
  0
LAYER
  2
1
 70
     0
 62
     1
  6
CENTER
  0
LAYER
  2
2
 70
     0
 62
     2
  6
HIDDEN
  0
LAYER
  2
DEFPOINTS
 70
     0
 62
     7
  6
CONTINUOUS
  0
ENDTAB
  0
TABLE
  2
STYLE
 70
     2
  0
STYLE
  2
STANDARD
 70
     0
 40
0.0
 41
1.0
 50
0.0
 71
     0
 42
0.2
  3
ROMANS
  4
EXTFONT
  0
STYLE
  2
STANDARD1
 70
     0
 40
0.0
 41
1.0
 50
0.0
 71
     0
 42
3.0
  3
txt
  4

  0
ENDTAB
  0
TABLE
  2
VIEW
 70
     0
  0
ENDTAB
  0
TABLE
  2
UCS
 70
     0
  0
ENDTAB
  0
TABLE
  2
APPID
 70
    11
  0
APPID
  2
ACAD
 70
     0
  0
APPID
  2
GENIUS_GENOREF_13
 70
     0
  0
APPID
  2
ACAD_NAV_VCDISPLAY
 70
     0
  0
APPID
  2
ACADANNOTATIVE
 70
     0
  0
APPID
  2
ACAD_EXEMPT_FROM_CAD_STANDARDS
 70
     0
  0
APPID
  2
GENIUS_GENODEF_13
 70
     0
  0
APPID
  2
GENIUS_GENOBJ-N-FIL_13
 70
     0
  0
APPID
  2
ACAD_MLEADERVER
 70
     0
  0
APPID
  2
ACAD_DSTYLE_DIMRADIAL_EXTENSION
 70
     0
  0
APPID
  2
ACAD_DSTYLE_DIMJAG
 70
     0
  0
APPID
  2
ACAD_DSTYLE_DIMTALN
 70
     0
  0
ENDTAB
  0
TABLE
  2
DIMSTYLE
 70
     1
  0
DIMSTYLE
  2
STANDARD
 70
     0
  3

  4

  5

  6

  7

 40
1.0
 41
0.18
 42
0.0625
 43
0.38
 44
0.18
 45
0.0
 46
0.0
 47
0.0
 48
0.0
140
0.18
141
0.09
142
0.0
143
25.399999999999999
144
1.0
145
0.0
146
1.0
147
0.09
 71
     0
 72
     0
 73
     1
 74
     1
 75
     0
 76
     0
 77
     0
 78
     0
170
     0
171
     2
172
     0
173
     0
174
     0
175
     0
176
     0
177
     0
178
     0
  0
ENDTAB
  0
ENDSEC
  0
SECTION
  2
BLOCKS
  0
BLOCK
  8
0
  2
$MODEL_SPACE
 70
     0
 10
0.0
 20
0.0
 30
0.0
  3
$MODEL_SPACE
  1

  0
ENDBLK
  5
9
  8
0
  0
BLOCK
 67
     1
  8
0
  2
$PAPER_SPACE
 70
     0
 10
0.0
 20
0.0
 30
0.0
  3
$PAPER_SPACE
  1

  0
ENDBLK
  5
E
 67
     1
  8
0
  0
BLOCK
  8
0
  2
ARROW1
 70
     0
 10
0.0
 20
0.0
 30
0.0
  3
ARROW1
  1

  0
SOLID
  5
24
  8
WAKU
  6
CONTINUOUS
 62
     4
 10
-1.0
 20
0.1666666666666714
 30
0.0
 11
-1.0
 21
-0.1666666666666714
 31
0.0
 12
0.0
 22
0.0
 32
0.0
 13
0.0
 23
0.0
 33
0.0
  0
ENDBLK
  5
27
  8
0
  0
ENDSEC
  0
SECTION
  2
ENTITIES
  0
LINE
  5
2433
  8
2
 10
77.499999926999521
 20
59.933012701892203
 30
0.0
 11
77.499999926999521
 21
55.0
 31
0.0
  0
LINE
  5
2434
  8
2
 10
79.499999926999521
 20
55.0
 30
0.0
 11
79.499999926999521
 21
50.0
 31
0.0
  0
LINE
  5
2435
  8
2
 10
83.999999926999507
 20
50.0
 30
0.0
 11
83.999999926999507
 21
55.0
 31
0.0
  0
LINE
  5
2436
  8
2
 10
85.999999926999521
 20
55.0
 30
0.0
 11
77.499999926999521
 21
55.0
 31
0.0
  0
LINE
  5
2439
  8
2
 10
85.999999926999521
 20
55.0
 30
0.0
 11
85.999999926999521
 21
59.499999999999993
 31
0.0
  0
LINE
  5
243C
  8
2
 10
54.499999926999521
 20
55.0
 30
0.0
 11
54.499999926999521
 21
50.0
 31
0.0
  0
LINE
  5
243D
  8
2
 10
58.999999926999521
 20
50.0
 30
0.0
 11
58.999999926999521
 21
55.0
 31
0.0
  0
LINE
  5
243E
  8
2
 10
52.499999926999521
 20
59.499999999999993
 30
0.0
 11
52.499999926999521
 21
55.0
 31
0.0
  0
LINE
  5
243F
  8
2
 10
60.999999926999521
 20
55.0
 30
0.0
 11
60.999999926999521
 21
59.933012701892203
 31
0.0
  0
LINE
  5
2440
  8
2
 10
60.999999926999521
 20
55.0
 30
0.0
 11
52.499999926999521
 21
55.0
 31
0.0
  0
CIRCLE
  5
24EA
  8
0
 10
81.749999853999043
 20
146.30000004214679
 30
0.0
 40
2.25
  0
CIRCLE
  5
24EB
  8
0
 10
81.749999853999043
 20
121.2000000421468
 30
0.0
 40
2.25
  0
CIRCLE
  5
2512
  8
0
 10
56.749999853999043
 20
146.30000004214679
 30
0.0
 40
2.25
  0
CIRCLE
  5
2513
  8
0
 10
56.749999853999043
 20
121.2000000421468
 30
0.0
 40
2.25
  0
LINE
  5
4389
  8
2
 10
168.5499999999999
 20
55.0
 30
0.0
 11
168.5499999999999
 21
50.0
 31
0.0
  0
LINE
  5
438A
  8
2
 10
173.0499999999999
 20
50.0
 30
0.0
 11
173.0499999999999
 21
55.0
 31
0.0
  0
LINE
  5
438B
  8
2
 10
143.4499999999999
 20
55.0
 30
0.0
 11
143.4499999999999
 21
50.0
 31
0.0
  0
LINE
  5
438C
  8
2
 10
147.9499999999999
 20
50.0
 30
0.0
 11
147.9499999999999
 21
55.0
 31
0.0
  0
LINE
  5
4393
  8
2
 10
141.4499999999999
 20
59.499999999999993
 30
0.0
 11
141.4499999999999
 21
55.0
 31
0.0
  0
LINE
  5
4394
  8
2
 10
149.9499999999999
 20
55.0
 30
0.0
 11
149.9499999999999
 21
59.499999999999993
 31
0.0
  0
LINE
  5
4395
  8
2
 10
149.9499999999999
 20
55.0
 30
0.0
 11
141.4499999999999
 21
55.0
 31
0.0
  0
LINE
  5
439A
  8
2
 10
166.5499999999999
 20
59.499999999999993
 30
0.0
 11
166.5499999999999
 21
55.0
 31
0.0
  0
LINE
  5
439B
  8
2
 10
175.0499999999999
 20
55.0
 30
0.0
 11
175.0499999999999
 21
59.499999999999993
 31
0.0
  0
LINE
  5
439C
  8
2
 10
175.0499999999999
 20
55.0
 30
0.0
 11
166.5499999999999
 21
55.0
 31
0.0
  0
POLYLINE
  5
43D7
  8
0
 66
     1
 10
0.0
 20
0.0
 30
0.0
  0
VERTEX
  5
6F0A
  8
0
 10
172.68749999999989
 20
59.677746538901282
 30
0.0
  0
VERTEX
  5
6F0B
  8
0
 10
172.34844009997539
 20
59.764358538899522
 30
0.0
  0
VERTEX
  5
6F0C
  8
0
 10
171.99759563581651
 20
59.833579666225113
 30
0.0
  0
VERTEX
  5
6F0D
  8
0
 10
171.63763674574091
 20
59.884883106302311
 30
0.0
  0
VERTEX
  5
6F0E
  8
0
 10
171.27130293425131
 20
59.917878408974182
 30
0.0
  0
VERTEX
  5
6F0F
  8
0
 10
170.90138222285171
 20
59.932314460064347
 30
0.0
  0
VERTEX
  5
6F10
  8
0
 10
170.53068993151979
 20
59.928081392507288
 30
0.0
  0
VERTEX
  5
6F11
  8
0
 10
170.16204725242289
 20
59.905211422503058
 30
0.0
  0
VERTEX
  5
6F12
  8
0
 10
169.79825977894151
 20
59.863878604332697
 30
0.0
  0
VERTEX
  5
6F13
  8
0
 10
169.44209615340969
 20
59.804397505699903
 30
0.0
  0
VERTEX
  5
6F14
  8
0
 10
169.09626699607509
 20
59.727220813680951
 30
0.0
  0
VERTEX
  5
6F15
  8
0
 10
168.76340427564261
 20
59.63293588950264
 30
0.0
  0
VERTEX
  5
6F16
  8
0
 10
168.44604127840239
 20
59.522260298368792
 30
0.0
  0
VERTEX
  5
6F17
  8
0
 10
168.38908730975169
 20
59.499999999999993
 30
0.0
  0
SEQEND
  5
6F18
  8
0
  0
CIRCLE
  5
462F
  8
0
 10
81.749999853999043
 20
146.30000004214679
 30
0.0
 40
4.25
  0
CIRCLE
  5
4630
  8
0
 10
56.749999853999043
 20
146.30000004214679
 30
0.0
 40
4.25
  0
CIRCLE
  5
4631
  8
0
 10
56.749999853999043
 20
121.2000000421468
 30
0.0
 40
4.25
  0
CIRCLE
  5
4632
  8
0
 10
81.749999853999043
 20
121.2000000421468
 30
0.0
 40
4.25
  0
LINE
  5
46BD
  8
1
 10
69.249999853999043
 20
109.50000004214679
 30
0.0
 11
69.249999853999043
 21
158.00000004214681
 31
0.0
  0
LINE
  5
46BE
  8
1
 10
75.499999853999043
 20
121.2000000421468
 30
0.0
 11
87.999999853999043
 21
121.2000000421468
 31
0.0
  0
LINE
  5
46BF
  8
1
 10
81.7499998539991
 20
114.9500000421468
 30
0.0
 11
81.7499998539991
 21
127.4500000421468
 31
0.0
  0
LINE
  5
46C0
  8
1
 10
75.499999853999043
 20
146.30000004214679
 30
0.0
 11
87.999999853999043
 21
146.30000004214679
 31
0.0
  0
LINE
  5
46C1
  8
1
 10
81.7499998539991
 20
140.05000004214679
 30
0.0
 11
81.7499998539991
 21
152.55000004214679
 31
0.0
  0
LINE
  5
46C2
  8
1
 10
50.499999853999043
 20
121.2000000421468
 30
0.0
 11
62.999999853999043
 21
121.2000000421468
 31
0.0
  0
LINE
  5
46C3
  8
1
 10
56.749999853999043
 20
114.9500000421468
 30
0.0
 11
56.749999853999043
 21
127.4500000421468
 31
0.0
  0
LINE
  5
46C4
  8
1
 10
50.499999853999043
 20
146.30000004214679
 30
0.0
 11
62.999999853999043
 21
146.30000004214679
 31
0.0
  0
LINE
  5
46C5
  8
1
 10
56.749999853999043
 20
140.05000004214679
 30
0.0
 11
56.749999853999043
 21
152.55000004214679
 31
0.0
  0
LINE
  5
46C6
  8
0
 10
72.499999853999043
 20
153.50000004214681
 30
0.0
 11
72.499999853999043
 21
153.00000004214681
 31
0.0
  0
LINE
  5
46C7
  8
0
 10
72.499999853999043
 20
114.50000004214679
 30
0.0
 11
72.499999853999043
 21
114.00000004214679
 31
0.0
  0
LINE
  5
46C8
  8
0
 10
80.2499998539991
 20
153.50000004214681
 30
0.0
 11
80.2499998539991
 21
150.27649347229351
 31
0.0
  0
LINE
  5
46C9
  8
0
 10
72.499999853999043
 20
114.00000004214679
 30
0.0
 11
88.499999853999086
 21
114.00000004214679
 31
0.0
  0
LINE
  5
46CA
  8
0
 10
88.499999853999086
 20
153.50000004214681
 30
0.0
 11
88.499999853999086
 21
114.00000004214679
 31
0.0
  0
LINE
  5
46CB
  8
0
 10
72.499999853999043
 20
153.50000004214681
 30
0.0
 11
88.499999853999086
 21
153.50000004214681
 31
0.0
  0
LINE
  5
46CC
  8
0
 10
79.2499998539991
 20
128.93750004214681
 30
0.0
 11
79.2499998539991
 21
124.6369318133637
 31
0.0
  0
LINE
  5
46CD
  8
0
 10
79.2499998539991
 20
133.75000004214681
 30
0.0
 11
79.2499998539991
 21
138.56250004214681
 31
0.0
  0
LINE
  5
46CF
  8
0
 10
64.749999780998564
 20
114.50000004214679
 30
0.0
 11
79.2499998539991
 21
114.50000004214679
 31
0.0
  0
LINE
  5
46D0
  8
0
 10
79.2499998539991
 20
117.76306827092991
 30
0.0
 11
79.2499998539991
 21
114.50000004214679
 31
0.0
  0
LINE
  5
46D1
  8
0
 10
64.749999780998564
 20
148.18750004214681
 30
0.0
 11
64.749999780998564
 21
143.37500004214681
 31
0.0
  0
LINE
  5
46D2
  8
0
 10
64.749999780998564
 20
128.93750004214681
 30
0.0
 11
64.749999780998564
 21
124.12500004214679
 31
0.0
  0
LINE
  5
46D3
  8
0
 10
64.749999780998564
 20
138.56250004214681
 30
0.0
 11
64.749999780998564
 21
133.75000004214681
 31
0.0
  0
LINE
  5
46D4
  8
0
 10
64.749999780998564
 20
119.31250004214679
 30
0.0
 11
64.749999780998564
 21
114.50000004214679
 31
0.0
  0
LINE
  5
46D5
  8
0
 10
49.999999853999043
 20
114.00000004214679
 30
0.0
 11
49.999999853999043
 21
153.50000004214681
 31
0.0
  0
LINE
  5
46D6
  8
0
 10
65.999999853999043
 20
114.00000004214679
 30
0.0
 11
65.999999853999043
 21
114.50000004214679
 31
0.0
  0
LINE
  5
46D7
  8
0
 10
65.999999853999043
 20
153.00000004214681
 30
0.0
 11
65.999999853999043
 21
153.50000004214681
 31
0.0
  0
LINE
  5
46D8
  8
0
 10
65.999999853999043
 20
153.50000004214681
 30
0.0
 11
49.999999853999043
 21
153.50000004214681
 31
0.0
  0
LINE
  5
46D9
  8
0
 10
58.249999853999043
 20
114.00000004214679
 30
0.0
 11
58.249999853999043
 21
117.22350661200009
 31
0.0
  0
LINE
  5
46DA
  8
0
 10
65.999999853999043
 20
114.00000004214679
 30
0.0
 11
49.999999853999043
 21
114.00000004214679
 31
0.0
  0
LINE
  5
46DB
  8
0
 10
73.749999926999465
 20
153.00000004214681
 30
0.0
 11
59.249999853999043
 21
153.00000004214681
 31
0.0
  0
LINE
  5
46DC
  8
0
 10
77.942133817752506
 20
148.18750004214681
 30
0.0
 11
60.55786589024558
 21
148.18750004214681
 31
0.0
  0
LINE
  5
46DD
  8
0
 10
59.249999853999043
 20
149.7369318133637
 30
0.0
 11
59.249999853999043
 21
153.00000004214681
 31
0.0
  0
LINE
  5
46DE
  8
0
 10
79.2499998539991
 20
138.56250004214681
 30
0.0
 11
59.249999853999043
 21
138.56250004214681
 31
0.0
  0
LINE
  5
46DF
  8
0
 10
78.666677781947556
 20
143.37500004214681
 30
0.0
 11
59.83332192605053
 21
143.37500004214681
 31
0.0
  0
LINE
  5
46E0
  8
0
 10
59.249999853999043
 20
138.56250004214681
 30
0.0
 11
59.249999853999043
 21
142.86306827092989
 31
0.0
  0
LINE
  5
46E1
  8
0
 10
79.2499998539991
 20
128.93750004214681
 30
0.0
 11
59.249999853999043
 21
128.93750004214681
 31
0.0
  0
LINE
  5
46E2
  8
0
 10
79.2499998539991
 20
133.75000004214681
 30
0.0
 11
59.249999853999043
 21
133.75000004214681
 31
0.0
  0
LINE
  5
46E3
  8
0
 10
59.249999853999043
 20
133.75000004214681
 30
0.0
 11
59.249999853999043
 21
128.93750004214681
 31
0.0
  0
LINE
  5
46E4
  8
0
 10
77.942133817752506
 20
119.31250004214679
 30
0.0
 11
60.55786589024558
 21
119.31250004214679
 31
0.0
  0
LINE
  5
46E5
  8
0
 10
78.666677781947556
 20
124.12500004214679
 30
0.0
 11
59.83332192605053
 21
124.12500004214679
 31
0.0
  0
LINE
  5
46E7
  8
0
 10
73.749999926999465
 20
148.18750004214681
 30
0.0
 11
73.749999926999465
 21
153.00000004214681
 31
0.0
  0
LINE
  5
46E8
  8
0
 10
73.749999926999465
 20
138.56250004214681
 30
0.0
 11
73.749999926999465
 21
143.37500004214681
 31
0.0
  0
LINE
  5
46E9
  8
0
 10
73.749999926999465
 20
128.93750004214681
 30
0.0
 11
73.749999926999465
 21
133.75000004214681
 31
0.0
  0
LINE
  5
46EA
  8
0
 10
73.749999926999465
 20
119.31250004214679
 30
0.0
 11
73.749999926999465
 21
124.12500004214679
 31
0.0
  0
LINE
  5
46EB
  8
1
 10
93.499999853999086
 20
133.75000004214681
 30
0.0
 11
44.999999853999043
 21
133.75000004214681
 31
0.0
  0
LINE
  5
4726
  8
0
 10
58.249999853999043
 20
125.1764934722935
 30
0.0
 11
58.249999853999043
 21
142.3235066120001
 31
0.0
  0
LINE
  5
4727
  8
0
 10
80.2499998539991
 20
117.22350661200009
 30
0.0
 11
80.2499998539991
 21
114.00000004214679
 31
0.0
  0
LINE
  5
4728
  8
0
 10
80.2499998539991
 20
142.3235066120001
 30
0.0
 11
80.2499998539991
 21
125.1764934722935
 31
0.0
  0
LINE
  5
4729
  8
0
 10
58.249999853999043
 20
150.27649347229351
 30
0.0
 11
58.249999853999043
 21
153.50000004214681
 31
0.0
  0
LINE
  5
47C8
  8
1
 10
81.749999999999943
 20
61.499999999999993
 30
0.0
 11
81.749999999999943
 21
47.999999999999993
 31
0.0
  0
LINE
  5
47C9
  8
1
 10
65.75
 20
59.500000042146858
 30
0.0
 11
72.75
 21
59.50000004214683
 31
0.0
  0
LINE
  5
47CA
  8
1
 10
69.249999926999521
 20
55.999999999999993
 30
0.0
 11
69.249999926999521
 21
62.999999999999993
 31
0.0
  0
LINE
  5
47CB
  8
1
 10
56.75
 20
61.499999999999993
 30
0.0
 11
56.75
 21
47.999999999999993
 31
0.0
  0
LINE
  5
47CC
  8
0
 10
74.499999999999943
 20
51.272758664047828
 30
0.0
 11
67.0
 21
55.602885682970019
 31
0.0
  0
LINE
  5
47CD
  8
0
 10
71.5
 20
63.397114317029988
 30
0.0
 11
79.249999999999943
 21
58.92264973081037
 31
0.0
  0
CIRCLE
  5
47CE
  8
0
 10
69.25
 20
59.499999999999993
 30
0.0
 40
1.5
  0
ARC
  5
47CF
  8
0
 10
69.249999926999521
 20
59.50000004214683
 30
0.0
 40
4.5
 50
59.999998926740197
 51
240.00000107325971
  0
LINE
  5
47D0
  8
0
 10
72.5
 20
52.42745920242708
 30
0.0
 11
72.5
 21
55.025535413780389
 31
0.0
  0
LINE
  5
47D1
  8
0
 10
72.5
 20
55.025535413780389
 30
0.0
 11
80.249999999999943
 21
59.499999999999993
 31
0.0
  0
ARC
  5
47D2
  8
0
 10
86.388888888888843
 20
57.388888888888879
 30
0.0
 40
2.1111111111111178
 50
0.0
 51
90.0
  0
LINE
  5
47D3
  8
0
 10
80.249999999999943
 20
59.499999999999993
 30
0.0
 11
86.388888888888843
 21
59.499999999999993
 31
0.0
  0
LINE
  5
47D4
  8
0
 10
74.499999999999943
 20
50.0
 30
0.0
 11
74.499999999999943
 21
51.272758664047828
 31
0.0
  0
LINE
  5
47D5
  8
0
 10
88.499999999999943
 20
50.0
 30
0.0
 11
74.499999999999943
 21
50.0
 31
0.0
  0
LINE
  5
47D6
  8
0
 10
88.499999999999943
 20
57.388888888888879
 30
0.0
 11
88.499999999999943
 21
50.0
 31
0.0
  0
LINE
  5
47D7
  8
0
 10
64.0
 20
51.272758664047828
 30
0.0
 11
69.25
 21
54.303847577293361
 31
0.0
  0
LINE
  5
47D8
  8
0
 10
67.0
 20
63.397114317029988
 30
0.0
 11
59.25
 21
58.92264973081037
 31
0.0
  0
LINE
  5
47D9
  8
0
 10
66.0
 20
55.025535413780389
 30
0.0
 11
58.25
 21
59.499999999999993
 31
0.0
  0
ARC
  5
47DA
  8
0
 10
52.111111111111143
 20
57.388888888888879
 30
0.0
 40
2.1111111111111138
 50
90.0
 51
180.0
  0
LINE
  5
47DB
  8
0
 10
50.0
 20
57.388888888888879
 30
0.0
 11
50.0
 21
50.0
 31
0.0
  0
LINE
  5
47DC
  8
0
 10
50.0
 20
50.0
 30
0.0
 11
64.0
 21
50.0
 31
0.0
  0
LINE
  5
47DD
  8
0
 10
64.0
 20
50.0
 30
0.0
 11
64.0
 21
51.272758664047828
 31
0.0
  0
LINE
  5
47DE
  8
0
 10
66.0
 20
52.42745920242708
 30
0.0
 11
66.0
 21
55.025535413780389
 31
0.0
  0
LINE
  5
47DF
  8
0
 10
58.25
 20
59.499999999999993
 30
0.0
 11
52.111111111111143
 21
59.499999999999993
 31
0.0
  0
LINE
  5
487C
  8
1
 10
170.80000000000001
 20
61.50000000000005
 30
0.0
 11
170.7999999999999
 21
48.000000000000021
 31
0.0
  0
LINE
  5
487D
  8
1
 10
145.69999999999999
 20
61.50000000000005
 30
0.0
 11
145.6999999999999
 21
48.000000000000021
 31
0.0
  0
LINE
  5
487E
  8
0
 10
177.49999999999989
 20
59.499999999999993
 30
0.0
 11
177.49999999999989
 21
64.000000042146837
 31
0.0
  0
LINE
  5
487F
  8
0
 10
177.49999999999989
 20
64.000000042146837
 30
0.0
 11
138.99999999999989
 21
64.000000042146837
 31
0.0
  0
LINE
  5
4880
  8
0
 10
143.81249999999989
 20
64.000000042146837
 30
0.0
 11
143.81249999999989
 21
59.499999999999993
 31
0.0
  0
LINE
  5
4881
  8
0
 10
138.99999999999989
 20
64.000000042146837
 30
0.0
 11
138.99999999999989
 21
59.499999999999993
 31
0.0
  0
LINE
  5
4882
  8
0
 10
153.43749999999989
 20
64.000000042146837
 30
0.0
 11
153.43749999999989
 21
59.499999999999993
 31
0.0
  0
LINE
  5
4883
  8
0
 10
148.62499999999989
 20
64.000000042146837
 30
0.0
 11
148.62499999999989
 21
59.499999999999993
 31
0.0
  0
LINE
  5
4884
  8
0
 10
158.24999999999989
 20
64.000000042146837
 30
0.0
 11
158.24999999999989
 21
59.499999999999993
 31
0.0
  0
LINE
  5
4885
  8
0
 10
163.06249999999989
 20
64.000000042146837
 30
0.0
 11
163.06249999999989
 21
59.499999999999993
 31
0.0
  0
LINE
  5
4886
  8
0
 10
167.87499999999989
 20
64.000000042146837
 30
0.0
 11
167.87499999999989
 21
59.499999999999993
 31
0.0
  0
LINE
  5
4887
  8
0
 10
172.68749999999989
 20
64.000000042146837
 30
0.0
 11
172.68749999999989
 21
59.499999999999993
 31
0.0
  0
LINE
  5
4888
  8
0
 10
138.49999999999989
 20
59.499999999999993
 30
0.0
 11
138.49999999999989
 21
50.0
 31
0.0
  0
LINE
  5
4889
  8
0
 10
177.99999999999989
 20
50.0
 30
0.0
 11
138.49999999999989
 21
50.0
 31
0.0
  0
LINE
  5
488A
  8
0
 10
177.99999999999989
 20
59.499999999999993
 30
0.0
 11
177.99999999999989
 21
50.0
 31
0.0
  0
LINE
  5
488B
  8
0
 10
177.99999999999989
 20
59.499999999999993
 30
0.0
 11
138.49999999999989
 21
59.499999999999993
 31
0.0
  0
LINE
  5
488C
  8
1
 10
158.24999999999989
 20
69.000000042146837
 30
0.0
 11
158.24999999999989
 21
44.999999999999993
 31
0.0
  0
TEXT
  5
6BC9
  8
0
 62
     3
 10
0.0
 20
0.0
 30
0.0
 40
10.0
  1
EFHX4040CH
  7
STANDARD1
  0
ENDSEC
  0
EOF
