  0
SECTION
  2
HEADER
  9
$ACADVER
  1
AC1009
  9
$INSBASE
 10
0.0
 20
0.0
 30
0.0
  9
$EXTMIN
 10
0.0
 20
-2.960436562073669
 30
0.0
  9
$EXTMAX
 10
178.0
 20
158.00000008429359
 30
0.0
  9
$LIMMIN
 10
0.0
 20
0.0
  9
$LIMMAX
 10
420.0
 20
330.0
  9
$ORTHOMODE
 70
     1
  9
$REGENMODE
 70
     1
  9
$FILLMODE
 70
     1
  9
$QTEXTMODE
 70
     0
  9
$MIRRTEXT
 70
     0
  9
$DRAGMODE
 70
     2
  9
$LTSCALE
 40
5.0
  9
$OSMODE
 70
    37
  9
$ATTMODE
 70
     1
  9
$TEXTSIZE
 40
0.2
  9
$TRACEWID
 40
0.05
  9
$TEXTSTYLE
  7
STANDARD
  9
$CLAYER
  8
0
  9
$CELTYPE
  6
BYLAYER
  9
$CECOLOR
 62
   256
  9
$DIMSCALE
 40
1.0
  9
$DIMASZ
 40
3.0
  9
$DIMEXO
 40
1.0
  9
$DIMDLI
 40
0.3799999999999999
  9
$DIMRND
 40
0.0
  9
$DIMDLE
 40
0.0
  9
$DIMEXE
 40
1.0
  9
$DIMTP
 40
0.0
  9
$DIMTM
 40
0.0
  9
$DIMTXT
 40
3.0
  9
$DIMCEN
 40
0.09
  9
$DIMTSZ
 40
0.0
  9
$DIMTOL
 70
     0
  9
$DIMLIM
 70
     0
  9
$DIMTIH
 70
     0
  9
$DIMTOH
 70
     0
  9
$DIMSE1
 70
     0
  9
$DIMSE2
 70
     0
  9
$DIMTAD
 70
     1
  9
$DIMZIN
 70
     8
  9
$DIMBLK
  1

  9
$DIMASO
 70
     0
  9
$DIMSHO
 70
     1
  9
$DIMPOST
  1

  9
$DIMAPOST
  1

  9
$DIMALT
 70
     0
  9
$DIMALTD
 70
     2
  9
$DIMALTF
 40
25.399999999999999
  9
$DIMLFAC
 40
1.0
  9
$DIMTOFL
 70
     0
  9
$DIMTVP
 40
0.0
  9
$DIMTIX
 70
     0
  9
$DIMSOXD
 70
     0
  9
$DIMSAH
 70
     0
  9
$DIMBLK1
  1

  9
$DIMBLK2
  1

  9
$DIMSTYLE
  2
STANDARD
  9
$DIMCLRD
 70
     0
  9
$DIMCLRE
 70
     0
  9
$DIMCLRT
 70
     0
  9
$DIMTFAC
 40
1.0
  9
$DIMGAP
 40
0.5
  9
$LUNITS
 70
     2
  9
$LUPREC
 70
     1
  9
$SKETCHINC
 40
0.1
  9
$FILLETRAD
 40
0.5
  9
$AUNITS
 70
     0
  9
$AUPREC
 70
     1
  9
$MENU
  1
ACAD
  9
$ELEVATION
 40
0.0
  9
$PELEVATION
 40
0.0
  9
$THICKNESS
 40
0.0
  9
$LIMCHECK
 70
     0
  9
$BLIPMODE
 70
     0
  9
$CHAMFERA
 40
0.1
  9
$CHAMFERB
 40
0.1
  9
$SKPOLY
 70
     0
  9
$TDCREATE
 40
2449640.5627083331
  9
$TDUPDATE
 40
2457893.6526861461
  9
$TDINDWG
 40
1.5882614815
  9
$TDUSRTIMER
 40
1.5882614815
  9
$USRTIMER
 70
     1
  9
$ANGBASE
 50
0.0
  9
$ANGDIR
 70
     0
  9
$PDMODE
 70
     0
  9
$PDSIZE
 40
0.0
  9
$PLINEWID
 40
0.0
  9
$COORDS
 70
     1
  9
$SPLFRAME
 70
     0
  9
$SPLINETYPE
 70
     6
  9
$SPLINESEGS
 70
     8
  9
$ATTDIA
 70
     0
  9
$ATTREQ
 70
     1
  9
$HANDLING
 70
     1
  9
$HANDSEED
  5
6F95
  9
$SURFTAB1
 70
     6
  9
$SURFTAB2
 70
     6
  9
$SURFTYPE
 70
     6
  9
$SURFU
 70
     6
  9
$SURFV
 70
     6
  9
$UCSNAME
  2

  9
$UCSORG
 10
0.0
 20
0.0
 30
0.0
  9
$UCSXDIR
 10
1.0
 20
0.0
 30
0.0
  9
$UCSYDIR
 10
0.0
 20
1.0
 30
0.0
  9
$PUCSNAME
  2

  9
$PUCSORG
 10
0.0
 20
0.0
 30
0.0
  9
$PUCSXDIR
 10
1.0
 20
0.0
 30
0.0
  9
$PUCSYDIR
 10
0.0
 20
1.0
 30
0.0
  9
$USERI1
 70
     0
  9
$USERI2
 70
     1
  9
$USERI3
 70
     1
  9
$USERI4
 70
     0
  9
$USERI5
 70
     0
  9
$USERR1
 40
0.0
  9
$USERR2
 40
0.0
  9
$USERR3
 40
0.0
  9
$USERR4
 40
0.0
  9
$USERR5
 40
10.0
  9
$WORLDVIEW
 70
     1
  9
$SHADEDGE
 70
     3
  9
$SHADEDIF
 70
    70
  9
$TILEMODE
 70
     1
  9
$MAXACTVP
 70
    16
  9
$PLIMCHECK
 70
     0
  9
$PEXTMIN
 10
1.0000000000000000E+020
 20
1.0000000000000000E+020
 30
1.0000000000000000E+020
  9
$PEXTMAX
 10
-1.0000000000000000E+020
 20
-1.0000000000000000E+020
 30
-1.0000000000000000E+020
  9
$PLIMMIN
 10
0.0
 20
0.0
  9
$PLIMMAX
 10
12.0
 20
9.0
  9
$UNITMODE
 70
     0
  9
$VISRETAIN
 70
     0
  9
$PLINEGEN
 70
     0
  9
$PSLTSCALE
 70
     0
  0
ENDSEC
  0
SECTION
  2
TABLES
  0
TABLE
  2
VPORT
 70
     1
  0
VPORT
  2
*ACTIVE
 70
     0
 10
0.0
 20
0.0
 11
1.0
 21
1.0
 12
172.54273504273499
 22
95.0
 13
0.0
 23
0.0
 14
1.8999999999999999
 24
1.8999999999999999
 15
10.0
 25
10.0
 16
0.0
 26
0.0
 36
1.0
 17
0.0
 27
0.0
 37
0.0
 40
190.0
 41
1.816239316239316
 42
50.0
 43
0.0
 44
0.0
 50
0.0
 51
0.0
 71
     0
 72
   100
 73
     1
 74
     0
 75
     0
 76
     0
 77
     0
 78
     1
  0
ENDTAB
  0
TABLE
  2
LTYPE
 70
     4
  0
LTYPE
  2
CONTINUOUS
 70
     0
  3
Solid Line
 72
    65
 73
     0
 40
0.0
  0
LTYPE
  2
CENTER
 70
     0
  3
____ _ ____ _ ____ _ ____ _ ____ _ ____ _ ____
 72
    65
 73
     4
 40
2.0
 49
1.25
 49
-0.25
 49
0.25
 49
-0.25
  0
LTYPE
  2
HIDDEN
 70
     0
  3
_ _ _ _ _ _ _ _ _ _ _ _ _ _ _ _ _ _ _ _ _ _ _
 72
    65
 73
     2
 40
0.375
 49
0.25
 49
-0.125
  0
LTYPE
  2
PHANTOM2
 70
     0
  3
___ _ _ ___ _ _ ___ _ _ ___ _ _
 72
    65
 73
     6
 40
1.25
 49
0.625
 49
-0.125
 49
0.125
 49
-0.125
 49
0.125
 49
-0.125
  0
ENDTAB
  0
TABLE
  2
LAYER
 70
     5
  0
LAYER
  2
0
 70
     0
 62
     7
  6
CONTINUOUS
  0
LAYER
  2
WAKU
 70
     0
 62
     7
  6
CONTINUOUS
  0
LAYER
  2
1
 70
     0
 62
     1
  6
CENTER
  0
LAYER
  2
2
 70
     0
 62
     2
  6
HIDDEN
  0
LAYER
  2
DEFPOINTS
 70
     0
 62
     7
  6
CONTINUOUS
  0
ENDTAB
  0
TABLE
  2
STYLE
 70
     2
  0
STYLE
  2
STANDARD
 70
     0
 40
0.0
 41
1.0
 50
0.0
 71
     0
 42
0.2
  3
ROMANS
  4
EXTFONT
  0
STYLE
  2
STANDARD1
 70
     0
 40
0.0
 41
1.0
 50
0.0
 71
     0
 42
3.0
  3
txt
  4

  0
ENDTAB
  0
TABLE
  2
VIEW
 70
     0
  0
ENDTAB
  0
TABLE
  2
UCS
 70
     0
  0
ENDTAB
  0
TABLE
  2
APPID
 70
    11
  0
APPID
  2
ACAD
 70
     0
  0
APPID
  2
GENIUS_GENOREF_13
 70
     0
  0
APPID
  2
ACAD_NAV_VCDISPLAY
 70
     0
  0
APPID
  2
ACADANNOTATIVE
 70
     0
  0
APPID
  2
ACAD_EXEMPT_FROM_CAD_STANDARDS
 70
     0
  0
APPID
  2
GENIUS_GENODEF_13
 70
     0
  0
APPID
  2
GENIUS_GENOBJ-N-FIL_13
 70
     0
  0
APPID
  2
ACAD_MLEADERVER
 70
     0
  0
APPID
  2
ACAD_DSTYLE_DIMRADIAL_EXTENSION
 70
     0
  0
APPID
  2
ACAD_DSTYLE_DIMJAG
 70
     0
  0
APPID
  2
ACAD_DSTYLE_DIMTALN
 70
     0
  0
ENDTAB
  0
TABLE
  2
DIMSTYLE
 70
     1
  0
DIMSTYLE
  2
STANDARD
 70
     0
  3

  4

  5

  6

  7

 40
1.0
 41
0.18
 42
0.0625
 43
0.38
 44
0.18
 45
0.0
 46
0.0
 47
0.0
 48
0.0
140
0.18
141
0.09
142
0.0
143
25.399999999999999
144
1.0
145
0.0
146
1.0
147
0.09
 71
     0
 72
     0
 73
     1
 74
     1
 75
     0
 76
     0
 77
     0
 78
     0
170
     0
171
     2
172
     0
173
     0
174
     0
175
     0
176
     0
177
     0
178
     0
  0
ENDTAB
  0
ENDSEC
  0
SECTION
  2
BLOCKS
  0
BLOCK
  8
0
  2
$MODEL_SPACE
 70
     0
 10
0.0
 20
0.0
 30
0.0
  3
$MODEL_SPACE
  1

  0
ENDBLK
  5
9
  8
0
  0
BLOCK
 67
     1
  8
0
  2
$PAPER_SPACE
 70
     0
 10
0.0
 20
0.0
 30
0.0
  3
$PAPER_SPACE
  1

  0
ENDBLK
  5
E
 67
     1
  8
0
  0
BLOCK
  8
0
  2
ARROW1
 70
     0
 10
0.0
 20
0.0
 30
0.0
  3
ARROW1
  1

  0
SOLID
  5
24
  8
WAKU
  6
CONTINUOUS
 62
     4
 10
-1.0
 20
0.1666666666666714
 30
0.0
 11
-1.0
 21
-0.1666666666666714
 31
0.0
 12
0.0
 22
0.0
 32
0.0
 13
0.0
 23
0.0
 33
0.0
  0
ENDBLK
  5
27
  8
0
  0
ENDSEC
  0
SECTION
  2
ENTITIES
  0
LINE
  5
2467
  8
2
 10
77.5
 20
59.93301274403904
 30
0.0
 11
77.5
 21
59.50000004214683
 31
0.0
  0
LINE
  5
2468
  8
2
 10
78.25
 20
59.50000004214683
 30
0.0
 11
77.5
 21
59.50000004214683
 31
0.0
  0
LINE
  5
2469
  8
2
 10
77.5
 20
59.50000004214683
 30
0.0
 11
79.5
 21
57.50000004214683
 31
0.0
  0
LINE
  5
246B
  8
2
 10
79.5
 20
57.50000004214683
 30
0.0
 11
79.5
 21
50.00000004214683
 31
0.0
  0
LINE
  5
246C
  8
2
 10
84.0
 20
50.00000004214683
 30
0.0
 11
84.0
 21
57.50000004214683
 31
0.0
  0
LINE
  5
246D
  8
2
 10
84.0
 20
57.50000004214683
 30
0.0
 11
79.5
 21
57.50000004214683
 31
0.0
  0
LINE
  5
246F
  8
2
 10
84.0
 20
57.50000004214683
 30
0.0
 11
86.0
 21
59.50000004214683
 31
0.0
  0
LINE
  5
2470
  8
2
 10
61.00000000000005
 20
59.50000004214683
 30
0.0
 11
61.00000000000005
 21
59.93301274403904
 31
0.0
  0
LINE
  5
2473
  8
2
 10
54.500000000000057
 20
57.50000004214683
 30
0.0
 11
54.500000000000057
 21
50.00000004214683
 31
0.0
  0
LINE
  5
2474
  8
2
 10
59.00000000000005
 20
50.00000004214683
 30
0.0
 11
59.00000000000005
 21
57.50000004214683
 31
0.0
  0
LINE
  5
2475
  8
2
 10
59.00000000000005
 20
57.50000004214683
 30
0.0
 11
61.00000000000005
 21
59.50000004214683
 31
0.0
  0
LINE
  5
2476
  8
2
 10
52.500000000000057
 20
59.50000004214683
 30
0.0
 11
54.500000000000057
 21
57.50000004214683
 31
0.0
  0
LINE
  5
2477
  8
2
 10
59.00000000000005
 20
57.50000004214683
 30
0.0
 11
54.500000000000057
 21
57.50000004214683
 31
0.0
  0
LINE
  5
2478
  8
2
 10
61.00000000000005
 20
59.50000004214683
 30
0.0
 11
60.250000000000171
 21
59.50000004214683
 31
0.0
  0
CIRCLE
  5
2564
  8
0
 10
81.749999926999635
 20
146.30000008429371
 30
0.0
 40
2.25
  0
POLYLINE
  5
2565
  8
0
 66
     1
 10
0.0
 20
0.0
 30
0.0
  0
VERTEX
  5
6F09
  8
0
 10
80.249999926999635
 20
150.2764935144404
 30
0.0
  0
VERTEX
  5
6F0A
  8
0
 10
79.84810265972942
 20
149.83932566194471
 30
0.0
  0
VERTEX
  5
6F0B
  8
0
 10
79.494399580956497
 20
149.3752214047
 30
0.0
  0
VERTEX
  5
6F0C
  8
0
 10
79.191582584681782
 20
148.8877128563376
 30
0.0
  0
VERTEX
  5
6F0D
  8
0
 10
78.941956291092765
 20
148.38051025127621
 30
0.0
  0
VERTEX
  5
6F0E
  8
0
 10
78.863034765852035
 20
148.18750008429359
 30
0.0
  0
SEQEND
  5
6F0F
  8
0
  0
POLYLINE
  5
2566
  8
0
 66
     1
 10
0.0
 20
0.0
 30
0.0
  0
VERTEX
  5
6F10
  8
0
 10
79.249999926999635
 20
143.60958077771309
 30
0.0
  0
VERTEX
  5
6F11
  8
0
 10
79.563557887646084
 20
143.12662017501501
 30
0.0
  0
VERTEX
  5
6F12
  8
0
 10
79.927475594318139
 20
142.66781090956579
 30
0.0
  0
VERTEX
  5
6F13
  8
0
 10
80.249999926999635
 20
142.32350665414691
 30
0.0
  0
SEQEND
  5
6F14
  8
0
  0
ARC
  5
256A
  8
0
 10
81.749999926999635
 20
146.30000008429371
 30
0.0
 40
4.25
 50
249.33268350648609
 51
110.6673164935103
  0
CIRCLE
  5
2570
  8
0
 10
81.749999926999635
 20
121.20000008429361
 30
0.0
 40
2.25
  0
POLYLINE
  5
2571
  8
0
 66
     1
 10
0.0
 20
0.0
 30
0.0
  0
VERTEX
  5
6F15
  8
0
 10
79.249999926999635
 20
118.5095807777131
 30
0.0
  0
VERTEX
  5
6F16
  8
0
 10
79.563557887646084
 20
118.026620175015
 30
0.0
  0
VERTEX
  5
6F17
  8
0
 10
79.927475594318139
 20
117.56781090956569
 30
0.0
  0
VERTEX
  5
6F18
  8
0
 10
80.249999926999635
 20
117.2235066541469
 30
0.0
  0
SEQEND
  5
6F19
  8
0
  0
ARC
  5
2572
  8
0
 10
81.749999926999635
 20
121.20000008429361
 30
0.0
 40
4.25
 50
249.33268350648609
 51
110.6673164935103
  0
POLYLINE
  5
2573
  8
0
 66
     1
 10
0.0
 20
0.0
 30
0.0
  0
VERTEX
  5
6F1A
  8
0
 10
80.249999926999635
 20
125.17649351444039
 30
0.0
  0
VERTEX
  5
6F1B
  8
0
 10
79.84810265972942
 20
124.7393256619447
 30
0.0
  0
VERTEX
  5
6F1C
  8
0
 10
79.494399580956497
 20
124.27522140470001
 30
0.0
  0
VERTEX
  5
6F1D
  8
0
 10
79.191582584681782
 20
123.78771285633761
 30
0.0
  0
VERTEX
  5
6F1E
  8
0
 10
78.941956291092765
 20
123.2805102512762
 30
0.0
  0
VERTEX
  5
6F1F
  8
0
 10
78.747420507012293
 20
122.7574737075977
 30
0.0
  0
VERTEX
  5
6F20
  8
0
 10
78.609455767221107
 20
122.2225838492175
 30
0.0
  0
VERTEX
  5
6F21
  8
0
 10
78.529112066694324
 20
121.67991151093339
 30
0.0
  0
VERTEX
  5
6F22
  8
0
 10
78.507000869505873
 20
121.133586756914
 30
0.0
  0
VERTEX
  5
6F23
  8
0
 10
78.54329045521763
 20
120.58776744841749
 30
0.0
  0
VERTEX
  5
6F24
  8
0
 10
78.63770463816968
 20
120.0466075999562
 30
0.0
  0
VERTEX
  5
6F25
  8
0
 10
78.789524869421257
 20
119.5142257647381
 30
0.0
  0
VERTEX
  5
6F26
  8
0
 10
78.863034765852035
 20
119.3125000842937
 30
0.0
  0
SEQEND
  5
6F27
  8
0
  0
POLYLINE
  5
2575
  8
0
 66
     1
 10
0.0
 20
0.0
 30
0.0
  0
VERTEX
  5
6F28
  8
0
 10
77.942133890752984
 20
148.18750008429359
 30
0.0
  0
VERTEX
  5
6F29
  8
0
 10
77.792117506210843
 20
147.84844018426921
 30
0.0
  0
VERTEX
  5
6F2A
  8
0
 10
77.67222299672585
 20
147.49759572011021
 30
0.0
  0
VERTEX
  5
6F2B
  8
0
 10
77.583362831908971
 20
147.13763683003461
 30
0.0
  0
VERTEX
  5
6F2C
  8
0
 10
77.526213291270096
 20
146.7713030185451
 30
0.0
  0
VERTEX
  5
6F2D
  8
0
 10
77.501209317321354
 20
146.40138230714541
 30
0.0
  0
VERTEX
  5
6F2E
  8
0
 10
77.508541205402025
 20
146.03069001581349
 30
0.0
  0
VERTEX
  5
6F2F
  8
0
 10
77.548153155416912
 20
145.66204733671671
 30
0.0
  0
VERTEX
  5
6F30
  8
0
 10
77.619743696508067
 20
145.2982598632353
 30
0.0
  0
VERTEX
  5
6F31
  8
0
 10
77.722767981430025
 20
144.9420962377034
 30
0.0
  0
VERTEX
  5
6F32
  8
0
 10
77.856441933166934
 20
144.59626708036879
 30
0.0
  0
VERTEX
  5
6F33
  8
0
 10
78.019748212231661
 20
144.2634043599362
 30
0.0
  0
VERTEX
  5
6F34
  8
0
 10
78.211443959233065
 20
143.94604136269621
 30
0.0
  0
VERTEX
  5
6F35
  8
0
 10
78.249999926999635
 20
143.88908739404539
 30
0.0
  0
SEQEND
  5
6F36
  8
0
  0
POLYLINE
  5
2577
  8
0
 66
     1
 10
0.0
 20
0.0
 30
0.0
  0
VERTEX
  5
6F37
  8
0
 10
78.249999926999635
 20
143.88908739404539
 30
0.0
  0
VERTEX
  5
6F38
  8
0
 10
78.513321314248742
 20
143.78657999445139
 30
0.0
  0
VERTEX
  5
6F39
  8
0
 10
78.786582687745977
 20
143.70320123938561
 30
0.0
  0
VERTEX
  5
6F3A
  8
0
 10
79.067704363439361
 20
143.6395856915195
 30
0.0
  0
VERTEX
  5
6F3B
  8
0
 10
79.249999926999635
 20
143.60958077771309
 30
0.0
  0
SEQEND
  5
6F3C
  8
0
  0
POLYLINE
  5
257F
  8
0
 66
     1
 10
0.0
 20
0.0
 30
0.0
  0
VERTEX
  5
6F3D
  8
0
 10
79.249999926999635
 20
118.5095807777131
 30
0.0
  0
VERTEX
  5
6F3E
  8
0
 10
78.964981730664931
 20
118.5603379197276
 30
0.0
  0
VERTEX
  5
6F3F
  8
0
 10
78.68646611208942
 20
118.6311844846861
 30
0.0
  0
VERTEX
  5
6F40
  8
0
 10
78.416572743302822
 20
118.7215812874508
 30
0.0
  0
VERTEX
  5
6F41
  8
0
 10
78.249999926999635
 20
118.7890873940454
 30
0.0
  0
SEQEND
  5
6F42
  8
0
  0
POLYLINE
  5
2580
  8
0
 66
     1
 10
0.0
 20
0.0
 30
0.0
  0
VERTEX
  5
6F43
  8
0
 10
78.249999926999635
 20
118.7890873940454
 30
0.0
  0
VERTEX
  5
6F44
  8
0
 10
78.053193597459995
 20
119.10330674432301
 30
0.0
  0
VERTEX
  5
6F45
  8
0
 10
77.942133890752984
 20
119.3125000842937
 30
0.0
  0
SEQEND
  5
6F46
  8
0
  0
CIRCLE
  5
258D
  8
0
 10
56.749999926999692
 20
146.30000008429371
 30
0.0
 40
2.25
  0
POLYLINE
  5
258E
  8
0
 66
     1
 10
0.0
 20
0.0
 30
0.0
  0
VERTEX
  5
6F47
  8
0
 10
59.249999926999692
 20
148.99041939087419
 30
0.0
  0
VERTEX
  5
6F48
  8
0
 10
58.936441966353009
 20
149.47337999357231
 30
0.0
  0
VERTEX
  5
6F49
  8
0
 10
58.572524259680961
 20
149.93218925902161
 30
0.0
  0
VERTEX
  5
6F4A
  8
0
 10
58.249999926999692
 20
150.2764935144404
 30
0.0
  0
SEQEND
  5
6F4B
  8
0
  0
POLYLINE
  5
258F
  8
0
 66
     1
 10
0.0
 20
0.0
 30
0.0
  0
VERTEX
  5
6F4C
  8
0
 10
58.249999926999692
 20
142.32350665414691
 30
0.0
  0
VERTEX
  5
6F4D
  8
0
 10
58.651897194269679
 20
142.7606745066426
 30
0.0
  0
VERTEX
  5
6F4E
  8
0
 10
59.005600273042603
 20
143.22477876388729
 30
0.0
  0
VERTEX
  5
6F4F
  8
0
 10
59.30841726931731
 20
143.71228731224971
 30
0.0
  0
VERTEX
  5
6F50
  8
0
 10
59.558043562906327
 20
144.21948991731111
 30
0.0
  0
VERTEX
  5
6F51
  8
0
 10
59.752579346986813
 20
144.74252646098961
 30
0.0
  0
VERTEX
  5
6F52
  8
0
 10
59.890544086777993
 20
145.27741631936979
 30
0.0
  0
VERTEX
  5
6F53
  8
0
 10
59.970887787304783
 20
145.82008865765391
 30
0.0
  0
VERTEX
  5
6F54
  8
0
 10
59.992998984493219
 20
146.36641341167331
 30
0.0
  0
VERTEX
  5
6F55
  8
0
 10
59.95670939878147
 20
146.91223272016981
 30
0.0
  0
VERTEX
  5
6F56
  8
0
 10
59.862295215829413
 20
147.4533925686311
 30
0.0
  0
VERTEX
  5
6F57
  8
0
 10
59.710474984577843
 20
147.98577440384921
 30
0.0
  0
VERTEX
  5
6F58
  8
0
 10
59.636965088147058
 20
148.18750008429359
 30
0.0
  0
SEQEND
  5
6F59
  8
0
  0
ARC
  5
2594
  8
0
 10
56.749999926999692
 20
146.30000008429371
 30
0.0
 40
4.25
 50
69.332683506489673
 51
290.66731649351033
  0
CIRCLE
  5
2599
  8
0
 10
56.749999926999692
 20
121.20000008429361
 30
0.0
 40
2.25
  0
POLYLINE
  5
259A
  8
0
 66
     1
 10
0.0
 20
0.0
 30
0.0
  0
VERTEX
  5
6F5A
  8
0
 10
59.249999926999692
 20
123.8904193908742
 30
0.0
  0
VERTEX
  5
6F5B
  8
0
 10
58.936441966353009
 20
124.3733799935723
 30
0.0
  0
VERTEX
  5
6F5C
  8
0
 10
58.572524259680961
 20
124.8321892590215
 30
0.0
  0
VERTEX
  5
6F5D
  8
0
 10
58.249999926999692
 20
125.17649351444039
 30
0.0
  0
SEQEND
  5
6F5E
  8
0
  0
ARC
  5
259B
  8
0
 10
56.749999926999692
 20
121.20000008429361
 30
0.0
 40
4.25
 50
69.332683506489673
 51
290.66731649351033
  0
POLYLINE
  5
259C
  8
0
 66
     1
 10
0.0
 20
0.0
 30
0.0
  0
VERTEX
  5
6F5F
  8
0
 10
58.249999926999692
 20
117.2235066541469
 30
0.0
  0
VERTEX
  5
6F60
  8
0
 10
58.651897194269679
 20
117.66067450664249
 30
0.0
  0
VERTEX
  5
6F61
  8
0
 10
59.005600273042603
 20
118.12477876388731
 30
0.0
  0
VERTEX
  5
6F62
  8
0
 10
59.30841726931731
 20
118.61228731224971
 30
0.0
  0
VERTEX
  5
6F63
  8
0
 10
59.558043562906327
 20
119.1194899173111
 30
0.0
  0
VERTEX
  5
6F64
  8
0
 10
59.636965088147058
 20
119.3125000842937
 30
0.0
  0
SEQEND
  5
6F65
  8
0
  0
POLYLINE
  5
259E
  8
0
 66
     1
 10
0.0
 20
0.0
 30
0.0
  0
VERTEX
  5
6F66
  8
0
 10
59.249999926999692
 20
148.99041939087419
 30
0.0
  0
VERTEX
  5
6F67
  8
0
 10
59.535018123334169
 20
148.93966224885969
 30
0.0
  0
VERTEX
  5
6F68
  8
0
 10
59.81353374190968
 20
148.8688156839012
 30
0.0
  0
VERTEX
  5
6F69
  8
0
 10
60.08342711069627
 20
148.7784188811365
 30
0.0
  0
VERTEX
  5
6F6A
  8
0
 10
60.249999926999692
 20
148.7109127745419
 30
0.0
  0
SEQEND
  5
6F6B
  8
0
  0
POLYLINE
  5
259F
  8
0
 66
     1
 10
0.0
 20
0.0
 30
0.0
  0
VERTEX
  5
6F6C
  8
0
 10
60.249999926999692
 20
148.7109127745419
 30
0.0
  0
VERTEX
  5
6F6D
  8
0
 10
60.446806256539098
 20
148.3966934242643
 30
0.0
  0
VERTEX
  5
6F6E
  8
0
 10
60.557865963246122
 20
148.18750008429359
 30
0.0
  0
SEQEND
  5
6F6F
  8
0
  0
POLYLINE
  5
25A8
  8
0
 66
     1
 10
0.0
 20
0.0
 30
0.0
  0
VERTEX
  5
6F70
  8
0
 10
60.557865963246122
 20
119.3125000842937
 30
0.0
  0
VERTEX
  5
6F71
  8
0
 10
60.707882347788257
 20
119.6515599843182
 30
0.0
  0
VERTEX
  5
6F72
  8
0
 10
60.82777685727347
 20
120.00240444847709
 30
0.0
  0
VERTEX
  5
6F73
  8
0
 10
60.916637022090129
 20
120.3623633385527
 30
0.0
  0
VERTEX
  5
6F74
  8
0
 10
60.973786562729003
 20
120.72869715004219
 30
0.0
  0
VERTEX
  5
6F75
  8
0
 10
60.998790536677738
 20
121.09861786144189
 30
0.0
  0
VERTEX
  5
6F76
  8
0
 10
60.991458648597067
 20
121.4693101527738
 30
0.0
  0
VERTEX
  5
6F77
  8
0
 10
60.951846698582187
 20
121.8379528318706
 30
0.0
  0
VERTEX
  5
6F78
  8
0
 10
60.880256157491033
 20
122.201740305352
 30
0.0
  0
VERTEX
  5
6F79
  8
0
 10
60.777231872569068
 20
122.5579039308839
 30
0.0
  0
VERTEX
  5
6F7A
  8
0
 10
60.643557920832158
 20
122.9037330882184
 30
0.0
  0
VERTEX
  5
6F7B
  8
0
 10
60.480251641767438
 20
123.2365958086511
 30
0.0
  0
VERTEX
  5
6F7C
  8
0
 10
60.288555894766027
 20
123.5539588058911
 30
0.0
  0
VERTEX
  5
6F7D
  8
0
 10
60.249999926999692
 20
123.6109127745419
 30
0.0
  0
SEQEND
  5
6F7E
  8
0
  0
POLYLINE
  5
25AA
  8
0
 66
     1
 10
0.0
 20
0.0
 30
0.0
  0
VERTEX
  5
6F7F
  8
0
 10
60.249999926999692
 20
123.6109127745419
 30
0.0
  0
VERTEX
  5
6F80
  8
0
 10
59.986678539750578
 20
123.7134201741359
 30
0.0
  0
VERTEX
  5
6F81
  8
0
 10
59.713417166253123
 20
123.7967989292017
 30
0.0
  0
VERTEX
  5
6F82
  8
0
 10
59.432295490559738
 20
123.86041447706781
 30
0.0
  0
VERTEX
  5
6F83
  8
0
 10
59.249999926999692
 20
123.8904193908742
 30
0.0
  0
SEQEND
  5
6F84
  8
0
  0
LINE
  5
44C3
  8
2
 10
143.44999999999999
 20
57.50000004214683
 30
0.0
 11
143.44999999999999
 21
50.00000004214683
 31
0.0
  0
LINE
  5
44C4
  8
2
 10
147.94999999999999
 20
50.00000004214683
 30
0.0
 11
147.94999999999999
 21
57.50000004214683
 31
0.0
  0
LINE
  5
44C5
  8
2
 10
168.5499999999999
 20
57.50000004214683
 30
0.0
 11
168.5499999999999
 21
50.00000004214683
 31
0.0
  0
LINE
  5
44C6
  8
2
 10
173.0499999999999
 20
50.00000004214683
 30
0.0
 11
173.0499999999999
 21
57.50000004214683
 31
0.0
  0
LINE
  5
44CB
  8
2
 10
173.0499999999999
 20
57.50000004214683
 30
0.0
 11
175.0499999999999
 21
59.50000004214683
 31
0.0
  0
LINE
  5
44CC
  8
2
 10
166.5499999999999
 20
59.50000004214683
 30
0.0
 11
168.5499999999999
 21
57.50000004214683
 31
0.0
  0
LINE
  5
44CD
  8
2
 10
173.0499999999999
 20
57.50000004214683
 30
0.0
 11
168.5499999999999
 21
57.50000004214683
 31
0.0
  0
LINE
  5
44D2
  8
2
 10
147.94999999999999
 20
57.50000004214683
 30
0.0
 11
149.94999999999999
 21
59.50000004214683
 31
0.0
  0
LINE
  5
44D3
  8
2
 10
141.44999999999999
 20
59.50000004214683
 30
0.0
 11
143.44999999999999
 21
57.50000004214683
 31
0.0
  0
LINE
  5
44D4
  8
2
 10
147.94999999999999
 20
57.50000004214683
 30
0.0
 11
143.44999999999999
 21
57.50000004214683
 31
0.0
  0
POLYLINE
  5
44F4
  8
0
 66
     1
 10
0.0
 20
0.0
 30
0.0
  0
VERTEX
  5
6F85
  8
0
 10
172.6875
 20
59.67774658104809
 30
0.0
  0
VERTEX
  5
6F86
  8
0
 10
172.34844009997551
 20
59.764358581046331
 30
0.0
  0
VERTEX
  5
6F87
  8
0
 10
171.99759563581659
 20
59.833579708371978
 30
0.0
  0
VERTEX
  5
6F88
  8
0
 10
171.63763674574099
 20
59.884883148449141
 30
0.0
  0
VERTEX
  5
6F89
  8
0
 10
171.27130293425151
 20
59.917878451121048
 30
0.0
  0
VERTEX
  5
6F8A
  8
0
 10
170.90138222285171
 20
59.93231450221122
 30
0.0
  0
VERTEX
  5
6F8B
  8
0
 10
170.53068993151979
 20
59.928081434654132
 30
0.0
  0
VERTEX
  5
6F8C
  8
0
 10
170.16204725242301
 20
59.905211464649867
 30
0.0
  0
VERTEX
  5
6F8D
  8
0
 10
169.7982597789416
 20
59.86387864647952
 30
0.0
  0
VERTEX
  5
6F8E
  8
0
 10
169.44209615340969
 20
59.80439754784674
 30
0.0
  0
VERTEX
  5
6F8F
  8
0
 10
169.0962669960752
 20
59.727220855827788
 30
0.0
  0
VERTEX
  5
6F90
  8
0
 10
168.76340427564261
 20
59.632935931649513
 30
0.0
  0
VERTEX
  5
6F91
  8
0
 10
168.44604127840259
 20
59.522260340515622
 30
0.0
  0
VERTEX
  5
6F92
  8
0
 10
168.3890873097518
 20
59.50000004214683
 30
0.0
  0
SEQEND
  5
6F93
  8
0
  0
LINE
  5
49F1
  8
1
 10
69.249999926999692
 20
109.5000000842937
 30
0.0
 11
69.249999926999692
 21
158.00000008429359
 31
0.0
  0
LINE
  5
49F2
  8
1
 10
75.499999926999635
 20
121.20000008429361
 30
0.0
 11
87.999999926999635
 21
121.20000008429361
 31
0.0
  0
LINE
  5
49F3
  8
1
 10
81.749999926999635
 20
114.95000008429361
 30
0.0
 11
81.749999926999635
 21
127.45000008429361
 31
0.0
  0
LINE
  5
49F4
  8
1
 10
75.499999926999635
 20
146.30000008429371
 30
0.0
 11
87.999999926999635
 21
146.30000008429371
 31
0.0
  0
LINE
  5
49F5
  8
1
 10
81.749999926999635
 20
140.05000008429371
 30
0.0
 11
81.749999926999635
 21
152.55000008429371
 31
0.0
  0
LINE
  5
49F6
  8
1
 10
50.499999926999692
 20
121.20000008429361
 30
0.0
 11
62.999999926999692
 21
121.20000008429361
 31
0.0
  0
LINE
  5
49F7
  8
1
 10
56.749999926999692
 20
114.95000008429361
 30
0.0
 11
56.749999926999692
 21
127.45000008429361
 31
0.0
  0
LINE
  5
49F8
  8
1
 10
50.499999926999692
 20
146.30000008429371
 30
0.0
 11
62.999999926999692
 21
146.30000008429371
 31
0.0
  0
LINE
  5
49F9
  8
1
 10
56.749999926999692
 20
140.05000008429371
 30
0.0
 11
56.749999926999692
 21
152.55000008429371
 31
0.0
  0
LINE
  5
49FA
  8
0
 10
72.499999926999635
 20
153.50000008429359
 30
0.0
 11
72.499999926999635
 21
153.0000000842937
 31
0.0
  0
LINE
  5
49FB
  8
0
 10
72.499999926999635
 20
114.5000000842937
 30
0.0
 11
72.499999926999635
 21
114.0000000842936
 31
0.0
  0
LINE
  5
49FC
  8
0
 10
80.249999926999635
 20
153.50000008429359
 30
0.0
 11
80.249999926999635
 21
150.2764935144404
 31
0.0
  0
LINE
  5
49FD
  8
0
 10
72.499999926999635
 20
114.0000000842936
 30
0.0
 11
88.499999926999635
 21
114.0000000842936
 31
0.0
  0
LINE
  5
49FE
  8
0
 10
88.499999926999635
 20
153.50000008429359
 30
0.0
 11
88.499999926999635
 21
114.0000000842936
 31
0.0
  0
LINE
  5
49FF
  8
0
 10
72.499999926999635
 20
153.50000008429359
 30
0.0
 11
88.499999926999635
 21
153.50000008429359
 31
0.0
  0
LINE
  5
4A00
  8
0
 10
79.249999926999635
 20
128.93750008429359
 30
0.0
 11
79.249999926999635
 21
124.1250000842937
 31
0.0
  0
LINE
  5
4A01
  8
0
 10
79.249999926999635
 20
133.75000008429359
 30
0.0
 11
79.249999926999635
 21
138.56250008429359
 31
0.0
  0
LINE
  5
4A02
  8
0
 10
79.249999926999635
 20
143.37500008429359
 30
0.0
 11
79.249999926999635
 21
143.60958077771309
 31
0.0
  0
LINE
  5
4A03
  8
0
 10
64.7499998539991
 20
114.5000000842937
 30
0.0
 11
79.249999926999635
 21
114.5000000842937
 31
0.0
  0
LINE
  5
4A04
  8
0
 10
79.249999926999635
 20
118.5095807777131
 30
0.0
 11
79.249999926999635
 21
114.5000000842937
 31
0.0
  0
LINE
  5
4A05
  8
0
 10
64.7499998539991
 20
148.18750008429359
 30
0.0
 11
64.7499998539991
 21
143.37500008429359
 31
0.0
  0
LINE
  5
4A06
  8
0
 10
64.7499998539991
 20
128.93750008429359
 30
0.0
 11
64.7499998539991
 21
124.1250000842937
 31
0.0
  0
LINE
  5
4A07
  8
0
 10
64.7499998539991
 20
138.56250008429359
 30
0.0
 11
64.7499998539991
 21
133.75000008429359
 31
0.0
  0
LINE
  5
4A08
  8
0
 10
64.7499998539991
 20
119.3125000842937
 30
0.0
 11
64.7499998539991
 21
114.5000000842937
 31
0.0
  0
LINE
  5
4A09
  8
0
 10
49.999999926999692
 20
114.0000000842936
 30
0.0
 11
49.999999926999692
 21
153.50000008429359
 31
0.0
  0
LINE
  5
4A0A
  8
0
 10
65.999999926999692
 20
114.0000000842936
 30
0.0
 11
65.999999926999692
 21
114.5000000842937
 31
0.0
  0
LINE
  5
4A0B
  8
0
 10
65.999999926999692
 20
153.0000000842937
 30
0.0
 11
65.999999926999692
 21
153.50000008429359
 31
0.0
  0
LINE
  5
4A0C
  8
0
 10
65.999999926999692
 20
153.50000008429359
 30
0.0
 11
49.999999926999692
 21
153.50000008429359
 31
0.0
  0
LINE
  5
4A0D
  8
0
 10
58.249999926999692
 20
114.0000000842936
 30
0.0
 11
58.249999926999692
 21
117.2235066541469
 31
0.0
  0
LINE
  5
4A0E
  8
0
 10
65.999999926999692
 20
114.0000000842936
 30
0.0
 11
49.999999926999692
 21
114.0000000842936
 31
0.0
  0
LINE
  5
4A0F
  8
0
 10
73.75
 20
153.0000000842937
 30
0.0
 11
59.249999926999692
 21
153.0000000842937
 31
0.0
  0
LINE
  5
4A10
  8
0
 10
78.863034765852035
 20
148.18750008429359
 30
0.0
 11
59.636965088147058
 21
148.18750008429359
 31
0.0
  0
LINE
  5
4A11
  8
0
 10
59.249999926999692
 20
148.99041939087419
 30
0.0
 11
59.249999926999692
 21
153.0000000842937
 31
0.0
  0
LINE
  5
4A12
  8
0
 10
79.249999926999635
 20
138.56250008429359
 30
0.0
 11
59.249999926999692
 21
138.56250008429359
 31
0.0
  0
LINE
  5
4A13
  8
0
 10
79.249999926999635
 20
143.37500008429359
 30
0.0
 11
59.249999926999692
 21
143.37500008429359
 31
0.0
  0
LINE
  5
4A14
  8
0
 10
59.249999926999692
 20
138.56250008429359
 30
0.0
 11
59.249999926999692
 21
143.37500008429359
 31
0.0
  0
LINE
  5
4A15
  8
0
 10
79.249999926999635
 20
128.93750008429359
 30
0.0
 11
59.249999926999692
 21
128.93750008429359
 31
0.0
  0
LINE
  5
4A16
  8
0
 10
79.249999926999635
 20
133.75000008429359
 30
0.0
 11
59.249999926999692
 21
133.75000008429359
 31
0.0
  0
LINE
  5
4A17
  8
0
 10
59.249999926999692
 20
133.75000008429359
 30
0.0
 11
59.249999926999692
 21
128.93750008429359
 31
0.0
  0
LINE
  5
4A18
  8
0
 10
78.863034765852035
 20
119.3125000842937
 30
0.0
 11
59.636965088147058
 21
119.3125000842937
 31
0.0
  0
LINE
  5
4A19
  8
0
 10
79.249999926999635
 20
124.1250000842937
 30
0.0
 11
59.249999926999692
 21
124.1250000842937
 31
0.0
  0
LINE
  5
4A1A
  8
0
 10
59.249999926999692
 20
124.1250000842937
 30
0.0
 11
59.249999926999692
 21
123.8904193908742
 31
0.0
  0
LINE
  5
4A1B
  8
0
 10
73.75
 20
148.18750008429359
 30
0.0
 11
73.75
 21
153.0000000842937
 31
0.0
  0
LINE
  5
4A1C
  8
0
 10
73.75
 20
138.56250008429359
 30
0.0
 11
73.75
 21
143.37500008429359
 31
0.0
  0
LINE
  5
4A1D
  8
0
 10
73.75
 20
128.93750008429359
 30
0.0
 11
73.75
 21
133.75000008429359
 31
0.0
  0
LINE
  5
4A1E
  8
0
 10
73.75
 20
119.3125000842937
 30
0.0
 11
73.75
 21
124.1250000842937
 31
0.0
  0
LINE
  5
4A23
  8
1
 10
93.499999926999635
 20
133.75000008429359
 30
0.0
 11
44.999999926999692
 21
133.75000008429359
 31
0.0
  0
LINE
  5
4A69
  8
0
 10
80.249999926999635
 20
142.32350665414691
 30
0.0
 11
80.249999926999635
 21
125.17649351444039
 31
0.0
  0
LINE
  5
4A6A
  8
0
 10
80.249999926999635
 20
117.2235066541469
 30
0.0
 11
80.249999926999635
 21
114.0000000842936
 31
0.0
  0
LINE
  5
4A6B
  8
0
 10
58.249999926999692
 20
125.17649351444039
 30
0.0
 11
58.249999926999692
 21
142.32350665414691
 31
0.0
  0
LINE
  5
4A6C
  8
0
 10
58.249999926999692
 20
150.2764935144404
 30
0.0
 11
58.249999926999692
 21
153.50000008429359
 31
0.0
  0
LINE
  5
4AC7
  8
1
 10
81.750000000000227
 20
61.499999999999993
 30
0.0
 11
81.75
 21
47.999999999999993
 31
0.0
  0
LINE
  5
4AC8
  8
1
 10
65.750000000000057
 20
59.500000042146858
 30
0.0
 11
72.75
 21
59.50000004214683
 31
0.0
  0
LINE
  5
4AC9
  8
1
 10
69.249999926999692
 20
55.999999999999993
 30
0.0
 11
69.249999926999692
 21
62.999999999999993
 31
0.0
  0
LINE
  5
4ACA
  8
1
 10
56.750000000000057
 20
61.499999999999993
 30
0.0
 11
56.750000000000057
 21
47.999999999999993
 31
0.0
  0
LINE
  5
4ACB
  8
0
 10
74.5
 20
51.272758664047828
 30
0.0
 11
67.000000000000057
 21
55.602885682970019
 31
0.0
  0
LINE
  5
4ACC
  8
0
 10
71.5
 20
63.397114317029988
 30
0.0
 11
79.25
 21
58.92264973081037
 31
0.0
  0
CIRCLE
  5
4ACD
  8
0
 10
69.250000000000057
 20
59.499999999999993
 30
0.0
 40
1.5
  0
ARC
  5
4ACE
  8
0
 10
69.249999926999692
 20
59.50000004214683
 30
0.0
 40
4.5
 50
59.999998926740197
 51
240.00000107325971
  0
LINE
  5
4ACF
  8
0
 10
72.5
 20
52.42745920242708
 30
0.0
 11
72.5
 21
55.025535413780389
 31
0.0
  0
LINE
  5
4AD0
  8
0
 10
72.5
 20
55.025535413780389
 30
0.0
 11
80.25
 21
59.499999999999993
 31
0.0
  0
ARC
  5
4AD1
  8
0
 10
86.388888888888914
 20
57.388888888888879
 30
0.0
 40
2.1111111111111178
 50
0.0
 51
90.0
  0
LINE
  5
4AD2
  8
0
 10
80.25
 20
59.499999999999993
 30
0.0
 11
86.388888888888914
 21
59.499999999999993
 31
0.0
  0
LINE
  5
4AD3
  8
0
 10
74.5
 20
50.0
 30
0.0
 11
74.5
 21
51.272758664047828
 31
0.0
  0
LINE
  5
4AD4
  8
0
 10
88.499999999999986
 20
50.0
 30
0.0
 11
74.5
 21
50.0
 31
0.0
  0
LINE
  5
4AD5
  8
0
 10
88.499999999999986
 20
57.388888888888879
 30
0.0
 11
88.499999999999986
 21
50.0
 31
0.0
  0
LINE
  5
4AD6
  8
0
 10
64.000000000000057
 20
51.272758664047828
 30
0.0
 11
69.250000000000057
 21
54.303847577293361
 31
0.0
  0
LINE
  5
4AD7
  8
0
 10
67.000000000000057
 20
63.397114317029988
 30
0.0
 11
59.250000000000057
 21
58.92264973081037
 31
0.0
  0
LINE
  5
4AD8
  8
0
 10
66.000000000000057
 20
55.025535413780389
 30
0.0
 11
58.250000000000057
 21
59.499999999999993
 31
0.0
  0
ARC
  5
4AD9
  8
0
 10
52.111111111111263
 20
57.388888888888879
 30
0.0
 40
2.1111111111111138
 50
90.0
 51
180.0
  0
LINE
  5
4ADA
  8
0
 10
50.000000000000057
 20
57.388888888888879
 30
0.0
 11
50.000000000000057
 21
50.0
 31
0.0
  0
LINE
  5
4ADB
  8
0
 10
50.000000000000057
 20
50.0
 30
0.0
 11
64.000000000000057
 21
50.0
 31
0.0
  0
LINE
  5
4ADC
  8
0
 10
64.000000000000057
 20
50.0
 30
0.0
 11
64.000000000000057
 21
51.272758664047828
 31
0.0
  0
LINE
  5
4ADD
  8
0
 10
66.000000000000057
 20
52.42745920242708
 30
0.0
 11
66.000000000000057
 21
55.025535413780389
 31
0.0
  0
LINE
  5
4ADE
  8
0
 10
58.250000000000057
 20
59.499999999999993
 30
0.0
 11
52.111111111111263
 21
59.499999999999993
 31
0.0
  0
LINE
  5
4C01
  8
1
 10
170.80000000000021
 20
61.500000042146887
 30
0.0
 11
170.7999999999999
 21
48.000000042146858
 31
0.0
  0
LINE
  5
4C02
  8
1
 10
145.69999999999999
 20
61.500000042146887
 30
0.0
 11
145.69999999999999
 21
48.000000042146858
 31
0.0
  0
LINE
  5
4C03
  8
0
 10
177.5
 20
59.50000004214683
 30
0.0
 11
177.5
 21
64.000000084293674
 31
0.0
  0
LINE
  5
4C04
  8
0
 10
177.5
 20
64.000000084293674
 30
0.0
 11
139.0
 21
64.000000084293674
 31
0.0
  0
LINE
  5
4C05
  8
0
 10
143.8125
 20
64.000000084293674
 30
0.0
 11
143.8125
 21
59.50000004214683
 31
0.0
  0
LINE
  5
4C06
  8
0
 10
139.0
 20
64.000000084293674
 30
0.0
 11
139.0
 21
59.50000004214683
 31
0.0
  0
LINE
  5
4C07
  8
0
 10
153.4375
 20
64.000000084293674
 30
0.0
 11
153.4375
 21
59.50000004214683
 31
0.0
  0
LINE
  5
4C08
  8
0
 10
148.625
 20
64.000000084293674
 30
0.0
 11
148.625
 21
59.50000004214683
 31
0.0
  0
LINE
  5
4C09
  8
0
 10
158.25
 20
64.000000084293674
 30
0.0
 11
158.25
 21
59.50000004214683
 31
0.0
  0
LINE
  5
4C0A
  8
0
 10
163.0625
 20
64.000000084293674
 30
0.0
 11
163.0625
 21
59.50000004214683
 31
0.0
  0
LINE
  5
4C0B
  8
0
 10
167.875
 20
64.000000084293674
 30
0.0
 11
167.875
 21
59.50000004214683
 31
0.0
  0
LINE
  5
4C0C
  8
0
 10
172.6875
 20
64.000000084293674
 30
0.0
 11
172.6875
 21
59.50000004214683
 31
0.0
  0
LINE
  5
4C0D
  8
0
 10
138.5
 20
59.50000004214683
 30
0.0
 11
138.5
 21
50.00000004214683
 31
0.0
  0
LINE
  5
4C0E
  8
0
 10
178.0
 20
50.00000004214683
 30
0.0
 11
138.5
 21
50.00000004214683
 31
0.0
  0
LINE
  5
4C0F
  8
0
 10
178.0
 20
59.50000004214683
 30
0.0
 11
178.0
 21
50.00000004214683
 31
0.0
  0
LINE
  5
4C10
  8
0
 10
178.0
 20
59.50000004214683
 30
0.0
 11
138.5
 21
59.50000004214683
 31
0.0
  0
LINE
  5
4C11
  8
1
 10
158.25
 20
69.000000084293674
 30
0.0
 11
158.25
 21
45.000000042146823
 31
0.0
  0
TEXT
  5
6BCA
  8
0
 62
     3
 10
0.0
 20
0.0
 30
0.0
 40
10.0
  1
EFHX4040HH
  7
STANDARD1
  0
ENDSEC
  0
EOF
