  0
SECTION
  2
HEADER
  9
$ACADVER
  1
AC1009
  9
$INSBASE
 10
0.0
 20
0.0
 30
0.0
  9
$EXTMIN
 10
0.0
 20
-2.960436562073669
 30
0.0
  9
$EXTMAX
 10
197.5
 20
173.0
 30
0.0
  9
$LIMMIN
 10
0.0
 20
0.0
  9
$LIMMAX
 10
420.0
 20
330.0
  9
$ORTHOMODE
 70
     1
  9
$REGENMODE
 70
     1
  9
$FILLMODE
 70
     1
  9
$QTEXTMODE
 70
     0
  9
$MIRRTEXT
 70
     0
  9
$DRAGMODE
 70
     2
  9
$LTSCALE
 40
5.0
  9
$OSMODE
 70
    37
  9
$ATTMODE
 70
     1
  9
$TEXTSIZE
 40
0.2
  9
$TRACEWID
 40
0.05
  9
$TEXTSTYLE
  7
STANDARD
  9
$CLAYER
  8
0
  9
$CELTYPE
  6
BYLAYER
  9
$CECOLOR
 62
   256
  9
$DIMSCALE
 40
1.0
  9
$DIMASZ
 40
3.0
  9
$DIMEXO
 40
1.0
  9
$DIMDLI
 40
0.3799999999999999
  9
$DIMRND
 40
0.0
  9
$DIMDLE
 40
0.0
  9
$DIMEXE
 40
1.0
  9
$DIMTP
 40
0.0
  9
$DIMTM
 40
0.0
  9
$DIMTXT
 40
3.0
  9
$DIMCEN
 40
0.09
  9
$DIMTSZ
 40
0.0
  9
$DIMTOL
 70
     0
  9
$DIMLIM
 70
     0
  9
$DIMTIH
 70
     0
  9
$DIMTOH
 70
     0
  9
$DIMSE1
 70
     0
  9
$DIMSE2
 70
     0
  9
$DIMTAD
 70
     1
  9
$DIMZIN
 70
     8
  9
$DIMBLK
  1

  9
$DIMASO
 70
     0
  9
$DIMSHO
 70
     1
  9
$DIMPOST
  1

  9
$DIMAPOST
  1

  9
$DIMALT
 70
     0
  9
$DIMALTD
 70
     2
  9
$DIMALTF
 40
25.399999999999999
  9
$DIMLFAC
 40
1.0
  9
$DIMTOFL
 70
     0
  9
$DIMTVP
 40
0.0
  9
$DIMTIX
 70
     0
  9
$DIMSOXD
 70
     0
  9
$DIMSAH
 70
     0
  9
$DIMBLK1
  1

  9
$DIMBLK2
  1

  9
$DIMSTYLE
  2
STANDARD
  9
$DIMCLRD
 70
     0
  9
$DIMCLRE
 70
     0
  9
$DIMCLRT
 70
     0
  9
$DIMTFAC
 40
1.0
  9
$DIMGAP
 40
0.5
  9
$LUNITS
 70
     2
  9
$LUPREC
 70
     1
  9
$SKETCHINC
 40
0.1
  9
$FILLETRAD
 40
0.5
  9
$AUNITS
 70
     0
  9
$AUPREC
 70
     1
  9
$MENU
  1
ACAD
  9
$ELEVATION
 40
0.0
  9
$PELEVATION
 40
0.0
  9
$THICKNESS
 40
0.0
  9
$LIMCHECK
 70
     0
  9
$BLIPMODE
 70
     0
  9
$CHAMFERA
 40
0.1
  9
$CHAMFERB
 40
0.1
  9
$SKPOLY
 70
     0
  9
$TDCREATE
 40
2449640.5627083331
  9
$TDUPDATE
 40
2457893.652701458
  9
$TDINDWG
 40
1.5901700579
  9
$TDUSRTIMER
 40
1.5901700579
  9
$USRTIMER
 70
     1
  9
$ANGBASE
 50
0.0
  9
$ANGDIR
 70
     0
  9
$PDMODE
 70
     0
  9
$PDSIZE
 40
0.0
  9
$PLINEWID
 40
0.0
  9
$COORDS
 70
     1
  9
$SPLFRAME
 70
     0
  9
$SPLINETYPE
 70
     6
  9
$SPLINESEGS
 70
     8
  9
$ATTDIA
 70
     0
  9
$ATTREQ
 70
     1
  9
$HANDLING
 70
     1
  9
$HANDSEED
  5
6EFD
  9
$SURFTAB1
 70
     6
  9
$SURFTAB2
 70
     6
  9
$SURFTYPE
 70
     6
  9
$SURFU
 70
     6
  9
$SURFV
 70
     6
  9
$UCSNAME
  2

  9
$UCSORG
 10
0.0
 20
0.0
 30
0.0
  9
$UCSXDIR
 10
1.0
 20
0.0
 30
0.0
  9
$UCSYDIR
 10
0.0
 20
1.0
 30
0.0
  9
$PUCSNAME
  2

  9
$PUCSORG
 10
0.0
 20
0.0
 30
0.0
  9
$PUCSXDIR
 10
1.0
 20
0.0
 30
0.0
  9
$PUCSYDIR
 10
0.0
 20
1.0
 30
0.0
  9
$USERI1
 70
     0
  9
$USERI2
 70
     1
  9
$USERI3
 70
     1
  9
$USERI4
 70
     0
  9
$USERI5
 70
     0
  9
$USERR1
 40
0.0
  9
$USERR2
 40
0.0
  9
$USERR3
 40
0.0
  9
$USERR4
 40
0.0
  9
$USERR5
 40
10.0
  9
$WORLDVIEW
 70
     1
  9
$SHADEDGE
 70
     3
  9
$SHADEDIF
 70
    70
  9
$TILEMODE
 70
     1
  9
$MAXACTVP
 70
    16
  9
$PLIMCHECK
 70
     0
  9
$PEXTMIN
 10
1.0000000000000000E+020
 20
1.0000000000000000E+020
 30
1.0000000000000000E+020
  9
$PEXTMAX
 10
-1.0000000000000000E+020
 20
-1.0000000000000000E+020
 30
-1.0000000000000000E+020
  9
$PLIMMIN
 10
0.0
 20
0.0
  9
$PLIMMAX
 10
12.0
 20
9.0
  9
$UNITMODE
 70
     0
  9
$VISRETAIN
 70
     0
  9
$PLINEGEN
 70
     0
  9
$PSLTSCALE
 70
     0
  0
ENDSEC
  0
SECTION
  2
TABLES
  0
TABLE
  2
VPORT
 70
     1
  0
VPORT
  2
*ACTIVE
 70
     0
 10
0.0
 20
0.0
 11
1.0
 21
1.0
 12
172.54273504273499
 22
95.0
 13
0.0
 23
0.0
 14
1.8999999999999999
 24
1.8999999999999999
 15
10.0
 25
10.0
 16
0.0
 26
0.0
 36
1.0
 17
0.0
 27
0.0
 37
0.0
 40
190.0
 41
1.816239316239316
 42
50.0
 43
0.0
 44
0.0
 50
0.0
 51
0.0
 71
     0
 72
   100
 73
     1
 74
     0
 75
     0
 76
     0
 77
     0
 78
     1
  0
ENDTAB
  0
TABLE
  2
LTYPE
 70
     4
  0
LTYPE
  2
CONTINUOUS
 70
     0
  3
Solid Line
 72
    65
 73
     0
 40
0.0
  0
LTYPE
  2
CENTER
 70
     0
  3
____ _ ____ _ ____ _ ____ _ ____ _ ____ _ ____
 72
    65
 73
     4
 40
2.0
 49
1.25
 49
-0.25
 49
0.25
 49
-0.25
  0
LTYPE
  2
HIDDEN
 70
     0
  3
_ _ _ _ _ _ _ _ _ _ _ _ _ _ _ _ _ _ _ _ _ _ _
 72
    65
 73
     2
 40
0.375
 49
0.25
 49
-0.125
  0
LTYPE
  2
PHANTOM2
 70
     0
  3
___ _ _ ___ _ _ ___ _ _ ___ _ _
 72
    65
 73
     6
 40
1.25
 49
0.625
 49
-0.125
 49
0.125
 49
-0.125
 49
0.125
 49
-0.125
  0
ENDTAB
  0
TABLE
  2
LAYER
 70
     5
  0
LAYER
  2
0
 70
     0
 62
     7
  6
CONTINUOUS
  0
LAYER
  2
WAKU
 70
     0
 62
     7
  6
CONTINUOUS
  0
LAYER
  2
1
 70
     0
 62
     1
  6
CENTER
  0
LAYER
  2
2
 70
     0
 62
     2
  6
HIDDEN
  0
LAYER
  2
DEFPOINTS
 70
     0
 62
     7
  6
CONTINUOUS
  0
ENDTAB
  0
TABLE
  2
STYLE
 70
     2
  0
STYLE
  2
STANDARD
 70
     0
 40
0.0
 41
1.0
 50
0.0
 71
     0
 42
0.2
  3
ROMANS
  4
EXTFONT
  0
STYLE
  2
STANDARD1
 70
     0
 40
0.0
 41
1.0
 50
0.0
 71
     0
 42
3.0
  3
txt
  4

  0
ENDTAB
  0
TABLE
  2
VIEW
 70
     0
  0
ENDTAB
  0
TABLE
  2
UCS
 70
     0
  0
ENDTAB
  0
TABLE
  2
APPID
 70
    11
  0
APPID
  2
ACAD
 70
     0
  0
APPID
  2
GENIUS_GENOREF_13
 70
     0
  0
APPID
  2
ACAD_NAV_VCDISPLAY
 70
     0
  0
APPID
  2
ACADANNOTATIVE
 70
     0
  0
APPID
  2
ACAD_EXEMPT_FROM_CAD_STANDARDS
 70
     0
  0
APPID
  2
GENIUS_GENODEF_13
 70
     0
  0
APPID
  2
GENIUS_GENOBJ-N-FIL_13
 70
     0
  0
APPID
  2
ACAD_MLEADERVER
 70
     0
  0
APPID
  2
ACAD_DSTYLE_DIMRADIAL_EXTENSION
 70
     0
  0
APPID
  2
ACAD_DSTYLE_DIMJAG
 70
     0
  0
APPID
  2
ACAD_DSTYLE_DIMTALN
 70
     0
  0
ENDTAB
  0
TABLE
  2
DIMSTYLE
 70
     1
  0
DIMSTYLE
  2
STANDARD
 70
     0
  3

  4

  5

  6

  7

 40
1.0
 41
0.18
 42
0.0625
 43
0.38
 44
0.18
 45
0.0
 46
0.0
 47
0.0
 48
0.0
140
0.18
141
0.09
142
0.0
143
25.399999999999999
144
1.0
145
0.0
146
1.0
147
0.09
 71
     0
 72
     0
 73
     1
 74
     1
 75
     0
 76
     0
 77
     0
 78
     0
170
     0
171
     2
172
     0
173
     0
174
     0
175
     0
176
     0
177
     0
178
     0
  0
ENDTAB
  0
ENDSEC
  0
SECTION
  2
BLOCKS
  0
BLOCK
  8
0
  2
$MODEL_SPACE
 70
     0
 10
0.0
 20
0.0
 30
0.0
  3
$MODEL_SPACE
  1

  0
ENDBLK
  5
9
  8
0
  0
BLOCK
 67
     1
  8
0
  2
$PAPER_SPACE
 70
     0
 10
0.0
 20
0.0
 30
0.0
  3
$PAPER_SPACE
  1

  0
ENDBLK
  5
E
 67
     1
  8
0
  0
BLOCK
  8
0
  2
ARROW1
 70
     0
 10
0.0
 20
0.0
 30
0.0
  3
ARROW1
  1

  0
SOLID
  5
24
  8
WAKU
  6
CONTINUOUS
 62
     4
 10
-1.0
 20
0.1666666666666714
 30
0.0
 11
-1.0
 21
-0.1666666666666714
 31
0.0
 12
0.0
 22
0.0
 32
0.0
 13
0.0
 23
0.0
 33
0.0
  0
ENDBLK
  5
27
  8
0
  0
ENDSEC
  0
SECTION
  2
ENTITIES
  0
CIRCLE
  5
2AB4
  8
0
 10
89.500000000000057
 20
159.0
 30
0.0
 40
2.7499999999999978
  0
CIRCLE
  5
2AC1
  8
0
 10
89.500000000000057
 20
128.5
 30
0.0
 40
2.7500000000000031
  0
POLYLINE
  5
2AC2
  8
0
 66
     1
 10
0.0
 20
0.0
 30
0.0
  0
VERTEX
  5
6EC1
  8
0
 10
84.964469813433709
 20
130.60451085213299
 30
0.0
  0
VERTEX
  5
6EC2
  8
0
 10
84.782192889407895
 20
129.8042218809403
 30
0.0
  0
VERTEX
  5
6EC3
  8
0
 10
84.686035269073557
 20
128.99400699372299
 30
0.0
  0
VERTEX
  5
6EC4
  8
0
 10
84.676728769983072
 20
128.18003241499389
 30
0.0
  0
VERTEX
  5
6EC5
  8
0
 10
84.754344220213909
 20
127.3684929827883
 30
0.0
  0
VERTEX
  5
6EC6
  8
0
 10
84.918290919324193
 20
126.5655650022063
 30
0.0
  0
VERTEX
  5
6EC7
  8
0
 10
84.964469813433709
 20
126.395489147867
 30
0.0
  0
SEQEND
  5
6EC8
  8
0
  0
ARC
  5
2AC4
  8
0
 10
89.500000000000057
 20
128.5
 30
0.0
 40
4.9999999999999973
 50
204.89155838685471
 51
155.1084416131452
  0
CIRCLE
  5
2ADF
  8
0
 10
58.50000000000005
 20
159.0
 30
0.0
 40
2.7500000000000031
  0
POLYLINE
  5
2AE0
  8
0
 66
     1
 10
0.0
 20
0.0
 30
0.0
  0
VERTEX
  5
6EC9
  8
0
 10
63.035530186566398
 20
156.89548914786701
 30
0.0
  0
VERTEX
  5
6ECA
  8
0
 10
63.217807110592219
 20
157.6957781190597
 30
0.0
  0
VERTEX
  5
6ECB
  8
0
 10
63.313964730926557
 20
158.50599300627701
 30
0.0
  0
VERTEX
  5
6ECC
  8
0
 10
63.323271230017042
 20
159.31996758500611
 30
0.0
  0
VERTEX
  5
6ECD
  8
0
 10
63.245655779786212
 20
160.1315070172117
 30
0.0
  0
VERTEX
  5
6ECE
  8
0
 10
63.081709080675921
 20
160.9344349977936
 30
0.0
  0
VERTEX
  5
6ECF
  8
0
 10
63.035530186566398
 20
161.10451085213299
 30
0.0
  0
SEQEND
  5
6ED0
  8
0
  0
ARC
  5
2AE5
  8
0
 10
58.50000000000005
 20
159.0
 30
0.0
 40
4.9999999999999973
 50
24.891558386854729
 51
335.10844161314532
  0
CIRCLE
  5
2AED
  8
0
 10
58.50000000000005
 20
128.5
 30
0.0
 40
2.7499999999999978
  0
LINE
  5
2B08
  8
2
 10
84.500000000000014
 20
63.866025403784413
 30
0.0
 11
84.500000000000014
 21
60.999999999999993
 31
0.0
  0
LINE
  5
2B09
  8
2
 10
84.964469813433666
 20
60.999999999999993
 30
0.0
 11
84.500000000000014
 21
60.999999999999993
 31
0.0
  0
LINE
  5
2B0A
  8
2
 10
84.500000000000014
 20
60.999999999999993
 30
0.0
 11
86.75
 21
58.75
 31
0.0
  0
LINE
  5
2B0C
  8
2
 10
86.75
 20
58.75
 30
0.0
 11
86.75
 21
50.0
 31
0.0
  0
LINE
  5
2B0D
  8
2
 10
92.249999999999986
 20
50.0
 30
0.0
 11
92.249999999999986
 21
58.75
 31
0.0
  0
LINE
  5
2B0F
  8
2
 10
92.249999999999986
 20
58.75
 30
0.0
 11
86.75
 21
58.75
 31
0.0
  0
LINE
  5
2B10
  8
2
 10
92.249999999999986
 20
58.75
 30
0.0
 11
94.500000000000014
 21
60.999999999999993
 31
0.0
  0
LINE
  5
2B11
  8
2
 10
55.75
 20
58.75
 30
0.0
 11
55.75
 21
50.0
 31
0.0
  0
LINE
  5
2B12
  8
2
 10
61.25
 20
50.0
 30
0.0
 11
61.25
 21
58.75
 31
0.0
  0
LINE
  5
2B13
  8
2
 10
63.5
 20
60.999999999999993
 30
0.0
 11
63.5
 21
63.866025403784413
 31
0.0
  0
LINE
  5
2B16
  8
2
 10
61.25
 20
58.75
 30
0.0
 11
63.5
 21
60.999999999999993
 31
0.0
  0
LINE
  5
2B17
  8
2
 10
53.5
 20
60.999999999999993
 30
0.0
 11
55.75
 21
58.75
 31
0.0
  0
LINE
  5
2B18
  8
2
 10
61.25
 20
58.75
 30
0.0
 11
55.75
 21
58.75
 31
0.0
  0
LINE
  5
2B19
  8
2
 10
63.5
 20
60.999999999999993
 30
0.0
 11
63.035530186566348
 21
60.999999999999993
 31
0.0
  0
LINE
  5
3C5B
  8
2
 10
185.25
 20
58.75
 30
0.0
 11
185.25
 21
50.0
 31
0.0
  0
LINE
  5
3C5C
  8
2
 10
190.75
 20
50.0
 30
0.0
 11
190.75
 21
58.75
 31
0.0
  0
LINE
  5
3C5D
  8
2
 10
154.75
 20
58.75
 30
0.0
 11
154.75
 21
50.0
 31
0.0
  0
LINE
  5
3C5E
  8
2
 10
160.25
 20
50.0
 30
0.0
 11
160.25
 21
58.75
 31
0.0
  0
LINE
  5
3C5F
  8
2
 10
190.75
 20
58.75
 30
0.0
 11
193.0
 21
60.999999999999993
 31
0.0
  0
LINE
  5
3C60
  8
2
 10
183.0
 20
60.999999999999993
 30
0.0
 11
185.25
 21
58.75
 31
0.0
  0
LINE
  5
3C61
  8
2
 10
190.75
 20
58.75
 30
0.0
 11
185.25
 21
58.75
 31
0.0
  0
LINE
  5
3C63
  8
2
 10
160.25
 20
58.75
 30
0.0
 11
162.5
 21
60.999999999999993
 31
0.0
  0
LINE
  5
3C64
  8
2
 10
152.5
 20
60.999999999999993
 30
0.0
 11
154.75
 21
58.75
 31
0.0
  0
LINE
  5
3C65
  8
2
 10
160.25
 20
58.75
 30
0.0
 11
154.75
 21
58.75
 31
0.0
  0
POLYLINE
  5
3C7E
  8
0
 66
     1
 10
0.0
 20
0.0
 30
0.0
  0
VERTEX
  5
6ED1
  8
0
 10
190.9375
 20
63.315303006715162
 30
0.0
  0
VERTEX
  5
6ED2
  8
0
 10
190.57367925968481
 20
63.45422692393754
 30
0.0
  0
VERTEX
  5
6ED3
  8
0
 10
190.1902712661734
 20
63.574314955431468
 30
0.0
  0
VERTEX
  5
6ED4
  8
0
 10
189.79019398580439
 20
63.674653158766198
 30
0.0
  0
VERTEX
  5
6ED5
  8
0
 10
189.376492248255
 20
63.754477899628441
 30
0.0
  0
VERTEX
  5
6ED6
  8
0
 10
188.95231457354731
 20
63.813181663540767
 30
0.0
  0
VERTEX
  5
6ED7
  8
0
 10
188.52088920991179
 20
63.850317679413472
 30
0.0
  0
VERTEX
  5
6ED8
  8
0
 10
188.0854995648674
 20
63.865603319742483
 30
0.0
  0
VERTEX
  5
6ED9
  8
0
 10
187.64945921650821
 20
63.858922251575102
 30
0.0
  0
VERTEX
  5
6EDA
  8
0
 10
187.21608669517391
 20
63.83032532187422
 30
0.0
  0
VERTEX
  5
6EDB
  8
0
 10
186.7886802274289
 20
63.78003017054219
 30
0.0
  0
VERTEX
  5
6EDC
  8
0
 10
186.37049263456819
 20
63.708419574049728
 30
0.0
  0
VERTEX
  5
6EDD
  8
0
 10
185.96470657668181
 20
63.616038532275738
 30
0.0
  0
VERTEX
  5
6EDE
  8
0
 10
185.57441033069051
 20
63.503590120729307
 30
0.0
  0
VERTEX
  5
6EDF
  8
0
 10
185.2025742866939
 20
63.371930139720618
 30
0.0
  0
VERTEX
  5
6EE0
  8
0
 10
184.875
 20
63.232743605001289
 30
0.0
  0
SEQEND
  5
6EE1
  8
0
  0
POLYLINE
  5
3C83
  8
0
 66
     1
 10
0.0
 20
0.0
 30
0.0
  0
VERTEX
  5
6EE2
  8
0
 10
152.50012887106431
 20
60.999999999999993
 30
0.0
  0
VERTEX
  5
6EE3
  8
0
 10
152.52228364060841
 20
61.251511604503079
 30
0.0
  0
VERTEX
  5
6EE4
  8
0
 10
152.5823218372748
 20
61.500951316894543
 30
0.0
  0
VERTEX
  5
6EE5
  8
0
 10
152.67978653413471
 20
61.746420750347212
 30
0.0
  0
VERTEX
  5
6EE6
  8
0
 10
152.81393596599429
 20
61.986051734254019
 30
0.0
  0
VERTEX
  5
6EE7
  8
0
 10
152.98374917467561
 20
62.218020532134332
 30
0.0
  0
VERTEX
  5
6EE8
  8
0
 10
153.18793377912439
 20
62.44056172136964
 30
0.0
  0
VERTEX
  5
6EE9
  8
0
 10
153.4249358112109
 20
62.651981629135882
 30
0.0
  0
VERTEX
  5
6EEA
  8
0
 10
153.69295154236499
 20
62.850671222276041
 30
0.0
  0
VERTEX
  5
6EEB
  8
0
 10
153.98994121104039
 20
63.035118353014347
 30
0.0
  0
VERTEX
  5
6EEC
  8
0
 10
154.31364454653129
 20
63.203919267313601
 30
0.0
  0
VERTEX
  5
6EED
  8
0
 10
154.5625
 20
63.315303006715162
 30
0.0
  0
SEQEND
  5
6EEE
  8
0
  0
POLYLINE
  5
3C85
  8
0
 66
     1
 10
0.0
 20
0.0
 30
0.0
  0
VERTEX
  5
6EEF
  8
0
 10
160.625
 20
63.232743605001289
 30
0.0
  0
VERTEX
  5
6EF0
  8
0
 10
160.95328808091659
 20
63.06692037448083
 30
0.0
  0
VERTEX
  5
6EF1
  8
0
 10
161.25529455438539
 20
62.885208894935417
 30
0.0
  0
VERTEX
  5
6EF2
  8
0
 10
161.5287209687861
 20
62.688992100444693
 30
0.0
  0
VERTEX
  5
6EF3
  8
0
 10
161.77148638400629
 20
62.479763319293788
 30
0.0
  0
VERTEX
  5
6EF4
  8
0
 10
161.9817432086503
 20
62.259114908843003
 30
0.0
  0
VERTEX
  5
6EF5
  8
0
 10
162.1578912613258
 20
62.028726136727009
 30
0.0
  0
VERTEX
  5
6EF6
  8
0
 10
162.29858994899109
 20
61.790350400614209
 30
0.0
  0
VERTEX
  5
6EF7
  8
0
 10
162.4027684696766
 20
61.545801883791498
 30
0.0
  0
VERTEX
  5
6EF8
  8
0
 10
162.46963396193539
 20
61.296941748134472
 30
0.0
  0
VERTEX
  5
6EF9
  8
0
 10
162.49867753899679
 20
61.045663969541287
 30
0.0
  0
VERTEX
  5
6EFA
  8
0
 10
162.49987112893561
 20
60.999999999999993
 30
0.0
  0
SEQEND
  5
6EFB
  8
0
  0
LINE
  5
554B
  8
1
 10
74.000000000000057
 20
114.5
 30
0.0
 11
74.000000000000057
 21
173.0
 31
0.0
  0
LINE
  5
554C
  8
1
 10
82.500000000000057
 20
128.5
 30
0.0
 11
96.500000000000057
 21
128.5
 31
0.0
  0
LINE
  5
554D
  8
1
 10
89.500000000000057
 20
121.5
 30
0.0
 11
89.500000000000057
 21
135.5
 31
0.0
  0
LINE
  5
554E
  8
1
 10
82.500000000000057
 20
159.0
 30
0.0
 11
96.500000000000057
 21
159.0
 31
0.0
  0
LINE
  5
554F
  8
1
 10
89.500000000000057
 20
152.0
 30
0.0
 11
89.500000000000057
 21
166.0
 31
0.0
  0
LINE
  5
5550
  8
1
 10
51.50000000000005
 20
128.5
 30
0.0
 11
65.500000000000057
 21
128.5
 31
0.0
  0
LINE
  5
5551
  8
1
 10
58.50000000000005
 20
121.5
 30
0.0
 11
58.50000000000005
 21
135.5
 31
0.0
  0
LINE
  5
5552
  8
1
 10
51.50000000000005
 20
159.0
 30
0.0
 11
65.500000000000057
 21
159.0
 31
0.0
  0
LINE
  5
5553
  8
1
 10
58.50000000000005
 20
152.0
 30
0.0
 11
58.50000000000005
 21
166.0
 31
0.0
  0
LINE
  5
5554
  8
0
 10
78.214285714285836
 20
168.5
 30
0.0
 11
78.214285714285836
 21
168.0
 31
0.0
  0
LINE
  5
5555
  8
0
 10
98.000000000000057
 20
168.5
 30
0.0
 11
98.000000000000057
 21
119.0
 31
0.0
  0
LINE
  5
5556
  8
0
 10
78.214285714285836
 20
168.5
 30
0.0
 11
98.000000000000057
 21
168.5
 31
0.0
  0
LINE
  5
5557
  8
0
 10
78.214285714285836
 20
119.5
 30
0.0
 11
78.214285714285836
 21
119.0
 31
0.0
  0
LINE
  5
5558
  8
0
 10
78.214285714285836
 20
119.0
 30
0.0
 11
98.000000000000057
 21
119.0
 31
0.0
  0
LINE
  5
5559
  8
0
 10
84.964469813433709
 20
168.5
 30
0.0
 11
84.964469813433709
 21
161.9375
 31
0.0
  0
LINE
  5
555A
  8
0
 10
84.964469813433709
 20
155.875
 30
0.0
 11
84.964469813433709
 21
149.8125
 31
0.0
  0
LINE
  5
555B
  8
0
 10
84.964469813433709
 20
143.75
 30
0.0
 11
84.964469813433709
 21
137.6875
 31
0.0
  0
LINE
  5
555C
  8
0
 10
84.964469813433709
 20
119.5
 30
0.0
 11
84.964469813433709
 21
119.0
 31
0.0
  0
LINE
  5
555D
  8
0
 10
84.964469813433709
 20
131.625
 30
0.0
 11
84.964469813433709
 21
130.60451085213279
 31
0.0
  0
LINE
  5
555E
  8
0
 10
68.000000000000057
 20
119.5
 30
0.0
 11
89.464101615137849
 21
119.5
 31
0.0
  0
LINE
  5
555F
  8
0
 10
89.464101615137849
 20
123.50012887106431
 30
0.0
 11
89.464101615137849
 21
119.5
 31
0.0
  0
LINE
  5
5561
  8
0
 10
89.464101615137849
 20
137.6875
 30
0.0
 11
89.464101615137849
 21
133.49987112893561
 31
0.0
  0
LINE
  5
5562
  8
0
 10
89.464101615137849
 20
143.75
 30
0.0
 11
89.464101615137849
 21
149.8125
 31
0.0
  0
LINE
  5
5563
  8
0
 10
68.000000000000057
 20
161.9375
 30
0.0
 11
68.000000000000057
 21
155.875
 31
0.0
  0
LINE
  5
5564
  8
0
 10
68.000000000000057
 20
125.5625
 30
0.0
 11
68.000000000000057
 21
119.5
 31
0.0
  0
LINE
  5
5565
  8
0
 10
68.000000000000057
 20
149.8125
 30
0.0
 11
68.000000000000057
 21
143.75
 31
0.0
  0
LINE
  5
5566
  8
0
 10
68.000000000000057
 20
137.6875
 30
0.0
 11
68.000000000000057
 21
131.625
 31
0.0
  0
LINE
  5
5567
  8
0
 10
69.785714285714391
 20
168.0
 30
0.0
 11
69.785714285714391
 21
168.5
 31
0.0
  0
LINE
  5
5568
  8
0
 10
69.785714285714391
 20
119.0
 30
0.0
 11
69.785714285714391
 21
119.5
 31
0.0
  0
LINE
  5
5569
  8
0
 10
69.785714285714391
 20
119.0
 30
0.0
 11
50.000000000000057
 21
119.0
 31
0.0
  0
LINE
  5
556A
  8
0
 10
69.785714285714391
 20
168.5
 30
0.0
 11
50.000000000000057
 21
168.5
 31
0.0
  0
LINE
  5
556B
  8
0
 10
50.000000000000057
 20
119.0
 30
0.0
 11
50.000000000000057
 21
168.5
 31
0.0
  0
LINE
  5
556C
  8
0
 10
63.035530186566398
 20
119.0
 30
0.0
 11
63.035530186566398
 21
125.5625
 31
0.0
  0
LINE
  5
556D
  8
0
 10
63.035530186566398
 20
131.625
 30
0.0
 11
63.035530186566398
 21
137.6875
 31
0.0
  0
LINE
  5
556E
  8
0
 10
63.035530186566398
 20
143.75
 30
0.0
 11
63.035530186566398
 21
149.8125
 31
0.0
  0
LINE
  5
556F
  8
0
 10
63.035530186566398
 20
155.875
 30
0.0
 11
63.035530186566398
 21
156.89548914786701
 31
0.0
  0
LINE
  5
5570
  8
0
 10
63.035530186566398
 20
168.0
 30
0.0
 11
63.035530186566398
 21
168.5
 31
0.0
  0
LINE
  5
5571
  8
0
 10
85.596876251001106
 20
155.87499999999989
 30
0.0
 11
62.403123748999
 21
155.875
 31
0.0
  0
LINE
  5
5572
  8
0
 10
89.464101615137849
 20
149.8125
 30
0.0
 11
58.535898384862257
 21
149.8125
 31
0.0
  0
LINE
  5
5573
  8
0
 10
58.535898384862257
 20
149.8125
 30
0.0
 11
58.535898384862257
 21
154.00012887106431
 31
0.0
  0
LINE
  5
5574
  8
0
 10
89.464101615137849
 20
143.75
 30
0.0
 11
58.535898384862257
 21
143.75
 31
0.0
  0
LINE
  5
5575
  8
0
 10
89.464101615137849
 20
137.6875
 30
0.0
 11
58.535898384862257
 21
137.6875
 31
0.0
  0
LINE
  5
5576
  8
0
 10
58.535898384862257
 20
143.75
 30
0.0
 11
58.535898384862257
 21
137.6875
 31
0.0
  0
LINE
  5
5577
  8
0
 10
80.000000000000057
 20
168.0
 30
0.0
 11
58.535898384862257
 21
168.0
 31
0.0
  0
LINE
  5
5578
  8
0
 10
85.453879172590106
 20
161.93749999999989
 30
0.0
 11
62.546120827409993
 21
161.9375
 31
0.0
  0
LINE
  5
5579
  8
0
 10
58.535898384862257
 20
163.99987112893561
 30
0.0
 11
58.535898384862257
 21
168.0
 31
0.0
  0
LINE
  5
557A
  8
0
 10
85.453879172590234
 20
125.5624999999999
 30
0.0
 11
62.546120827409879
 21
125.5624999999999
 31
0.0
  0
LINE
  5
557B
  8
0
 10
85.596876251001106
 20
131.625
 30
0.0
 11
62.403123748999
 21
131.625
 31
0.0
  0
LINE
  5
557D
  8
0
 10
80.000000000000057
 20
125.5625
 30
0.0
 11
80.000000000000057
 21
131.625
 31
0.0
  0
LINE
  5
557E
  8
0
 10
80.000000000000057
 20
161.9375
 30
0.0
 11
80.000000000000057
 21
168.0
 31
0.0
  0
LINE
  5
557F
  8
0
 10
80.000000000000057
 20
137.6875
 30
0.0
 11
80.000000000000057
 21
143.75
 31
0.0
  0
LINE
  5
5580
  8
0
 10
80.000000000000057
 20
149.8125
 30
0.0
 11
80.000000000000057
 21
155.875
 31
0.0
  0
LINE
  5
5585
  8
1
 10
103.0
 20
143.75
 30
0.0
 11
45.000000000000057
 21
143.75
 31
0.0
  0
CIRCLE
  5
5586
  8
0
 10
89.500000000000057
 20
159.0
 30
0.0
 40
5.0
  0
CIRCLE
  5
5587
  8
0
 10
58.50000000000005
 20
128.5
 30
0.0
 40
5.0
  0
LINE
  5
55CD
  8
0
 10
63.035530186566398
 20
161.10451085213299
 30
0.0
 11
63.035530186566398
 21
161.9375
 31
0.0
  0
LINE
  5
55CE
  8
0
 10
84.964469813433709
 20
126.3954891478671
 30
0.0
 11
84.964469813433709
 21
125.5625
 31
0.0
  0
LINE
  5
578B
  8
1
 10
70.0
 20
62.999999999999993
 30
0.0
 11
78.0
 21
62.999999999999993
 31
0.0
  0
LINE
  5
578C
  8
1
 10
74.0
 20
58.999999999999993
 30
0.0
 11
74.0
 21
67.0
 31
0.0
  0
LINE
  5
578D
  8
1
 10
89.500000000000014
 20
62.999999999999993
 30
0.0
 11
89.500000000000014
 21
47.999999999999993
 31
0.0
  0
LINE
  5
578E
  8
1
 10
58.500000000000121
 20
62.999999999999993
 30
0.0
 11
58.5
 21
47.999999999999993
 31
0.0
  0
LINE
  5
578F
  8
0
 10
81.0
 20
52.030344885397071
 30
0.0
 11
71.0
 21
57.803847577293361
 31
0.0
  0
CIRCLE
  5
5790
  8
0
 10
74.0
 20
62.999999999999993
 30
0.0
 40
2.0
  0
LINE
  5
5791
  8
0
 10
77.0
 20
68.196152422706632
 30
0.0
 11
89.464101615137807
 21
60.999999999999993
 31
0.0
  0
ARC
  5
5792
  8
0
 10
74.0
 20
62.999999999999993
 30
0.0
 40
6.0
 50
59.999999999999972
 51
240.0
  0
LINE
  5
5793
  8
0
 10
78.214285714285666
 20
53.638677778139652
 30
0.0
 11
78.214285714285666
 21
57.10277939327738
 31
0.0
  0
LINE
  5
5794
  8
0
 10
78.214285714285666
 20
57.10277939327738
 30
0.0
 11
84.964469813433666
 21
60.999999999999993
 31
0.0
  0
LINE
  5
5795
  8
0
 10
84.964469813433666
 20
60.999999999999993
 30
0.0
 11
95.555555555555543
 21
60.999999999999993
 31
0.0
  0
ARC
  5
5796
  8
0
 10
95.555555555555543
 20
58.555555555555543
 30
0.0
 40
2.4444444444444429
 50
0.0
 51
90.0
  0
LINE
  5
5797
  8
0
 10
81.0
 20
50.0
 30
0.0
 11
81.0
 21
52.030344885397071
 31
0.0
  0
LINE
  5
5798
  8
0
 10
98.0
 20
50.0
 30
0.0
 11
81.0
 21
50.0
 31
0.0
  0
LINE
  5
5799
  8
0
 10
98.0
 20
58.555555555555543
 30
0.0
 11
98.0
 21
50.0
 31
0.0
  0
LINE
  5
579A
  8
0
 10
67.0
 20
52.030344885397071
 30
0.0
 11
74.0
 21
56.071796769724457
 31
0.0
  0
LINE
  5
579B
  8
0
 10
71.0
 20
68.196152422706632
 30
0.0
 11
58.535898384862207
 21
60.999999999999993
 31
0.0
  0
LINE
  5
579C
  8
0
 10
50.0
 20
50.0
 30
0.0
 11
67.0
 21
50.0
 31
0.0
  0
LINE
  5
579D
  8
0
 10
63.035530186566348
 20
60.999999999999993
 30
0.0
 11
52.444444444444457
 21
60.999999999999993
 31
0.0
  0
ARC
  5
579E
  8
0
 10
52.444444444444457
 20
58.555555555555543
 30
0.0
 40
2.4444444444444442
 50
90.0
 51
180.0
  0
LINE
  5
579F
  8
0
 10
50.0
 20
58.555555555555543
 30
0.0
 11
50.0
 21
50.0
 31
0.0
  0
LINE
  5
57A0
  8
0
 10
67.0
 20
50.0
 30
0.0
 11
67.0
 21
52.030344885397071
 31
0.0
  0
LINE
  5
57A1
  8
0
 10
69.785714285714334
 20
53.638677778139652
 30
0.0
 11
69.785714285714334
 21
57.10277939327738
 31
0.0
  0
LINE
  5
57A2
  8
0
 10
69.785714285714334
 20
57.10277939327738
 30
0.0
 11
63.035530186566348
 21
60.999999999999993
 31
0.0
  0
LINE
  5
586C
  8
1
 10
188.0
 20
62.999999999999993
 30
0.0
 11
188.0
 21
47.999999999999993
 31
0.0
  0
LINE
  5
586D
  8
1
 10
157.5
 20
62.999999999999993
 30
0.0
 11
157.5
 21
47.999999999999993
 31
0.0
  0
LINE
  5
586E
  8
0
 10
197.0
 20
60.999999999999993
 30
0.0
 11
197.0
 21
69.0
 31
0.0
  0
LINE
  5
586F
  8
0
 10
197.0
 20
69.0
 30
0.0
 11
148.5
 21
69.0
 31
0.0
  0
LINE
  5
5870
  8
0
 10
154.5625
 20
69.0
 30
0.0
 11
154.5625
 21
60.999999999999993
 31
0.0
  0
LINE
  5
5871
  8
0
 10
148.5
 20
69.0
 30
0.0
 11
148.5
 21
60.999999999999993
 31
0.0
  0
LINE
  5
5872
  8
0
 10
166.6875
 20
69.0
 30
0.0
 11
166.6875
 21
60.999999999999993
 31
0.0
  0
LINE
  5
5873
  8
0
 10
160.625
 20
69.0
 30
0.0
 11
160.625
 21
60.999999999999993
 31
0.0
  0
LINE
  5
5874
  8
0
 10
172.75
 20
69.0
 30
0.0
 11
172.75
 21
60.999999999999993
 31
0.0
  0
LINE
  5
5875
  8
0
 10
178.8125
 20
69.0
 30
0.0
 11
178.8125
 21
60.999999999999993
 31
0.0
  0
LINE
  5
5876
  8
0
 10
184.875
 20
69.0
 30
0.0
 11
184.875
 21
60.999999999999993
 31
0.0
  0
LINE
  5
5877
  8
0
 10
190.9375
 20
69.0
 30
0.0
 11
190.9375
 21
60.999999999999993
 31
0.0
  0
LINE
  5
5878
  8
0
 10
197.5
 20
50.0
 30
0.0
 11
148.0
 21
50.0
 31
0.0
  0
LINE
  5
5879
  8
0
 10
148.0
 20
60.999999999999993
 30
0.0
 11
148.0
 21
50.0
 31
0.0
  0
LINE
  5
587A
  8
0
 10
197.5
 20
60.999999999999993
 30
0.0
 11
197.5
 21
50.0
 31
0.0
  0
LINE
  5
587B
  8
0
 10
197.5
 20
60.999999999999993
 30
0.0
 11
148.0
 21
60.999999999999993
 31
0.0
  0
LINE
  5
587C
  8
1
 10
172.75
 20
74.0
 30
0.0
 11
172.75
 21
44.999999999999993
 31
0.0
  0
TEXT
  5
6C12
  8
0
 62
     3
 10
0.0
 20
0.0
 30
0.0
 40
10.0
  1
EFHX5050HH
  7
STANDARD1
  0
ENDSEC
  0
EOF
