  0
SECTION
  2
HEADER
  9
$ACADVER
  1
AC1009
  9
$INSBASE
 10
0.0
 20
0.0
 30
0.0
  9
$EXTMIN
 10
0.0
 20
-2.960436562073669
 30
0.0
  9
$EXTMAX
 10
229.0
 20
192.49999994039521
 30
0.0
  9
$LIMMIN
 10
0.0
 20
0.0
  9
$LIMMAX
 10
420.0
 20
330.0
  9
$ORTHOMODE
 70
     1
  9
$REGENMODE
 70
     1
  9
$FILLMODE
 70
     1
  9
$QTEXTMODE
 70
     0
  9
$MIRRTEXT
 70
     0
  9
$DRAGMODE
 70
     2
  9
$LTSCALE
 40
5.0
  9
$OSMODE
 70
    37
  9
$ATTMODE
 70
     1
  9
$TEXTSIZE
 40
0.2
  9
$TRACEWID
 40
0.05
  9
$TEXTSTYLE
  7
STANDARD
  9
$CLAYER
  8
0
  9
$CELTYPE
  6
BYLAYER
  9
$CECOLOR
 62
   256
  9
$DIMSCALE
 40
1.0
  9
$DIMASZ
 40
3.0
  9
$DIMEXO
 40
1.0
  9
$DIMDLI
 40
0.3799999999999999
  9
$DIMRND
 40
0.0
  9
$DIMDLE
 40
0.0
  9
$DIMEXE
 40
1.0
  9
$DIMTP
 40
0.0
  9
$DIMTM
 40
0.0
  9
$DIMTXT
 40
3.0
  9
$DIMCEN
 40
0.09
  9
$DIMTSZ
 40
0.0
  9
$DIMTOL
 70
     0
  9
$DIMLIM
 70
     0
  9
$DIMTIH
 70
     0
  9
$DIMTOH
 70
     0
  9
$DIMSE1
 70
     0
  9
$DIMSE2
 70
     0
  9
$DIMTAD
 70
     1
  9
$DIMZIN
 70
     8
  9
$DIMBLK
  1

  9
$DIMASO
 70
     0
  9
$DIMSHO
 70
     1
  9
$DIMPOST
  1

  9
$DIMAPOST
  1

  9
$DIMALT
 70
     0
  9
$DIMALTD
 70
     2
  9
$DIMALTF
 40
25.399999999999999
  9
$DIMLFAC
 40
1.0
  9
$DIMTOFL
 70
     0
  9
$DIMTVP
 40
0.0
  9
$DIMTIX
 70
     0
  9
$DIMSOXD
 70
     0
  9
$DIMSAH
 70
     0
  9
$DIMBLK1
  1

  9
$DIMBLK2
  1

  9
$DIMSTYLE
  2
STANDARD
  9
$DIMCLRD
 70
     0
  9
$DIMCLRE
 70
     0
  9
$DIMCLRT
 70
     0
  9
$DIMTFAC
 40
1.0
  9
$DIMGAP
 40
0.5
  9
$LUNITS
 70
     2
  9
$LUPREC
 70
     1
  9
$SKETCHINC
 40
0.1
  9
$FILLETRAD
 40
0.5
  9
$AUNITS
 70
     0
  9
$AUPREC
 70
     1
  9
$MENU
  1
ACAD
  9
$ELEVATION
 40
0.0
  9
$PELEVATION
 40
0.0
  9
$THICKNESS
 40
0.0
  9
$LIMCHECK
 70
     0
  9
$BLIPMODE
 70
     0
  9
$CHAMFERA
 40
0.1
  9
$CHAMFERB
 40
0.1
  9
$SKPOLY
 70
     0
  9
$TDCREATE
 40
2449640.5627083331
  9
$TDUPDATE
 40
2457893.6527121412
  9
$TDINDWG
 40
1.5956492476999999
  9
$TDUSRTIMER
 40
1.5956492476999999
  9
$USRTIMER
 70
     1
  9
$ANGBASE
 50
0.0
  9
$ANGDIR
 70
     0
  9
$PDMODE
 70
     0
  9
$PDSIZE
 40
0.0
  9
$PLINEWID
 40
0.0
  9
$COORDS
 70
     1
  9
$SPLFRAME
 70
     0
  9
$SPLINETYPE
 70
     6
  9
$SPLINESEGS
 70
     8
  9
$ATTDIA
 70
     0
  9
$ATTREQ
 70
     1
  9
$HANDLING
 70
     1
  9
$HANDSEED
  5
702E
  9
$SURFTAB1
 70
     6
  9
$SURFTAB2
 70
     6
  9
$SURFTYPE
 70
     6
  9
$SURFU
 70
     6
  9
$SURFV
 70
     6
  9
$UCSNAME
  2

  9
$UCSORG
 10
0.0
 20
0.0
 30
0.0
  9
$UCSXDIR
 10
1.0
 20
0.0
 30
0.0
  9
$UCSYDIR
 10
0.0
 20
1.0
 30
0.0
  9
$PUCSNAME
  2

  9
$PUCSORG
 10
0.0
 20
0.0
 30
0.0
  9
$PUCSXDIR
 10
1.0
 20
0.0
 30
0.0
  9
$PUCSYDIR
 10
0.0
 20
1.0
 30
0.0
  9
$USERI1
 70
     0
  9
$USERI2
 70
     1
  9
$USERI3
 70
     1
  9
$USERI4
 70
     0
  9
$USERI5
 70
     0
  9
$USERR1
 40
0.0
  9
$USERR2
 40
0.0
  9
$USERR3
 40
0.0
  9
$USERR4
 40
0.0
  9
$USERR5
 40
10.0
  9
$WORLDVIEW
 70
     1
  9
$SHADEDGE
 70
     3
  9
$SHADEDIF
 70
    70
  9
$TILEMODE
 70
     1
  9
$MAXACTVP
 70
    16
  9
$PLIMCHECK
 70
     0
  9
$PEXTMIN
 10
1.0000000000000000E+020
 20
1.0000000000000000E+020
 30
1.0000000000000000E+020
  9
$PEXTMAX
 10
-1.0000000000000000E+020
 20
-1.0000000000000000E+020
 30
-1.0000000000000000E+020
  9
$PLIMMIN
 10
0.0
 20
0.0
  9
$PLIMMAX
 10
12.0
 20
9.0
  9
$UNITMODE
 70
     0
  9
$VISRETAIN
 70
     0
  9
$PLINEGEN
 70
     0
  9
$PSLTSCALE
 70
     0
  0
ENDSEC
  0
SECTION
  2
TABLES
  0
TABLE
  2
VPORT
 70
     1
  0
VPORT
  2
*ACTIVE
 70
     0
 10
0.0
 20
0.0
 11
1.0
 21
1.0
 12
181.62393162393161
 22
100.0
 13
0.0
 23
0.0
 14
1.8999999999999999
 24
1.8999999999999999
 15
10.0
 25
10.0
 16
0.0
 26
0.0
 36
1.0
 17
0.0
 27
0.0
 37
0.0
 40
200.0
 41
1.816239316239316
 42
50.0
 43
0.0
 44
0.0
 50
0.0
 51
0.0
 71
     0
 72
   100
 73
     1
 74
     0
 75
     0
 76
     0
 77
     0
 78
     1
  0
ENDTAB
  0
TABLE
  2
LTYPE
 70
     4
  0
LTYPE
  2
CONTINUOUS
 70
     0
  3
Solid Line
 72
    65
 73
     0
 40
0.0
  0
LTYPE
  2
CENTER
 70
     0
  3
____ _ ____ _ ____ _ ____ _ ____ _ ____ _ ____
 72
    65
 73
     4
 40
2.0
 49
1.25
 49
-0.25
 49
0.25
 49
-0.25
  0
LTYPE
  2
HIDDEN
 70
     0
  3
_ _ _ _ _ _ _ _ _ _ _ _ _ _ _ _ _ _ _ _ _ _ _
 72
    65
 73
     2
 40
0.375
 49
0.25
 49
-0.125
  0
LTYPE
  2
PHANTOM2
 70
     0
  3
___ _ _ ___ _ _ ___ _ _ ___ _ _
 72
    65
 73
     6
 40
1.25
 49
0.625
 49
-0.125
 49
0.125
 49
-0.125
 49
0.125
 49
-0.125
  0
ENDTAB
  0
TABLE
  2
LAYER
 70
     5
  0
LAYER
  2
0
 70
     0
 62
     7
  6
CONTINUOUS
  0
LAYER
  2
WAKU
 70
     0
 62
     7
  6
CONTINUOUS
  0
LAYER
  2
1
 70
     0
 62
     1
  6
CENTER
  0
LAYER
  2
2
 70
     0
 62
     2
  6
HIDDEN
  0
LAYER
  2
DEFPOINTS
 70
     0
 62
     7
  6
CONTINUOUS
  0
ENDTAB
  0
TABLE
  2
STYLE
 70
     2
  0
STYLE
  2
STANDARD
 70
     0
 40
0.0
 41
1.0
 50
0.0
 71
     0
 42
0.2
  3
ROMANS
  4
EXTFONT
  0
STYLE
  2
STANDARD1
 70
     0
 40
0.0
 41
1.0
 50
0.0
 71
     0
 42
3.0
  3
txt
  4

  0
ENDTAB
  0
TABLE
  2
VIEW
 70
     0
  0
ENDTAB
  0
TABLE
  2
UCS
 70
     0
  0
ENDTAB
  0
TABLE
  2
APPID
 70
    11
  0
APPID
  2
ACAD
 70
     0
  0
APPID
  2
GENIUS_GENOREF_13
 70
     0
  0
APPID
  2
ACAD_NAV_VCDISPLAY
 70
     0
  0
APPID
  2
ACADANNOTATIVE
 70
     0
  0
APPID
  2
ACAD_EXEMPT_FROM_CAD_STANDARDS
 70
     0
  0
APPID
  2
GENIUS_GENODEF_13
 70
     0
  0
APPID
  2
GENIUS_GENOBJ-N-FIL_13
 70
     0
  0
APPID
  2
ACAD_MLEADERVER
 70
     0
  0
APPID
  2
ACAD_DSTYLE_DIMRADIAL_EXTENSION
 70
     0
  0
APPID
  2
ACAD_DSTYLE_DIMJAG
 70
     0
  0
APPID
  2
ACAD_DSTYLE_DIMTALN
 70
     0
  0
ENDTAB
  0
TABLE
  2
DIMSTYLE
 70
     1
  0
DIMSTYLE
  2
STANDARD
 70
     0
  3

  4

  5

  6

  7

 40
1.0
 41
0.18
 42
0.0625
 43
0.38
 44
0.18
 45
0.0
 46
0.0
 47
0.0
 48
0.0
140
0.18
141
0.09
142
0.0
143
25.399999999999999
144
1.0
145
0.0
146
1.0
147
0.09
 71
     0
 72
     0
 73
     1
 74
     1
 75
     0
 76
     0
 77
     0
 78
     0
170
     0
171
     2
172
     0
173
     0
174
     0
175
     0
176
     0
177
     0
178
     0
  0
ENDTAB
  0
ENDSEC
  0
SECTION
  2
BLOCKS
  0
BLOCK
  8
0
  2
$MODEL_SPACE
 70
     0
 10
0.0
 20
0.0
 30
0.0
  3
$MODEL_SPACE
  1

  0
ENDBLK
  5
9
  8
0
  0
BLOCK
 67
     1
  8
0
  2
$PAPER_SPACE
 70
     0
 10
0.0
 20
0.0
 30
0.0
  3
$PAPER_SPACE
  1

  0
ENDBLK
  5
E
 67
     1
  8
0
  0
BLOCK
  8
0
  2
ARROW1
 70
     0
 10
0.0
 20
0.0
 30
0.0
  3
ARROW1
  1

  0
SOLID
  5
24
  8
WAKU
  6
CONTINUOUS
 62
     4
 10
-1.0
 20
0.1666666666666714
 30
0.0
 11
-1.0
 21
-0.1666666666666714
 31
0.0
 12
0.0
 22
0.0
 32
0.0
 13
0.0
 23
0.0
 33
0.0
  0
ENDBLK
  5
27
  8
0
  0
ENDSEC
  0
SECTION
  2
ENTITIES
  0
LINE
  5
5F82
  8
2
 10
67.5
 20
56.999999999999993
 30
0.0
 11
56.5
 21
56.999999999999993
 31
0.0
  0
LINE
  5
5F87
  8
2
 10
107.5
 20
56.999999999999993
 30
0.0
 11
96.499999999999943
 21
56.999999999999993
 31
0.0
  0
LINE
  5
5F88
  8
2
 10
67.5
 20
56.999999999999993
 30
0.0
 11
67.5
 21
65.86602540378442
 31
0.0
  0
LINE
  5
5F89
  8
2
 10
56.5
 20
63.499999999999993
 30
0.0
 11
56.5
 21
56.999999999999993
 31
0.0
  0
LINE
  5
5F8A
  8
2
 10
65.25
 20
50.0
 30
0.0
 11
65.25
 21
56.999999999999993
 31
0.0
  0
LINE
  5
5F8B
  8
2
 10
58.75
 20
56.999999999999993
 30
0.0
 11
58.75
 21
50.0
 31
0.0
  0
LINE
  5
5F8C
  8
2
 10
107.5
 20
56.999999999999993
 30
0.0
 11
107.5
 21
63.499999999999993
 31
0.0
  0
LINE
  5
5F8D
  8
2
 10
96.500000000000057
 20
65.86602540378442
 30
0.0
 11
96.5
 21
56.999999999999993
 31
0.0
  0
LINE
  5
5F8E
  8
2
 10
105.25
 20
50.0
 30
0.0
 11
105.25
 21
56.999999999999993
 31
0.0
  0
LINE
  5
5F8F
  8
2
 10
98.75
 20
56.999999999999993
 30
0.0
 11
98.75
 21
50.0
 31
0.0
  0
CIRCLE
  5
5FC6
  8
0
 10
62.0
 20
175.4999999403953
 30
0.0
 40
3.25
  0
CIRCLE
  5
5FC7
  8
0
 10
62.0
 20
135.4999999403953
 30
0.0
 40
3.25
  0
CIRCLE
  5
5FEE
  8
0
 10
102.0
 20
175.4999999403953
 30
0.0
 40
3.250000000000028
  0
CIRCLE
  5
5FEF
  8
0
 10
102.0
 20
135.4999999403953
 30
0.0
 40
3.2500000000000142
  0
POLYLINE
  5
602E
  8
0
 10
220.5
 20
64.870048395011835
 30
0.0
 66
     1
 70
     8
  0
VERTEX
  8
0
  5
6EA8
 10
220.500
 20
64.8700
 30
0.000000
  70
    32
  0
VERTEX
  8
0
  5
6EA9
 10
220.452
 20
64.8993
 30
0.000000
  70
    32
  0
VERTEX
  8
0
  5
6EAA
 10
220.403
 20
64.9281
 30
0.000000
  70
    32
  0
VERTEX
  8
0
  5
6EAB
 10
220.353
 20
64.9566
 30
0.000000
  70
    32
  0
VERTEX
  8
0
  5
6EAC
 10
220.303
 20
64.9847
 30
0.000000
  70
    32
  0
VERTEX
  8
0
  5
6EAD
 10
220.252
 20
65.0125
 30
0.000000
  70
    32
  0
VERTEX
  8
0
  5
6EAE
 10
220.200
 20
65.0398
 30
0.000000
  70
    32
  0
VERTEX
  8
0
  5
6EAF
 10
220.148
 20
65.0668
 30
0.000000
  70
    32
  0
VERTEX
  8
0
  5
6EB0
 10
220.096
 20
65.0934
 30
0.000000
  70
    32
  0
VERTEX
  8
0
  5
6EB1
 10
220.042
 20
65.1197
 30
0.000000
  70
    32
  0
VERTEX
  8
0
  5
6EB2
 10
219.989
 20
65.1455
 30
0.000000
  70
    32
  0
VERTEX
  8
0
  5
6EB3
 10
219.934
 20
65.1709
 30
0.000000
  70
    32
  0
VERTEX
  8
0
  5
6EB4
 10
219.879
 20
65.1959
 30
0.000000
  70
    32
  0
VERTEX
  8
0
  5
6EB5
 10
219.824
 20
65.2206
 30
0.000000
  70
    32
  0
VERTEX
  8
0
  5
6EB6
 10
219.768
 20
65.2448
 30
0.000000
  70
    32
  0
VERTEX
  8
0
  5
6EB7
 10
219.711
 20
65.2686
 30
0.000000
  70
    32
  0
VERTEX
  8
0
  5
6EB8
 10
219.654
 20
65.2920
 30
0.000000
  70
    32
  0
VERTEX
  8
0
  5
6EB9
 10
219.597
 20
65.3149
 30
0.000000
  70
    32
  0
VERTEX
  8
0
  5
6EBA
 10
219.539
 20
65.3375
 30
0.000000
  70
    32
  0
VERTEX
  8
0
  5
6EBB
 10
219.480
 20
65.3596
 30
0.000000
  70
    32
  0
VERTEX
  8
0
  5
6EBC
 10
219.421
 20
65.3812
 30
0.000000
  70
    32
  0
VERTEX
  8
0
  5
6EBD
 10
219.361
 20
65.4025
 30
0.000000
  70
    32
  0
VERTEX
  8
0
  5
6EBE
 10
219.301
 20
65.4233
 30
0.000000
  70
    32
  0
VERTEX
  8
0
  5
6EBF
 10
219.241
 20
65.4436
 30
0.000000
  70
    32
  0
VERTEX
  8
0
  5
6EC0
 10
219.180
 20
65.4635
 30
0.000000
  70
    32
  0
VERTEX
  8
0
  5
6EC1
 10
219.119
 20
65.4830
 30
0.000000
  70
    32
  0
VERTEX
  8
0
  5
6EC2
 10
219.057
 20
65.5020
 30
0.000000
  70
    32
  0
VERTEX
  8
0
  5
6EC3
 10
218.995
 20
65.5206
 30
0.000000
  70
    32
  0
VERTEX
  8
0
  5
6EC4
 10
218.932
 20
65.5387
 30
0.000000
  70
    32
  0
VERTEX
  8
0
  5
6EC5
 10
218.869
 20
65.5563
 30
0.000000
  70
    32
  0
VERTEX
  8
0
  5
6EC6
 10
218.806
 20
65.5735
 30
0.000000
  70
    32
  0
VERTEX
  8
0
  5
6EC7
 10
218.742
 20
65.5902
 30
0.000000
  70
    32
  0
VERTEX
  8
0
  5
6EC8
 10
218.678
 20
65.6064
 30
0.000000
  70
    32
  0
VERTEX
  8
0
  5
6EC9
 10
218.614
 20
65.6222
 30
0.000000
  70
    32
  0
VERTEX
  8
0
  5
6ECA
 10
218.549
 20
65.6375
 30
0.000000
  70
    32
  0
VERTEX
  8
0
  5
6ECB
 10
218.484
 20
65.6523
 30
0.000000
  70
    32
  0
VERTEX
  8
0
  5
6ECC
 10
218.418
 20
65.6666
 30
0.000000
  70
    32
  0
VERTEX
  8
0
  5
6ECD
 10
218.353
 20
65.6805
 30
0.000000
  70
    32
  0
VERTEX
  8
0
  5
6ECE
 10
218.287
 20
65.6938
 30
0.000000
  70
    32
  0
VERTEX
  8
0
  5
6ECF
 10
218.220
 20
65.7067
 30
0.000000
  70
    32
  0
VERTEX
  8
0
  5
6ED0
 10
218.154
 20
65.7191
 30
0.000000
  70
    32
  0
VERTEX
  8
0
  5
6ED1
 10
218.087
 20
65.7310
 30
0.000000
  70
    32
  0
VERTEX
  8
0
  5
6ED2
 10
218.020
 20
65.7424
 30
0.000000
  70
    32
  0
VERTEX
  8
0
  5
6ED3
 10
217.952
 20
65.7533
 30
0.000000
  70
    32
  0
VERTEX
  8
0
  5
6ED4
 10
217.885
 20
65.7638
 30
0.000000
  70
    32
  0
VERTEX
  8
0
  5
6ED5
 10
217.817
 20
65.7737
 30
0.000000
  70
    32
  0
VERTEX
  8
0
  5
6ED6
 10
217.749
 20
65.7831
 30
0.000000
  70
    32
  0
VERTEX
  8
0
  5
6ED7
 10
217.680
 20
65.7920
 30
0.000000
  70
    32
  0
VERTEX
  8
0
  5
6ED8
 10
217.612
 20
65.8004
 30
0.000000
  70
    32
  0
VERTEX
  8
0
  5
6ED9
 10
217.543
 20
65.8084
 30
0.000000
  70
    32
  0
VERTEX
  8
0
  5
6EDA
 10
217.475
 20
65.8158
 30
0.000000
  70
    32
  0
VERTEX
  8
0
  5
6EDB
 10
217.406
 20
65.8227
 30
0.000000
  70
    32
  0
VERTEX
  8
0
  5
6EDC
 10
217.337
 20
65.8291
 30
0.000000
  70
    32
  0
VERTEX
  8
0
  5
6EDD
 10
217.267
 20
65.8350
 30
0.000000
  70
    32
  0
VERTEX
  8
0
  5
6EDE
 10
217.198
 20
65.8404
 30
0.000000
  70
    32
  0
VERTEX
  8
0
  5
6EDF
 10
217.128
 20
65.8452
 30
0.000000
  70
    32
  0
VERTEX
  8
0
  5
6EE0
 10
217.059
 20
65.8496
 30
0.000000
  70
    32
  0
VERTEX
  8
0
  5
6EE1
 10
216.989
 20
65.8534
 30
0.000000
  70
    32
  0
VERTEX
  8
0
  5
6EE2
 10
216.919
 20
65.8568
 30
0.000000
  70
    32
  0
VERTEX
  8
0
  5
6EE3
 10
216.850
 20
65.8596
 30
0.000000
  70
    32
  0
VERTEX
  8
0
  5
6EE4
 10
216.780
 20
65.8619
 30
0.000000
  70
    32
  0
VERTEX
  8
0
  5
6EE5
 10
216.710
 20
65.8637
 30
0.000000
  70
    32
  0
VERTEX
  8
0
  5
6EE6
 10
216.640
 20
65.8650
 30
0.000000
  70
    32
  0
VERTEX
  8
0
  5
6EE7
 10
216.570
 20
65.8658
 30
0.000000
  70
    32
  0
VERTEX
  8
0
  5
6EE8
 10
216.500
 20
65.8660
 30
0.000000
  70
    32
  0
VERTEX
  8
0
  5
6EE9
 10
216.430
 20
65.8658
 30
0.000000
  70
    32
  0
VERTEX
  8
0
  5
6EEA
 10
216.360
 20
65.8650
 30
0.000000
  70
    32
  0
VERTEX
  8
0
  5
6EEB
 10
216.290
 20
65.8637
 30
0.000000
  70
    32
  0
VERTEX
  8
0
  5
6EEC
 10
216.220
 20
65.8619
 30
0.000000
  70
    32
  0
VERTEX
  8
0
  5
6EED
 10
216.150
 20
65.8596
 30
0.000000
  70
    32
  0
VERTEX
  8
0
  5
6EEE
 10
216.081
 20
65.8568
 30
0.000000
  70
    32
  0
VERTEX
  8
0
  5
6EEF
 10
216.011
 20
65.8534
 30
0.000000
  70
    32
  0
VERTEX
  8
0
  5
6EF0
 10
215.941
 20
65.8496
 30
0.000000
  70
    32
  0
VERTEX
  8
0
  5
6EF1
 10
215.872
 20
65.8452
 30
0.000000
  70
    32
  0
VERTEX
  8
0
  5
6EF2
 10
215.802
 20
65.8404
 30
0.000000
  70
    32
  0
VERTEX
  8
0
  5
6EF3
 10
215.733
 20
65.8350
 30
0.000000
  70
    32
  0
VERTEX
  8
0
  5
6EF4
 10
215.663
 20
65.8291
 30
0.000000
  70
    32
  0
VERTEX
  8
0
  5
6EF5
 10
215.594
 20
65.8227
 30
0.000000
  70
    32
  0
VERTEX
  8
0
  5
6EF6
 10
215.525
 20
65.8158
 30
0.000000
  70
    32
  0
VERTEX
  8
0
  5
6EF7
 10
215.457
 20
65.8084
 30
0.000000
  70
    32
  0
VERTEX
  8
0
  5
6EF8
 10
215.388
 20
65.8004
 30
0.000000
  70
    32
  0
VERTEX
  8
0
  5
6EF9
 10
215.320
 20
65.7920
 30
0.000000
  70
    32
  0
VERTEX
  8
0
  5
6EFA
 10
215.251
 20
65.7831
 30
0.000000
  70
    32
  0
VERTEX
  8
0
  5
6EFB
 10
215.183
 20
65.7737
 30
0.000000
  70
    32
  0
VERTEX
  8
0
  5
6EFC
 10
215.115
 20
65.7638
 30
0.000000
  70
    32
  0
VERTEX
  8
0
  5
6EFD
 10
215.048
 20
65.7533
 30
0.000000
  70
    32
  0
VERTEX
  8
0
  5
6EFE
 10
214.980
 20
65.7424
 30
0.000000
  70
    32
  0
VERTEX
  8
0
  5
6EFF
 10
214.913
 20
65.7310
 30
0.000000
  70
    32
  0
VERTEX
  8
0
  5
6F00
 10
214.846
 20
65.7191
 30
0.000000
  70
    32
  0
VERTEX
  8
0
  5
6F01
 10
214.780
 20
65.7067
 30
0.000000
  70
    32
  0
VERTEX
  8
0
  5
6F02
 10
214.713
 20
65.6938
 30
0.000000
  70
    32
  0
VERTEX
  8
0
  5
6F03
 10
214.647
 20
65.6805
 30
0.000000
  70
    32
  0
VERTEX
  8
0
  5
6F04
 10
214.582
 20
65.6666
 30
0.000000
  70
    32
  0
VERTEX
  8
0
  5
6F05
 10
214.516
 20
65.6523
 30
0.000000
  70
    32
  0
VERTEX
  8
0
  5
6F06
 10
214.451
 20
65.6375
 30
0.000000
  70
    32
  0
VERTEX
  8
0
  5
6F07
 10
214.386
 20
65.6222
 30
0.000000
  70
    32
  0
VERTEX
  8
0
  5
6F08
 10
214.322
 20
65.6064
 30
0.000000
  70
    32
  0
VERTEX
  8
0
  5
6F09
 10
214.258
 20
65.5902
 30
0.000000
  70
    32
  0
VERTEX
  8
0
  5
6F0A
 10
214.194
 20
65.5735
 30
0.000000
  70
    32
  0
VERTEX
  8
0
  5
6F0B
 10
214.131
 20
65.5563
 30
0.000000
  70
    32
  0
VERTEX
  8
0
  5
6F0C
 10
214.068
 20
65.5387
 30
0.000000
  70
    32
  0
VERTEX
  8
0
  5
6F0D
 10
214.005
 20
65.5206
 30
0.000000
  70
    32
  0
VERTEX
  8
0
  5
6F0E
 10
213.943
 20
65.5020
 30
0.000000
  70
    32
  0
VERTEX
  8
0
  5
6F0F
 10
213.881
 20
65.4830
 30
0.000000
  70
    32
  0
VERTEX
  8
0
  5
6F10
 10
213.820
 20
65.4635
 30
0.000000
  70
    32
  0
VERTEX
  8
0
  5
6F11
 10
213.759
 20
65.4436
 30
0.000000
  70
    32
  0
VERTEX
  8
0
  5
6F12
 10
213.699
 20
65.4233
 30
0.000000
  70
    32
  0
VERTEX
  8
0
  5
6F13
 10
213.639
 20
65.4025
 30
0.000000
  70
    32
  0
VERTEX
  8
0
  5
6F14
 10
213.579
 20
65.3812
 30
0.000000
  70
    32
  0
VERTEX
  8
0
  5
6F15
 10
213.520
 20
65.3596
 30
0.000000
  70
    32
  0
VERTEX
  8
0
  5
6F16
 10
213.461
 20
65.3375
 30
0.000000
  70
    32
  0
VERTEX
  8
0
  5
6F17
 10
213.403
 20
65.3149
 30
0.000000
  70
    32
  0
VERTEX
  8
0
  5
6F18
 10
213.346
 20
65.2920
 30
0.000000
  70
    32
  0
VERTEX
  8
0
  5
6F19
 10
213.289
 20
65.2686
 30
0.000000
  70
    32
  0
VERTEX
  8
0
  5
6F1A
 10
213.232
 20
65.2448
 30
0.000000
  70
    32
  0
VERTEX
  8
0
  5
6F1B
 10
213.176
 20
65.2206
 30
0.000000
  70
    32
  0
VERTEX
  8
0
  5
6F1C
 10
213.121
 20
65.1959
 30
0.000000
  70
    32
  0
VERTEX
  8
0
  5
6F1D
 10
213.066
 20
65.1709
 30
0.000000
  70
    32
  0
VERTEX
  8
0
  5
6F1E
 10
213.011
 20
65.1455
 30
0.000000
  70
    32
  0
VERTEX
  8
0
  5
6F1F
 10
212.958
 20
65.1197
 30
0.000000
  70
    32
  0
VERTEX
  8
0
  5
6F20
 10
212.904
 20
65.0934
 30
0.000000
  70
    32
  0
VERTEX
  8
0
  5
6F21
 10
212.852
 20
65.0668
 30
0.000000
  70
    32
  0
VERTEX
  8
0
  5
6F22
 10
212.800
 20
65.0398
 30
0.000000
  70
    32
  0
VERTEX
  8
0
  5
6F23
 10
212.748
 20
65.0125
 30
0.000000
  70
    32
  0
VERTEX
  8
0
  5
6F24
 10
212.697
 20
64.9847
 30
0.000000
  70
    32
  0
VERTEX
  8
0
  5
6F25
 10
212.647
 20
64.9566
 30
0.000000
  70
    32
  0
VERTEX
  8
0
  5
6F26
 10
212.597
 20
64.9281
 30
0.000000
  70
    32
  0
VERTEX
  8
0
  5
6F27
 10
212.548
 20
64.8993
 30
0.000000
  70
    32
  0
VERTEX
  8
0
  5
6F28
 10
212.500
 20
64.8700
 30
0.000000
  70
    32
  0
SEQEND
  8
0
  5
6F29
  0
POLYLINE
  5
6030
  8
0
 10
181.81832771562887
 20
63.499999999999993
 30
0.0
 66
     1
 70
     8
  0
VERTEX
  8
0
  5
6F2A
 10
181.818
 20
63.5000
 30
0.000000
  70
    32
  0
VERTEX
  8
0
  5
6F2B
 10
181.813
 20
63.5120
 30
0.000000
  70
    32
  0
VERTEX
  8
0
  5
6F2C
 10
181.807
 20
63.5239
 30
0.000000
  70
    32
  0
VERTEX
  8
0
  5
6F2D
 10
181.802
 20
63.5358
 30
0.000000
  70
    32
  0
VERTEX
  8
0
  5
6F2E
 10
181.796
 20
63.5478
 30
0.000000
  70
    32
  0
VERTEX
  8
0
  5
6F2F
 10
181.790
 20
63.5597
 30
0.000000
  70
    32
  0
VERTEX
  8
0
  5
6F30
 10
181.784
 20
63.5716
 30
0.000000
  70
    32
  0
VERTEX
  8
0
  5
6F31
 10
181.778
 20
63.5834
 30
0.000000
  70
    32
  0
VERTEX
  8
0
  5
6F32
 10
181.772
 20
63.5953
 30
0.000000
  70
    32
  0
VERTEX
  8
0
  5
6F33
 10
181.766
 20
63.6072
 30
0.000000
  70
    32
  0
VERTEX
  8
0
  5
6F34
 10
181.760
 20
63.6190
 30
0.000000
  70
    32
  0
VERTEX
  8
0
  5
6F35
 10
181.753
 20
63.6308
 30
0.000000
  70
    32
  0
VERTEX
  8
0
  5
6F36
 10
181.747
 20
63.6426
 30
0.000000
  70
    32
  0
VERTEX
  8
0
  5
6F37
 10
181.741
 20
63.6544
 30
0.000000
  70
    32
  0
VERTEX
  8
0
  5
6F38
 10
181.734
 20
63.6662
 30
0.000000
  70
    32
  0
VERTEX
  8
0
  5
6F39
 10
181.727
 20
63.6780
 30
0.000000
  70
    32
  0
VERTEX
  8
0
  5
6F3A
 10
181.721
 20
63.6897
 30
0.000000
  70
    32
  0
VERTEX
  8
0
  5
6F3B
 10
181.714
 20
63.7015
 30
0.000000
  70
    32
  0
VERTEX
  8
0
  5
6F3C
 10
181.707
 20
63.7132
 30
0.000000
  70
    32
  0
VERTEX
  8
0
  5
6F3D
 10
181.700
 20
63.7249
 30
0.000000
  70
    32
  0
VERTEX
  8
0
  5
6F3E
 10
181.693
 20
63.7366
 30
0.000000
  70
    32
  0
VERTEX
  8
0
  5
6F3F
 10
181.686
 20
63.7482
 30
0.000000
  70
    32
  0
VERTEX
  8
0
  5
6F40
 10
181.679
 20
63.7599
 30
0.000000
  70
    32
  0
VERTEX
  8
0
  5
6F41
 10
181.672
 20
63.7715
 30
0.000000
  70
    32
  0
VERTEX
  8
0
  5
6F42
 10
181.664
 20
63.7832
 30
0.000000
  70
    32
  0
VERTEX
  8
0
  5
6F43
 10
181.657
 20
63.7948
 30
0.000000
  70
    32
  0
VERTEX
  8
0
  5
6F44
 10
181.649
 20
63.8064
 30
0.000000
  70
    32
  0
VERTEX
  8
0
  5
6F45
 10
181.642
 20
63.8179
 30
0.000000
  70
    32
  0
VERTEX
  8
0
  5
6F46
 10
181.634
 20
63.8295
 30
0.000000
  70
    32
  0
VERTEX
  8
0
  5
6F47
 10
181.626
 20
63.8410
 30
0.000000
  70
    32
  0
VERTEX
  8
0
  5
6F48
 10
181.619
 20
63.8526
 30
0.000000
  70
    32
  0
VERTEX
  8
0
  5
6F49
 10
181.611
 20
63.8641
 30
0.000000
  70
    32
  0
VERTEX
  8
0
  5
6F4A
 10
181.603
 20
63.8756
 30
0.000000
  70
    32
  0
VERTEX
  8
0
  5
6F4B
 10
181.595
 20
63.8870
 30
0.000000
  70
    32
  0
VERTEX
  8
0
  5
6F4C
 10
181.587
 20
63.8985
 30
0.000000
  70
    32
  0
VERTEX
  8
0
  5
6F4D
 10
181.578
 20
63.9099
 30
0.000000
  70
    32
  0
VERTEX
  8
0
  5
6F4E
 10
181.570
 20
63.9213
 30
0.000000
  70
    32
  0
VERTEX
  8
0
  5
6F4F
 10
181.562
 20
63.9327
 30
0.000000
  70
    32
  0
VERTEX
  8
0
  5
6F50
 10
181.553
 20
63.9441
 30
0.000000
  70
    32
  0
VERTEX
  8
0
  5
6F51
 10
181.545
 20
63.9555
 30
0.000000
  70
    32
  0
VERTEX
  8
0
  5
6F52
 10
181.536
 20
63.9668
 30
0.000000
  70
    32
  0
VERTEX
  8
0
  5
6F53
 10
181.528
 20
63.9781
 30
0.000000
  70
    32
  0
VERTEX
  8
0
  5
6F54
 10
181.519
 20
63.9894
 30
0.000000
  70
    32
  0
VERTEX
  8
0
  5
6F55
 10
181.510
 20
64.0007
 30
0.000000
  70
    32
  0
VERTEX
  8
0
  5
6F56
 10
181.501
 20
64.0120
 30
0.000000
  70
    32
  0
VERTEX
  8
0
  5
6F57
 10
181.492
 20
64.0232
 30
0.000000
  70
    32
  0
VERTEX
  8
0
  5
6F58
 10
181.483
 20
64.0344
 30
0.000000
  70
    32
  0
VERTEX
  8
0
  5
6F59
 10
181.474
 20
64.0456
 30
0.000000
  70
    32
  0
VERTEX
  8
0
  5
6F5A
 10
181.465
 20
64.0568
 30
0.000000
  70
    32
  0
VERTEX
  8
0
  5
6F5B
 10
181.456
 20
64.0680
 30
0.000000
  70
    32
  0
VERTEX
  8
0
  5
6F5C
 10
181.446
 20
64.0791
 30
0.000000
  70
    32
  0
VERTEX
  8
0
  5
6F5D
 10
181.437
 20
64.0902
 30
0.000000
  70
    32
  0
VERTEX
  8
0
  5
6F5E
 10
181.427
 20
64.1013
 30
0.000000
  70
    32
  0
VERTEX
  8
0
  5
6F5F
 10
181.418
 20
64.1124
 30
0.000000
  70
    32
  0
VERTEX
  8
0
  5
6F60
 10
181.408
 20
64.1234
 30
0.000000
  70
    32
  0
VERTEX
  8
0
  5
6F61
 10
181.399
 20
64.1345
 30
0.000000
  70
    32
  0
VERTEX
  8
0
  5
6F62
 10
181.389
 20
64.1455
 30
0.000000
  70
    32
  0
VERTEX
  8
0
  5
6F63
 10
181.379
 20
64.1564
 30
0.000000
  70
    32
  0
VERTEX
  8
0
  5
6F64
 10
181.369
 20
64.1674
 30
0.000000
  70
    32
  0
VERTEX
  8
0
  5
6F65
 10
181.359
 20
64.1784
 30
0.000000
  70
    32
  0
VERTEX
  8
0
  5
6F66
 10
181.349
 20
64.1893
 30
0.000000
  70
    32
  0
VERTEX
  8
0
  5
6F67
 10
181.339
 20
64.2002
 30
0.000000
  70
    32
  0
VERTEX
  8
0
  5
6F68
 10
181.329
 20
64.2110
 30
0.000000
  70
    32
  0
VERTEX
  8
0
  5
6F69
 10
181.318
 20
64.2219
 30
0.000000
  70
    32
  0
VERTEX
  8
0
  5
6F6A
 10
181.308
 20
64.2327
 30
0.000000
  70
    32
  0
VERTEX
  8
0
  5
6F6B
 10
181.297
 20
64.2435
 30
0.000000
  70
    32
  0
VERTEX
  8
0
  5
6F6C
 10
181.287
 20
64.2543
 30
0.000000
  70
    32
  0
VERTEX
  8
0
  5
6F6D
 10
181.276
 20
64.2651
 30
0.000000
  70
    32
  0
VERTEX
  8
0
  5
6F6E
 10
181.266
 20
64.2758
 30
0.000000
  70
    32
  0
VERTEX
  8
0
  5
6F6F
 10
181.255
 20
64.2865
 30
0.000000
  70
    32
  0
VERTEX
  8
0
  5
6F70
 10
181.244
 20
64.2972
 30
0.000000
  70
    32
  0
VERTEX
  8
0
  5
6F71
 10
181.233
 20
64.3078
 30
0.000000
  70
    32
  0
VERTEX
  8
0
  5
6F72
 10
181.222
 20
64.3185
 30
0.000000
  70
    32
  0
VERTEX
  8
0
  5
6F73
 10
181.211
 20
64.3291
 30
0.000000
  70
    32
  0
VERTEX
  8
0
  5
6F74
 10
181.200
 20
64.3397
 30
0.000000
  70
    32
  0
VERTEX
  8
0
  5
6F75
 10
181.189
 20
64.3502
 30
0.000000
  70
    32
  0
VERTEX
  8
0
  5
6F76
 10
181.178
 20
64.3608
 30
0.000000
  70
    32
  0
VERTEX
  8
0
  5
6F77
 10
181.166
 20
64.3713
 30
0.000000
  70
    32
  0
VERTEX
  8
0
  5
6F78
 10
181.155
 20
64.3818
 30
0.000000
  70
    32
  0
VERTEX
  8
0
  5
6F79
 10
181.144
 20
64.3922
 30
0.000000
  70
    32
  0
VERTEX
  8
0
  5
6F7A
 10
181.132
 20
64.4027
 30
0.000000
  70
    32
  0
VERTEX
  8
0
  5
6F7B
 10
181.121
 20
64.4131
 30
0.000000
  70
    32
  0
VERTEX
  8
0
  5
6F7C
 10
181.109
 20
64.4234
 30
0.000000
  70
    32
  0
VERTEX
  8
0
  5
6F7D
 10
181.097
 20
64.4338
 30
0.000000
  70
    32
  0
VERTEX
  8
0
  5
6F7E
 10
181.085
 20
64.4441
 30
0.000000
  70
    32
  0
VERTEX
  8
0
  5
6F7F
 10
181.073
 20
64.4544
 30
0.000000
  70
    32
  0
VERTEX
  8
0
  5
6F80
 10
181.062
 20
64.4647
 30
0.000000
  70
    32
  0
VERTEX
  8
0
  5
6F81
 10
181.050
 20
64.4750
 30
0.000000
  70
    32
  0
VERTEX
  8
0
  5
6F82
 10
181.037
 20
64.4852
 30
0.000000
  70
    32
  0
VERTEX
  8
0
  5
6F83
 10
181.025
 20
64.4954
 30
0.000000
  70
    32
  0
VERTEX
  8
0
  5
6F84
 10
181.013
 20
64.5055
 30
0.000000
  70
    32
  0
VERTEX
  8
0
  5
6F85
 10
181.001
 20
64.5157
 30
0.000000
  70
    32
  0
VERTEX
  8
0
  5
6F86
 10
180.988
 20
64.5258
 30
0.000000
  70
    32
  0
VERTEX
  8
0
  5
6F87
 10
180.976
 20
64.5359
 30
0.000000
  70
    32
  0
VERTEX
  8
0
  5
6F88
 10
180.964
 20
64.5459
 30
0.000000
  70
    32
  0
VERTEX
  8
0
  5
6F89
 10
180.951
 20
64.5559
 30
0.000000
  70
    32
  0
VERTEX
  8
0
  5
6F8A
 10
180.938
 20
64.5659
 30
0.000000
  70
    32
  0
VERTEX
  8
0
  5
6F8B
 10
180.926
 20
64.5759
 30
0.000000
  70
    32
  0
VERTEX
  8
0
  5
6F8C
 10
180.913
 20
64.5859
 30
0.000000
  70
    32
  0
VERTEX
  8
0
  5
6F8D
 10
180.900
 20
64.5958
 30
0.000000
  70
    32
  0
VERTEX
  8
0
  5
6F8E
 10
180.887
 20
64.6056
 30
0.000000
  70
    32
  0
VERTEX
  8
0
  5
6F8F
 10
180.874
 20
64.6155
 30
0.000000
  70
    32
  0
VERTEX
  8
0
  5
6F90
 10
180.861
 20
64.6253
 30
0.000000
  70
    32
  0
VERTEX
  8
0
  5
6F91
 10
180.848
 20
64.6351
 30
0.000000
  70
    32
  0
VERTEX
  8
0
  5
6F92
 10
180.835
 20
64.6449
 30
0.000000
  70
    32
  0
VERTEX
  8
0
  5
6F93
 10
180.822
 20
64.6546
 30
0.000000
  70
    32
  0
VERTEX
  8
0
  5
6F94
 10
180.808
 20
64.6643
 30
0.000000
  70
    32
  0
VERTEX
  8
0
  5
6F95
 10
180.795
 20
64.6740
 30
0.000000
  70
    32
  0
VERTEX
  8
0
  5
6F96
 10
180.782
 20
64.6837
 30
0.000000
  70
    32
  0
VERTEX
  8
0
  5
6F97
 10
180.768
 20
64.6933
 30
0.000000
  70
    32
  0
VERTEX
  8
0
  5
6F98
 10
180.755
 20
64.7029
 30
0.000000
  70
    32
  0
VERTEX
  8
0
  5
6F99
 10
180.741
 20
64.7124
 30
0.000000
  70
    32
  0
VERTEX
  8
0
  5
6F9A
 10
180.727
 20
64.7219
 30
0.000000
  70
    32
  0
VERTEX
  8
0
  5
6F9B
 10
180.714
 20
64.7314
 30
0.000000
  70
    32
  0
VERTEX
  8
0
  5
6F9C
 10
180.700
 20
64.7409
 30
0.000000
  70
    32
  0
VERTEX
  8
0
  5
6F9D
 10
180.686
 20
64.7503
 30
0.000000
  70
    32
  0
VERTEX
  8
0
  5
6F9E
 10
180.672
 20
64.7597
 30
0.000000
  70
    32
  0
VERTEX
  8
0
  5
6F9F
 10
180.658
 20
64.7691
 30
0.000000
  70
    32
  0
VERTEX
  8
0
  5
6FA0
 10
180.644
 20
64.7784
 30
0.000000
  70
    32
  0
VERTEX
  8
0
  5
6FA1
 10
180.630
 20
64.7877
 30
0.000000
  70
    32
  0
VERTEX
  8
0
  5
6FA2
 10
180.616
 20
64.7970
 30
0.000000
  70
    32
  0
VERTEX
  8
0
  5
6FA3
 10
180.601
 20
64.8063
 30
0.000000
  70
    32
  0
VERTEX
  8
0
  5
6FA4
 10
180.587
 20
64.8155
 30
0.000000
  70
    32
  0
VERTEX
  8
0
  5
6FA5
 10
180.573
 20
64.8246
 30
0.000000
  70
    32
  0
VERTEX
  8
0
  5
6FA6
 10
180.558
 20
64.8338
 30
0.000000
  70
    32
  0
VERTEX
  8
0
  5
6FA7
 10
180.544
 20
64.8429
 30
0.000000
  70
    32
  0
VERTEX
  8
0
  5
6FA8
 10
180.529
 20
64.8520
 30
0.000000
  70
    32
  0
VERTEX
  8
0
  5
6FA9
 10
180.515
 20
64.8610
 30
0.000000
  70
    32
  0
VERTEX
  8
0
  5
6FAA
 10
180.500
 20
64.8700
 30
0.000000
  70
    32
  0
SEQEND
  8
0
  5
6FAB
  0
POLYLINE
  5
6031
  8
0
 10
172.49999999999997
 20
64.870048395011821
 30
0.0
 66
     1
 70
     8
  0
VERTEX
  8
0
  5
6FAC
 10
172.500
 20
64.8700
 30
0.000000
  70
    32
  0
VERTEX
  8
0
  5
6FAD
 10
172.485
 20
64.8610
 30
0.000000
  70
    32
  0
VERTEX
  8
0
  5
6FAE
 10
172.471
 20
64.8520
 30
0.000000
  70
    32
  0
VERTEX
  8
0
  5
6FAF
 10
172.456
 20
64.8429
 30
0.000000
  70
    32
  0
VERTEX
  8
0
  5
6FB0
 10
172.442
 20
64.8338
 30
0.000000
  70
    32
  0
VERTEX
  8
0
  5
6FB1
 10
172.427
 20
64.8246
 30
0.000000
  70
    32
  0
VERTEX
  8
0
  5
6FB2
 10
172.413
 20
64.8155
 30
0.000000
  70
    32
  0
VERTEX
  8
0
  5
6FB3
 10
172.399
 20
64.8063
 30
0.000000
  70
    32
  0
VERTEX
  8
0
  5
6FB4
 10
172.384
 20
64.7970
 30
0.000000
  70
    32
  0
VERTEX
  8
0
  5
6FB5
 10
172.370
 20
64.7877
 30
0.000000
  70
    32
  0
VERTEX
  8
0
  5
6FB6
 10
172.356
 20
64.7784
 30
0.000000
  70
    32
  0
VERTEX
  8
0
  5
6FB7
 10
172.342
 20
64.7691
 30
0.000000
  70
    32
  0
VERTEX
  8
0
  5
6FB8
 10
172.328
 20
64.7597
 30
0.000000
  70
    32
  0
VERTEX
  8
0
  5
6FB9
 10
172.314
 20
64.7503
 30
0.000000
  70
    32
  0
VERTEX
  8
0
  5
6FBA
 10
172.300
 20
64.7409
 30
0.000000
  70
    32
  0
VERTEX
  8
0
  5
6FBB
 10
172.286
 20
64.7314
 30
0.000000
  70
    32
  0
VERTEX
  8
0
  5
6FBC
 10
172.273
 20
64.7219
 30
0.000000
  70
    32
  0
VERTEX
  8
0
  5
6FBD
 10
172.259
 20
64.7124
 30
0.000000
  70
    32
  0
VERTEX
  8
0
  5
6FBE
 10
172.245
 20
64.7029
 30
0.000000
  70
    32
  0
VERTEX
  8
0
  5
6FBF
 10
172.232
 20
64.6933
 30
0.000000
  70
    32
  0
VERTEX
  8
0
  5
6FC0
 10
172.218
 20
64.6837
 30
0.000000
  70
    32
  0
VERTEX
  8
0
  5
6FC1
 10
172.205
 20
64.6740
 30
0.000000
  70
    32
  0
VERTEX
  8
0
  5
6FC2
 10
172.192
 20
64.6643
 30
0.000000
  70
    32
  0
VERTEX
  8
0
  5
6FC3
 10
172.178
 20
64.6546
 30
0.000000
  70
    32
  0
VERTEX
  8
0
  5
6FC4
 10
172.165
 20
64.6449
 30
0.000000
  70
    32
  0
VERTEX
  8
0
  5
6FC5
 10
172.152
 20
64.6351
 30
0.000000
  70
    32
  0
VERTEX
  8
0
  5
6FC6
 10
172.139
 20
64.6253
 30
0.000000
  70
    32
  0
VERTEX
  8
0
  5
6FC7
 10
172.126
 20
64.6155
 30
0.000000
  70
    32
  0
VERTEX
  8
0
  5
6FC8
 10
172.113
 20
64.6056
 30
0.000000
  70
    32
  0
VERTEX
  8
0
  5
6FC9
 10
172.100
 20
64.5958
 30
0.000000
  70
    32
  0
VERTEX
  8
0
  5
6FCA
 10
172.087
 20
64.5859
 30
0.000000
  70
    32
  0
VERTEX
  8
0
  5
6FCB
 10
172.074
 20
64.5759
 30
0.000000
  70
    32
  0
VERTEX
  8
0
  5
6FCC
 10
172.062
 20
64.5659
 30
0.000000
  70
    32
  0
VERTEX
  8
0
  5
6FCD
 10
172.049
 20
64.5559
 30
0.000000
  70
    32
  0
VERTEX
  8
0
  5
6FCE
 10
172.036
 20
64.5459
 30
0.000000
  70
    32
  0
VERTEX
  8
0
  5
6FCF
 10
172.024
 20
64.5359
 30
0.000000
  70
    32
  0
VERTEX
  8
0
  5
6FD0
 10
172.012
 20
64.5258
 30
0.000000
  70
    32
  0
VERTEX
  8
0
  5
6FD1
 10
171.999
 20
64.5157
 30
0.000000
  70
    32
  0
VERTEX
  8
0
  5
6FD2
 10
171.987
 20
64.5055
 30
0.000000
  70
    32
  0
VERTEX
  8
0
  5
6FD3
 10
171.975
 20
64.4954
 30
0.000000
  70
    32
  0
VERTEX
  8
0
  5
6FD4
 10
171.963
 20
64.4852
 30
0.000000
  70
    32
  0
VERTEX
  8
0
  5
6FD5
 10
171.950
 20
64.4750
 30
0.000000
  70
    32
  0
VERTEX
  8
0
  5
6FD6
 10
171.938
 20
64.4647
 30
0.000000
  70
    32
  0
VERTEX
  8
0
  5
6FD7
 10
171.927
 20
64.4544
 30
0.000000
  70
    32
  0
VERTEX
  8
0
  5
6FD8
 10
171.915
 20
64.4441
 30
0.000000
  70
    32
  0
VERTEX
  8
0
  5
6FD9
 10
171.903
 20
64.4338
 30
0.000000
  70
    32
  0
VERTEX
  8
0
  5
6FDA
 10
171.891
 20
64.4234
 30
0.000000
  70
    32
  0
VERTEX
  8
0
  5
6FDB
 10
171.879
 20
64.4131
 30
0.000000
  70
    32
  0
VERTEX
  8
0
  5
6FDC
 10
171.868
 20
64.4027
 30
0.000000
  70
    32
  0
VERTEX
  8
0
  5
6FDD
 10
171.856
 20
64.3922
 30
0.000000
  70
    32
  0
VERTEX
  8
0
  5
6FDE
 10
171.845
 20
64.3818
 30
0.000000
  70
    32
  0
VERTEX
  8
0
  5
6FDF
 10
171.834
 20
64.3713
 30
0.000000
  70
    32
  0
VERTEX
  8
0
  5
6FE0
 10
171.822
 20
64.3608
 30
0.000000
  70
    32
  0
VERTEX
  8
0
  5
6FE1
 10
171.811
 20
64.3502
 30
0.000000
  70
    32
  0
VERTEX
  8
0
  5
6FE2
 10
171.800
 20
64.3397
 30
0.000000
  70
    32
  0
VERTEX
  8
0
  5
6FE3
 10
171.789
 20
64.3291
 30
0.000000
  70
    32
  0
VERTEX
  8
0
  5
6FE4
 10
171.778
 20
64.3185
 30
0.000000
  70
    32
  0
VERTEX
  8
0
  5
6FE5
 10
171.767
 20
64.3078
 30
0.000000
  70
    32
  0
VERTEX
  8
0
  5
6FE6
 10
171.756
 20
64.2972
 30
0.000000
  70
    32
  0
VERTEX
  8
0
  5
6FE7
 10
171.745
 20
64.2865
 30
0.000000
  70
    32
  0
VERTEX
  8
0
  5
6FE8
 10
171.734
 20
64.2758
 30
0.000000
  70
    32
  0
VERTEX
  8
0
  5
6FE9
 10
171.724
 20
64.2651
 30
0.000000
  70
    32
  0
VERTEX
  8
0
  5
6FEA
 10
171.713
 20
64.2543
 30
0.000000
  70
    32
  0
VERTEX
  8
0
  5
6FEB
 10
171.703
 20
64.2435
 30
0.000000
  70
    32
  0
VERTEX
  8
0
  5
6FEC
 10
171.692
 20
64.2327
 30
0.000000
  70
    32
  0
VERTEX
  8
0
  5
6FED
 10
171.682
 20
64.2219
 30
0.000000
  70
    32
  0
VERTEX
  8
0
  5
6FEE
 10
171.671
 20
64.2110
 30
0.000000
  70
    32
  0
VERTEX
  8
0
  5
6FEF
 10
171.661
 20
64.2002
 30
0.000000
  70
    32
  0
VERTEX
  8
0
  5
6FF0
 10
171.651
 20
64.1893
 30
0.000000
  70
    32
  0
VERTEX
  8
0
  5
6FF1
 10
171.641
 20
64.1784
 30
0.000000
  70
    32
  0
VERTEX
  8
0
  5
6FF2
 10
171.631
 20
64.1674
 30
0.000000
  70
    32
  0
VERTEX
  8
0
  5
6FF3
 10
171.621
 20
64.1564
 30
0.000000
  70
    32
  0
VERTEX
  8
0
  5
6FF4
 10
171.611
 20
64.1455
 30
0.000000
  70
    32
  0
VERTEX
  8
0
  5
6FF5
 10
171.601
 20
64.1345
 30
0.000000
  70
    32
  0
VERTEX
  8
0
  5
6FF6
 10
171.592
 20
64.1234
 30
0.000000
  70
    32
  0
VERTEX
  8
0
  5
6FF7
 10
171.582
 20
64.1124
 30
0.000000
  70
    32
  0
VERTEX
  8
0
  5
6FF8
 10
171.573
 20
64.1013
 30
0.000000
  70
    32
  0
VERTEX
  8
0
  5
6FF9
 10
171.563
 20
64.0902
 30
0.000000
  70
    32
  0
VERTEX
  8
0
  5
6FFA
 10
171.554
 20
64.0791
 30
0.000000
  70
    32
  0
VERTEX
  8
0
  5
6FFB
 10
171.544
 20
64.0680
 30
0.000000
  70
    32
  0
VERTEX
  8
0
  5
6FFC
 10
171.535
 20
64.0568
 30
0.000000
  70
    32
  0
VERTEX
  8
0
  5
6FFD
 10
171.526
 20
64.0456
 30
0.000000
  70
    32
  0
VERTEX
  8
0
  5
6FFE
 10
171.517
 20
64.0344
 30
0.000000
  70
    32
  0
VERTEX
  8
0
  5
6FFF
 10
171.508
 20
64.0232
 30
0.000000
  70
    32
  0
VERTEX
  8
0
  5
7000
 10
171.499
 20
64.0120
 30
0.000000
  70
    32
  0
VERTEX
  8
0
  5
7001
 10
171.490
 20
64.0007
 30
0.000000
  70
    32
  0
VERTEX
  8
0
  5
7002
 10
171.481
 20
63.9894
 30
0.000000
  70
    32
  0
VERTEX
  8
0
  5
7003
 10
171.472
 20
63.9781
 30
0.000000
  70
    32
  0
VERTEX
  8
0
  5
7004
 10
171.464
 20
63.9668
 30
0.000000
  70
    32
  0
VERTEX
  8
0
  5
7005
 10
171.455
 20
63.9555
 30
0.000000
  70
    32
  0
VERTEX
  8
0
  5
7006
 10
171.447
 20
63.9441
 30
0.000000
  70
    32
  0
VERTEX
  8
0
  5
7007
 10
171.438
 20
63.9327
 30
0.000000
  70
    32
  0
VERTEX
  8
0
  5
7008
 10
171.430
 20
63.9213
 30
0.000000
  70
    32
  0
VERTEX
  8
0
  5
7009
 10
171.422
 20
63.9099
 30
0.000000
  70
    32
  0
VERTEX
  8
0
  5
700A
 10
171.413
 20
63.8985
 30
0.000000
  70
    32
  0
VERTEX
  8
0
  5
700B
 10
171.405
 20
63.8870
 30
0.000000
  70
    32
  0
VERTEX
  8
0
  5
700C
 10
171.397
 20
63.8756
 30
0.000000
  70
    32
  0
VERTEX
  8
0
  5
700D
 10
171.389
 20
63.8641
 30
0.000000
  70
    32
  0
VERTEX
  8
0
  5
700E
 10
171.381
 20
63.8526
 30
0.000000
  70
    32
  0
VERTEX
  8
0
  5
700F
 10
171.374
 20
63.8410
 30
0.000000
  70
    32
  0
VERTEX
  8
0
  5
7010
 10
171.366
 20
63.8295
 30
0.000000
  70
    32
  0
VERTEX
  8
0
  5
7011
 10
171.358
 20
63.8179
 30
0.000000
  70
    32
  0
VERTEX
  8
0
  5
7012
 10
171.351
 20
63.8064
 30
0.000000
  70
    32
  0
VERTEX
  8
0
  5
7013
 10
171.343
 20
63.7948
 30
0.000000
  70
    32
  0
VERTEX
  8
0
  5
7014
 10
171.336
 20
63.7832
 30
0.000000
  70
    32
  0
VERTEX
  8
0
  5
7015
 10
171.328
 20
63.7715
 30
0.000000
  70
    32
  0
VERTEX
  8
0
  5
7016
 10
171.321
 20
63.7599
 30
0.000000
  70
    32
  0
VERTEX
  8
0
  5
7017
 10
171.314
 20
63.7482
 30
0.000000
  70
    32
  0
VERTEX
  8
0
  5
7018
 10
171.307
 20
63.7366
 30
0.000000
  70
    32
  0
VERTEX
  8
0
  5
7019
 10
171.300
 20
63.7249
 30
0.000000
  70
    32
  0
VERTEX
  8
0
  5
701A
 10
171.293
 20
63.7132
 30
0.000000
  70
    32
  0
VERTEX
  8
0
  5
701B
 10
171.286
 20
63.7015
 30
0.000000
  70
    32
  0
VERTEX
  8
0
  5
701C
 10
171.279
 20
63.6897
 30
0.000000
  70
    32
  0
VERTEX
  8
0
  5
701D
 10
171.273
 20
63.6780
 30
0.000000
  70
    32
  0
VERTEX
  8
0
  5
701E
 10
171.266
 20
63.6662
 30
0.000000
  70
    32
  0
VERTEX
  8
0
  5
701F
 10
171.259
 20
63.6544
 30
0.000000
  70
    32
  0
VERTEX
  8
0
  5
7020
 10
171.253
 20
63.6426
 30
0.000000
  70
    32
  0
VERTEX
  8
0
  5
7021
 10
171.247
 20
63.6308
 30
0.000000
  70
    32
  0
VERTEX
  8
0
  5
7022
 10
171.240
 20
63.6190
 30
0.000000
  70
    32
  0
VERTEX
  8
0
  5
7023
 10
171.234
 20
63.6072
 30
0.000000
  70
    32
  0
VERTEX
  8
0
  5
7024
 10
171.228
 20
63.5953
 30
0.000000
  70
    32
  0
VERTEX
  8
0
  5
7025
 10
171.222
 20
63.5834
 30
0.000000
  70
    32
  0
VERTEX
  8
0
  5
7026
 10
171.216
 20
63.5716
 30
0.000000
  70
    32
  0
VERTEX
  8
0
  5
7027
 10
171.210
 20
63.5597
 30
0.000000
  70
    32
  0
VERTEX
  8
0
  5
7028
 10
171.204
 20
63.5478
 30
0.000000
  70
    32
  0
VERTEX
  8
0
  5
7029
 10
171.198
 20
63.5358
 30
0.000000
  70
    32
  0
VERTEX
  8
0
  5
702A
 10
171.193
 20
63.5239
 30
0.000000
  70
    32
  0
VERTEX
  8
0
  5
702B
 10
171.187
 20
63.5120
 30
0.000000
  70
    32
  0
VERTEX
  8
0
  5
702C
 10
171.182
 20
63.5000
 30
0.000000
  70
    32
  0
SEQEND
  8
0
  5
702D
  0
LINE
  5
605E
  8
2
 10
222.0
 20
56.999999999999993
 30
0.0
 11
211.00000000000011
 21
56.999999999999993
 31
0.0
  0
LINE
  5
6062
  8
2
 10
182.0
 20
56.999999999999993
 30
0.0
 11
171.0
 21
56.999999999999993
 31
0.0
  0
LINE
  5
608E
  8
2
 10
222.0
 20
56.999999999999993
 30
0.0
 11
222.0
 21
63.499999999999993
 31
0.0
  0
LINE
  5
608F
  8
2
 10
211.00000000000011
 20
63.499999999999993
 30
0.0
 11
211.00000000000011
 21
56.999999999999993
 31
0.0
  0
LINE
  5
6090
  8
2
 10
182.0
 20
56.999999999999993
 30
0.0
 11
182.0
 21
63.499999999999993
 31
0.0
  0
LINE
  5
6091
  8
2
 10
171.0
 20
63.499999999999993
 30
0.0
 11
171.0
 21
56.999999999999993
 31
0.0
  0
LINE
  5
6092
  8
2
 10
219.75
 20
50.0
 30
0.0
 11
219.75
 21
56.999999999999993
 31
0.0
  0
LINE
  5
6093
  8
2
 10
213.25
 20
56.999999999999993
 30
0.0
 11
213.25
 21
50.0
 31
0.0
  0
LINE
  5
6094
  8
2
 10
179.75
 20
50.0
 30
0.0
 11
179.75
 21
56.999999999999993
 31
0.0
  0
LINE
  5
6095
  8
2
 10
173.25
 20
56.999999999999993
 30
0.0
 11
173.25
 21
50.0
 31
0.0
  0
LINE
  5
60A4
  8
1
 10
82.0
 20
118.4999999403953
 30
0.0
 11
82.0
 21
192.49999994039521
 31
0.0
  0
LINE
  5
60A5
  8
1
 10
94.500000000000014
 20
135.4999999403953
 30
0.0
 11
109.5
 21
135.4999999403953
 31
0.0
  0
LINE
  5
60A6
  8
1
 10
102.0
 20
127.9999999403953
 30
0.0
 11
102.0
 21
142.9999999403953
 31
0.0
  0
LINE
  5
60A7
  8
1
 10
94.500000000000014
 20
175.4999999403951
 30
0.0
 11
109.5
 21
175.4999999403951
 31
0.0
  0
LINE
  5
60A8
  8
1
 10
102.0
 20
167.9999999403953
 30
0.0
 11
102.0
 21
182.9999999403953
 31
0.0
  0
LINE
  5
60A9
  8
1
 10
54.5
 20
135.4999999403953
 30
0.0
 11
69.5
 21
135.4999999403953
 31
0.0
  0
LINE
  5
60AA
  8
1
 10
62.0
 20
127.9999999403953
 30
0.0
 11
62.0
 21
142.9999999403953
 31
0.0
  0
LINE
  5
60AB
  8
1
 10
54.5
 20
175.4999999403951
 30
0.0
 11
69.5
 21
175.4999999403951
 31
0.0
  0
LINE
  5
60AC
  8
1
 10
62.0
 20
167.9999999403953
 30
0.0
 11
62.0
 21
182.9999999403953
 31
0.0
  0
LINE
  5
60AD
  8
0
 10
87.714285714285722
 20
187.99999994039521
 30
0.0
 11
87.714285714285722
 21
187.49999994039521
 31
0.0
  0
LINE
  5
60AE
  8
0
 10
114.0
 20
187.99999994039521
 30
0.0
 11
114.0
 21
122.9999999403953
 31
0.0
  0
LINE
  5
60AF
  8
0
 10
87.714285714285722
 20
187.99999994039521
 30
0.0
 11
114.0
 21
187.99999994039521
 31
0.0
  0
LINE
  5
60B0
  8
0
 10
98.830495217218129
 20
187.99999994039521
 30
0.0
 11
98.830495217218129
 21
179.9949125571124
 31
0.0
  0
LINE
  5
60B1
  8
0
 10
98.830495217218086
 20
171.0050873236782
 30
0.0
 11
98.830495217218129
 21
163.4999999403953
 31
0.0
  0
LINE
  5
60B2
  8
0
 10
98.830495217218129
 20
155.4999999403953
 30
0.0
 11
98.830495217218129
 21
147.4999999403953
 31
0.0
  0
LINE
  5
60B3
  8
0
 10
87.714285714285722
 20
123.4999999403953
 30
0.0
 11
87.714285714285722
 21
122.9999999403953
 31
0.0
  0
LINE
  5
60B4
  8
0
 10
87.714285714285722
 20
122.9999999403953
 30
0.0
 11
114.0
 21
122.9999999403953
 31
0.0
  0
LINE
  5
60B5
  8
0
 10
98.830495217218129
 20
123.4999999403953
 30
0.0
 11
98.830495217218129
 21
122.9999999403953
 31
0.0
  0
LINE
  5
60B7
  8
0
 10
65.774917217635391
 20
139.4999999403953
 30
0.0
 11
98.225082782364623
 21
139.4999999403953
 31
0.0
  0
LINE
  5
60B8
  8
0
 10
63.401923788646677
 20
147.4999999403953
 30
0.0
 11
100.5980762113533
 21
147.4999999403953
 31
0.0
  0
LINE
  5
60B9
  8
0
 10
100.5980762113533
 20
147.4999999403953
 30
0.0
 11
100.5980762113533
 21
140.81832765602431
 31
0.0
  0
LINE
  5
60BA
  8
0
 10
65.774917217635505
 20
179.49999994039521
 30
0.0
 11
98.225082782364495
 21
179.49999994039521
 31
0.0
  0
LINE
  5
60BB
  8
0
 10
65.77491721763522
 20
171.49999994039521
 30
0.0
 11
98.22508278236478
 21
171.49999994039521
 31
0.0
  0
LINE
  5
60BD
  8
0
 10
63.401923788646677
 20
155.4999999403953
 30
0.0
 11
100.5980762113533
 21
155.4999999403953
 31
0.0
  0
LINE
  5
60BE
  8
0
 10
63.401923788646677
 20
163.4999999403953
 30
0.0
 11
100.5980762113533
 21
163.4999999403953
 31
0.0
  0
LINE
  5
60BF
  8
0
 10
100.5980762113533
 20
155.4999999403953
 30
0.0
 11
100.5980762113533
 21
163.4999999403953
 31
0.0
  0
LINE
  5
60C0
  8
0
 10
74.000000103238278
 20
123.4999999403953
 30
0.0
 11
100.5980762113533
 21
123.4999999403953
 31
0.0
  0
LINE
  5
60C1
  8
0
 10
65.774917217635391
 20
131.4999999403953
 30
0.0
 11
98.225082782364723
 21
131.49999994039521
 31
0.0
  0
LINE
  5
60C2
  8
0
 10
100.5980762113533
 20
130.1816722247664
 30
0.0
 11
100.5980762113533
 21
123.4999999403953
 31
0.0
  0
LINE
  5
60C3
  8
0
 10
74.000000103238278
 20
179.49999994039521
 30
0.0
 11
74.000000103238278
 21
171.49999994039521
 31
0.0
  0
LINE
  5
60C4
  8
0
 10
74.000000103238278
 20
163.4999999403953
 30
0.0
 11
74.000000103238278
 21
155.4999999403953
 31
0.0
  0
LINE
  5
60C5
  8
0
 10
74.000000103238278
 20
147.4999999403953
 30
0.0
 11
74.000000103238278
 21
139.4999999403953
 31
0.0
  0
LINE
  5
60C6
  8
0
 10
74.000000103238278
 20
131.4999999403953
 30
0.0
 11
74.000000103238278
 21
123.4999999403953
 31
0.0
  0
LINE
  5
60C7
  8
0
 10
76.285714285714278
 20
187.49999994039521
 30
0.0
 11
76.285714285714278
 21
187.99999994039521
 31
0.0
  0
LINE
  5
60C8
  8
0
 10
76.285714285714278
 20
122.9999999403953
 30
0.0
 11
76.285714285714278
 21
123.4999999403953
 31
0.0
  0
LINE
  5
60C9
  8
0
 10
76.285714285714278
 20
122.9999999403953
 30
0.0
 11
50.0
 21
122.9999999403953
 31
0.0
  0
LINE
  5
60CA
  8
0
 10
76.285714285714278
 20
187.99999994039521
 30
0.0
 11
50.0
 21
187.99999994039521
 31
0.0
  0
LINE
  5
60CB
  8
0
 10
50.0
 20
122.9999999403953
 30
0.0
 11
50.0
 21
187.99999994039521
 31
0.0
  0
LINE
  5
60CC
  8
0
 10
65.169504782781871
 20
122.9999999403953
 30
0.0
 11
65.169504782781871
 21
131.0050873236782
 31
0.0
  0
LINE
  5
60CD
  8
0
 10
65.169504782781871
 20
155.4999999403953
 30
0.0
 11
65.169504782781871
 21
163.4999999403953
 31
0.0
  0
LINE
  5
60CF
  8
0
 10
65.169504782781871
 20
187.49999994039521
 30
0.0
 11
65.169504782781871
 21
187.99999994039521
 31
0.0
  0
LINE
  5
60D0
  8
0
 10
65.169504782781871
 20
139.9949125571124
 30
0.0
 11
65.169504782781871
 21
147.4999999403953
 31
0.0
  0
LINE
  5
60D1
  8
0
 10
63.401923788646677
 20
163.4999999403953
 30
0.0
 11
63.401923788646627
 21
170.1816722247664
 31
0.0
  0
LINE
  5
60D2
  8
0
 10
63.401923788646677
 20
155.4999999403953
 30
0.0
 11
63.401923788646677
 21
147.4999999403953
 31
0.0
  0
LINE
  5
60D3
  8
0
 10
89.999999896761722
 20
187.49999994039521
 30
0.0
 11
63.401923788646677
 21
187.49999994039521
 31
0.0
  0
LINE
  5
60D4
  8
0
 10
63.401923788646677
 20
180.81832765602419
 30
0.0
 11
63.401923788646677
 21
187.49999994039521
 31
0.0
  0
LINE
  5
60D6
  8
0
 10
89.999999896761722
 20
131.4999999403953
 30
0.0
 11
89.999999896761722
 21
139.4999999403953
 31
0.0
  0
LINE
  5
60D7
  8
0
 10
89.999999896761722
 20
179.49999994039521
 30
0.0
 11
89.999999896761722
 21
187.49999994039521
 31
0.0
  0
LINE
  5
60D8
  8
0
 10
89.999999896761722
 20
147.4999999403953
 30
0.0
 11
89.999999896761722
 21
155.4999999403953
 31
0.0
  0
LINE
  5
60D9
  8
0
 10
89.999999896761722
 20
163.4999999403953
 30
0.0
 11
89.999999896761722
 21
171.49999994039521
 31
0.0
  0
LINE
  5
60DE
  8
1
 10
45.0
 20
155.4999999403953
 30
0.0
 11
119.0
 21
155.4999999403953
 31
0.0
  0
CIRCLE
  5
60DF
  8
0
 10
102.0
 20
175.4999999403953
 30
0.0
 40
5.5
  0
CIRCLE
  5
60E0
  8
0
 10
62.0
 20
175.4999999403953
 30
0.0
 40
5.5
  0
CIRCLE
  5
60E1
  8
0
 10
62.0
 20
135.4999999403953
 30
0.0
 40
5.5
  0
CIRCLE
  5
60E2
  8
0
 10
102.0
 20
135.4999999403953
 30
0.0
 40
5.5
  0
LINE
  5
613C
  8
1
 10
77.5
 20
65.0
 30
0.0
 11
86.5
 21
65.0
 31
0.0
  0
LINE
  5
613D
  8
1
 10
82.0
 20
60.499999999999993
 30
0.0
 11
82.0
 21
69.5
 31
0.0
  0
LINE
  5
613E
  8
1
 10
102.0
 20
65.5
 30
0.0
 11
102.0
 21
47.999999999999993
 31
0.0
  0
LINE
  5
613F
  8
1
 10
62.0
 20
65.5
 30
0.0
 11
62.0
 21
47.999999999999993
 31
0.0
  0
LINE
  5
6140
  8
0
 10
90.0
 20
51.143593539448943
 30
0.0
 11
78.0
 21
58.071796769724408
 31
0.0
  0
CIRCLE
  5
6141
  8
0
 10
82.0
 20
65.0
 30
0.0
 40
2.5
  0
LINE
  5
6142
  8
0
 10
86.0
 20
71.928203230275471
 30
0.0
 11
100.5980762113533
 21
63.499999999999993
 31
0.0
  0
ARC
  5
6143
  8
0
 10
82.000000103238278
 20
64.999999940395355
 30
0.0
 40
8.0000000000000036
 50
60.000000853775063
 51
239.9999991462268
  0
LINE
  5
6144
  8
0
 10
87.714285714285722
 20
52.463251297596678
 30
0.0
 11
87.714285714285722
 21
57.082053451113659
 31
0.0
  0
LINE
  5
6145
  8
0
 10
87.714285714285722
 20
57.082053451113659
 30
0.0
 11
98.830495217218129
 21
63.499999999999993
 31
0.0
  0
LINE
  5
6146
  8
0
 10
98.830495217218129
 20
63.499999999999993
 30
0.0
 11
111.0
 21
63.499999999999993
 31
0.0
  0
ARC
  5
6147
  8
0
 10
111.0
 20
60.499999999999993
 30
0.0
 40
3.0
 50
0.0
 51
90.0
  0
LINE
  5
6148
  8
0
 10
90.0
 20
50.0
 30
0.0
 11
90.0
 21
51.143593539448943
 31
0.0
  0
LINE
  5
6149
  8
0
 10
114.0
 20
50.0
 30
0.0
 11
90.0
 21
50.0
 31
0.0
  0
LINE
  5
614A
  8
0
 10
114.0
 20
60.499999999999993
 30
0.0
 11
114.0
 21
50.0
 31
0.0
  0
LINE
  5
614B
  8
0
 10
74.0
 20
51.143593539448943
 30
0.0
 11
82.0
 21
55.762395692966031
 31
0.0
  0
LINE
  5
614C
  8
0
 10
78.0
 20
71.928203230275471
 30
0.0
 11
63.401923788646677
 21
63.499999999999993
 31
0.0
  0
LINE
  5
614D
  8
0
 10
50.0
 20
50.0
 30
0.0
 11
74.0
 21
50.0
 31
0.0
  0
LINE
  5
614E
  8
0
 10
65.169504782781871
 20
63.499999999999993
 30
0.0
 11
53.0
 21
63.499999999999993
 31
0.0
  0
ARC
  5
614F
  8
0
 10
53.0
 20
60.499999999999993
 30
0.0
 40
3.0000000000000031
 50
90.0
 51
180.0
  0
LINE
  5
6150
  8
0
 10
50.0
 20
60.499999999999993
 30
0.0
 11
50.0
 21
50.0
 31
0.0
  0
LINE
  5
6151
  8
0
 10
74.0
 20
50.0
 30
0.0
 11
74.0
 21
51.143593539448943
 31
0.0
  0
LINE
  5
6152
  8
0
 10
76.285714285714278
 20
52.463251297596678
 30
0.0
 11
76.285714285714278
 21
57.082053451113659
 31
0.0
  0
LINE
  5
6153
  8
0
 10
76.285714285714278
 20
57.082053451113659
 30
0.0
 11
65.169504782781871
 21
63.499999999999993
 31
0.0
  0
LINE
  5
620D
  8
1
 10
216.5
 20
65.500000000000114
 30
0.0
 11
216.5
 21
47.999999999999993
 31
0.0
  0
LINE
  5
620E
  8
1
 10
176.5
 20
65.500000000000114
 30
0.0
 11
176.5
 21
47.999999999999993
 31
0.0
  0
LINE
  5
620F
  8
0
 10
228.5
 20
63.499999999999993
 30
0.0
 11
228.5
 21
72.999999940395355
 31
0.0
  0
LINE
  5
6210
  8
0
 10
228.5
 20
72.999999940395355
 30
0.0
 11
164.5
 21
72.999999940395355
 31
0.0
  0
LINE
  5
6211
  8
0
 10
172.5
 20
72.999999940395355
 30
0.0
 11
172.5
 21
63.499999999999993
 31
0.0
  0
LINE
  5
6212
  8
0
 10
164.5
 20
72.999999940395355
 30
0.0
 11
164.5
 21
63.499999999999993
 31
0.0
  0
LINE
  5
6213
  8
0
 10
188.5
 20
72.999999940395355
 30
0.0
 11
188.5
 21
63.499999999999993
 31
0.0
  0
LINE
  5
6214
  8
0
 10
180.5
 20
72.999999940395355
 30
0.0
 11
180.5
 21
63.499999999999993
 31
0.0
  0
LINE
  5
6215
  8
0
 10
196.5
 20
72.999999940395355
 30
0.0
 11
196.5
 21
63.499999999999993
 31
0.0
  0
LINE
  5
6216
  8
0
 10
204.5
 20
72.999999940395355
 30
0.0
 11
204.5
 21
63.499999999999993
 31
0.0
  0
LINE
  5
6217
  8
0
 10
212.5
 20
72.999999940395355
 30
0.0
 11
212.5
 21
63.499999999999993
 31
0.0
  0
LINE
  5
6218
  8
0
 10
220.5
 20
72.999999940395355
 30
0.0
 11
220.5
 21
63.499999999999993
 31
0.0
  0
LINE
  5
6219
  8
0
 10
229.0
 20
50.0
 30
0.0
 11
164.0
 21
50.0
 31
0.0
  0
LINE
  5
621A
  8
0
 10
164.0
 20
63.499999999999993
 30
0.0
 11
164.0
 21
50.0
 31
0.0
  0
LINE
  5
621B
  8
0
 10
229.0
 20
63.499999999999993
 30
0.0
 11
229.0
 21
50.0
 31
0.0
  0
LINE
  5
621C
  8
0
 10
229.0
 20
63.499999999999993
 30
0.0
 11
164.0
 21
63.499999999999993
 31
0.0
  0
LINE
  5
621F
  8
1
 10
196.5
 20
77.999999940395355
 30
0.0
 11
196.5
 21
44.999999999999993
 31
0.0
  0
TEXT
  5
6C59
  8
0
 62
     3
 10
0.0
 20
0.0
 30
0.0
 40
10.0
  1
EFHX6565CH
  7
STANDARD1
  0
ENDSEC
  0
EOF
