  0
SECTION
  2
HEADER
  9
$ACADVER
  1
AC1009
  9
$INSBASE
 10
0.0
 20
0.0
 30
0.0
  9
$EXTMIN
 10
0.0
 20
-2.960436562073669
 30
0.0
  9
$EXTMAX
 10
194.89930054995261
 20
166.99754878398201
 30
0.0
  9
$LIMMIN
 10
0.0
 20
0.0
  9
$LIMMAX
 10
375.0
 20
270.0
  9
$ORTHOMODE
 70
     1
  9
$REGENMODE
 70
     1
  9
$FILLMODE
 70
     1
  9
$QTEXTMODE
 70
     0
  9
$MIRRTEXT
 70
     0
  9
$DRAGMODE
 70
     2
  9
$LTSCALE
 40
5.0
  9
$OSMODE
 70
    37
  9
$ATTMODE
 70
     1
  9
$TEXTSIZE
 40
0.2
  9
$TRACEWID
 40
0.05
  9
$TEXTSTYLE
  7
STANDARD
  9
$CLAYER
  8
0
  9
$CELTYPE
  6
BYLAYER
  9
$CECOLOR
 62
   256
  9
$DIMSCALE
 40
1.0
  9
$DIMASZ
 40
3.0
  9
$DIMEXO
 40
1.0
  9
$DIMDLI
 40
0.38
  9
$DIMRND
 40
0.0
  9
$DIMDLE
 40
0.0
  9
$DIMEXE
 40
1.0
  9
$DIMTP
 40
0.0
  9
$DIMTM
 40
0.0
  9
$DIMTXT
 40
3.0
  9
$DIMCEN
 40
0.0
  9
$DIMTSZ
 40
0.0
  9
$DIMTOL
 70
     0
  9
$DIMLIM
 70
     0
  9
$DIMTIH
 70
     0
  9
$DIMTOH
 70
     0
  9
$DIMSE1
 70
     0
  9
$DIMSE2
 70
     0
  9
$DIMTAD
 70
     1
  9
$DIMZIN
 70
     8
  9
$DIMBLK
  1

  9
$DIMASO
 70
     1
  9
$DIMSHO
 70
     1
  9
$DIMPOST
  1

  9
$DIMAPOST
  1

  9
$DIMALT
 70
     0
  9
$DIMALTD
 70
     2
  9
$DIMALTF
 40
25.399999999999999
  9
$DIMLFAC
 40
1.0
  9
$DIMTOFL
 70
     0
  9
$DIMTVP
 40
0.0
  9
$DIMTIX
 70
     0
  9
$DIMSOXD
 70
     0
  9
$DIMSAH
 70
     0
  9
$DIMBLK1
  1

  9
$DIMBLK2
  1

  9
$DIMSTYLE
  2
STANDARD
  9
$DIMCLRD
 70
     0
  9
$DIMCLRE
 70
     0
  9
$DIMCLRT
 70
     0
  9
$DIMTFAC
 40
1.0
  9
$DIMGAP
 40
0.5
  9
$LUNITS
 70
     2
  9
$LUPREC
 70
     1
  9
$SKETCHINC
 40
0.1
  9
$FILLETRAD
 40
5.0
  9
$AUNITS
 70
     0
  9
$AUPREC
 70
     1
  9
$MENU
  1
E:\r13\win\SUPPORT\ACAD
  9
$ELEVATION
 40
0.0
  9
$PELEVATION
 40
0.0
  9
$THICKNESS
 40
0.0
  9
$LIMCHECK
 70
     0
  9
$BLIPMODE
 70
     0
  9
$CHAMFERA
 40
0.0
  9
$CHAMFERB
 40
0.0
  9
$SKPOLY
 70
     0
  9
$TDCREATE
 40
2450372.5377547452
  9
$TDUPDATE
 40
2457534.4791202201
  9
$TDINDWG
 40
0.3023309144
  9
$TDUSRTIMER
 40
0.3023309144
  9
$USRTIMER
 70
     1
  9
$ANGBASE
 50
0.0
  9
$ANGDIR
 70
     0
  9
$PDMODE
 70
     0
  9
$PDSIZE
 40
0.0
  9
$PLINEWID
 40
0.0
  9
$COORDS
 70
     1
  9
$SPLFRAME
 70
     0
  9
$SPLINETYPE
 70
     6
  9
$SPLINESEGS
 70
     8
  9
$ATTDIA
 70
     0
  9
$ATTREQ
 70
     1
  9
$HANDLING
 70
     1
  9
$HANDSEED
  5
21DA
  9
$SURFTAB1
 70
     6
  9
$SURFTAB2
 70
     6
  9
$SURFTYPE
 70
     6
  9
$SURFU
 70
     6
  9
$SURFV
 70
     6
  9
$UCSNAME
  2

  9
$UCSORG
 10
0.0
 20
0.0
 30
0.0
  9
$UCSXDIR
 10
1.0
 20
0.0
 30
0.0
  9
$UCSYDIR
 10
0.0
 20
1.0
 30
0.0
  9
$PUCSNAME
  2

  9
$PUCSORG
 10
0.0
 20
0.0
 30
0.0
  9
$PUCSXDIR
 10
1.0
 20
0.0
 30
0.0
  9
$PUCSYDIR
 10
0.0
 20
1.0
 30
0.0
  9
$USERI1
 70
     3
  9
$USERI2
 70
     1
  9
$USERI3
 70
     1
  9
$USERI4
 70
     0
  9
$USERI5
 70
     0
  9
$USERR1
 40
1.0
  9
$USERR2
 40
3.0
  9
$USERR3
 40
3.0
  9
$USERR4
 40
3.0
  9
$USERR5
 40
10.0
  9
$WORLDVIEW
 70
     1
  9
$SHADEDGE
 70
     3
  9
$SHADEDIF
 70
    70
  9
$TILEMODE
 70
     1
  9
$MAXACTVP
 70
    16
  9
$PLIMCHECK
 70
     0
  9
$PEXTMIN
 10
1.0000000000000000E+020
 20
1.0000000000000000E+020
 30
1.0000000000000000E+020
  9
$PEXTMAX
 10
-1.0000000000000000E+020
 20
-1.0000000000000000E+020
 30
-1.0000000000000000E+020
  9
$PLIMMIN
 10
0.0
 20
0.0
  9
$PLIMMAX
 10
12.0
 20
9.0
  9
$UNITMODE
 70
     0
  9
$VISRETAIN
 70
     0
  9
$PLINEGEN
 70
     0
  9
$PSLTSCALE
 70
     0
  0
ENDSEC
  0
SECTION
  2
TABLES
  0
TABLE
  2
VPORT
 70
     1
  0
VPORT
  2
*ACTIVE
 70
     0
 10
0.0
 20
0.0
 11
1.0
 21
1.0
 12
208.86752136752139
 22
115.0
 13
0.0
 23
0.0
 14
10.0
 24
10.0
 15
10.0
 25
10.0
 16
0.0
 26
0.0
 36
1.0
 17
0.0
 27
0.0
 37
0.0
 40
230.0
 41
1.816239316239316
 42
50.0
 43
0.0
 44
0.0
 50
0.0
 51
0.0
 71
     0
 72
   100
 73
     1
 74
     0
 75
     0
 76
     0
 77
     0
 78
     0
  0
ENDTAB
  0
TABLE
  2
LTYPE
 70
     4
  0
LTYPE
  2
CONTINUOUS
 70
     0
  3
Solid Line
 72
    65
 73
     0
 40
0.0
  0
LTYPE
  2
CENTER
 70
     0
  3
____ _ ____ _ ____ _ ____ _ ____ _ ____ _ ____
 72
    65
 73
     4
 40
2.0
 49
1.25
 49
-0.25
 49
0.25
 49
-0.25
  0
LTYPE
  2
HIDDEN
 70
     0
  3
_ _ _ _ _ _ _ _ _ _ _ _ _ _ _ _ _ _ _ _ _ _ _
 72
    65
 73
     2
 40
0.375
 49
0.25
 49
-0.125
  0
LTYPE
  2
PHANTOM2
 70
     0
  3
___ _ _ ___ _ _ ___ _ _ ___ _ _
 72
    65
 73
     6
 40
1.25
 49
0.625
 49
-0.125
 49
0.125
 49
-0.125
 49
0.125
 49
-0.125
  0
ENDTAB
  0
TABLE
  2
LAYER
 70
     5
  0
LAYER
  2
0
 70
     0
 62
     7
  6
CONTINUOUS
  0
LAYER
  2
1
 70
     0
 62
     1
  6
CENTER
  0
LAYER
  2
2
 70
     0
 62
     2
  6
HIDDEN
  0
LAYER
  2
3
 70
     0
 62
     3
  6
CONTINUOUS
  0
LAYER
  2
DEFPOINTS
 70
     0
 62
     7
  6
CONTINUOUS
  0
ENDTAB
  0
TABLE
  2
STYLE
 70
     2
  0
STYLE
  2
STANDARD
 70
     0
 40
0.0
 41
1.0
 50
0.0
 71
     0
 42
0.2
  3
SIMPLEX
  4
BIGFONT
  0
STYLE
  2
STANDARD1
 70
     0
 40
0.0
 41
1.0
 50
0.0
 71
     0
 42
3.0
  3
txt
  4

  0
ENDTAB
  0
TABLE
  2
VIEW
 70
     0
  0
ENDTAB
  0
TABLE
  2
UCS
 70
     0
  0
ENDTAB
  0
TABLE
  2
APPID
 70
    13
  0
APPID
  2
ACAD
 70
     0
  0
APPID
  2
GENIUS_GENODEF_13
 70
     0
  0
APPID
  2
GENIUS_GENFIL_13
 70
     0
  0
APPID
  2
GENIUS_GENOBJ-N-CHA_13
 70
     0
  0
APPID
  2
GENIUS_GENOREF_13
 70
     0
  0
APPID
  2
ACAD_MLEADERVER
 70
     0
  0
APPID
  2
ACAD_EXEMPT_FROM_CAD_STANDARDS
 70
     0
  0
APPID
  2
ACAD_NAV_VCDISPLAY
 70
     0
  0
APPID
  2
DCO15
 70
     0
  0
APPID
  2
ACAD_DSTYLE_DIMJAG
 70
     0
  0
APPID
  2
ACAD_DSTYLE_DIMTALN
 70
     0
  0
APPID
  2
GENIUS_GENREC_14
 70
     0
  0
APPID
  2
GENIUS_GENOBJ-N-REC_13
 70
     0
  0
ENDTAB
  0
TABLE
  2
DIMSTYLE
 70
     1
  0
DIMSTYLE
  2
STANDARD
 70
     0
  3

  4

  5

  6

  7

 40
1.0
 41
0.18
 42
0.0625
 43
0.38
 44
0.18
 45
0.0
 46
0.0
 47
0.0
 48
0.0
140
0.18
141
0.09
142
0.0
143
25.399999999999999
144
1.0
145
0.0
146
1.0
147
0.09
 71
     0
 72
     0
 73
     1
 74
     1
 75
     0
 76
     0
 77
     0
 78
     0
170
     0
171
     2
172
     0
173
     0
174
     0
175
     0
176
     0
177
     0
178
     0
  0
ENDTAB
  0
ENDSEC
  0
SECTION
  2
BLOCKS
  0
BLOCK
  8
0
  2
$MODEL_SPACE
 70
     0
 10
0.0
 20
0.0
 30
0.0
  3
$MODEL_SPACE
  1

  0
ENDBLK
  5
1FE
  8
0
  0
BLOCK
 67
     1
  8
0
  2
$PAPER_SPACE
 70
     0
 10
0.0
 20
0.0
 30
0.0
  3
$PAPER_SPACE
  1

  0
ENDBLK
  5
1FC
 67
     1
  8
0
  0
ENDSEC
  0
SECTION
  2
ENTITIES
  0
TEXT
  5
4E4
  8
0
 62
     3
 10
0.0
 20
0.0
 30
0.0
 40
10.0
  1
EFLH44-6R
  7
STANDARD1
  0
CIRCLE
  5
1B3E
  8
0
 10
103.5
 20
57.750000000000007
 30
0.0
 40
3.0
  0
CIRCLE
  5
1B3F
  8
0
 10
103.25
 20
57.750000000000007
 30
0.0
 40
7.7500000000000071
  0
ARC
  5
1B40
  8
0
 10
110.7874067158409
 20
46.249999999999083
 30
0.0
 40
6.000000000000913
 50
89.999999999993491
 51
123.2419025352648
  0
ARC
  5
1B41
  8
0
 10
110.78740671584031
 20
69.249999999999034
 30
0.0
 40
5.999999999999055
 50
236.7580974647293
 51
270.0
  0
LINE
  5
1B42
  8
0
 10
110.7874067158407
 20
63.249999999999979
 30
0.0
 11
142.0
 21
63.24999999999995
 31
0.0
  0
LINE
  5
1B45
  8
0
 10
142.0
 20
52.24999999999995
 30
0.0
 11
110.7874067158413
 21
52.249999999999972
 31
0.0
  0
ARC
  5
1B47
  8
0
 10
142.0
 20
57.749999999999979
 30
0.0
 40
5.5
 50
0.0
 51
78.051165076044825
  0
ARC
  5
1B48
  8
0
 10
141.99999999999989
 20
57.749999999999979
 30
0.0
 40
5.5000000000000853
 50
281.94883492395508
 51
0.0
  0
ARC
  5
1B4A
  8
0
 10
142.0
 20
57.74999999999995
 30
0.0
 40
5.5000000000000178
 50
78.051165076044825
 51
90.0
  0
ARC
  5
1B4B
  8
0
 10
142.0
 20
57.74999999999995
 30
0.0
 40
5.5000000000000044
 50
270.0
 51
281.94883492395508
  0
LINE
  5
1B5A
  8
2
 10
102.0
 20
55.151315203956649
 30
0.0
 11
102.0
 21
50.101303721475517
 31
0.0
  0
LINE
  5
1B5B
  8
2
 10
105.0
 20
50.198999926121111
 30
0.0
 11
105.0
 21
55.149191098535113
 31
0.0
  0
LINE
  5
1B5E
  8
0
 10
65.5
 20
95.5
 30
0.0
 11
65.5
 21
114.5
 31
0.0
  0
LINE
  5
1B5F
  8
0
 10
50.0
 20
101.02469587409129
 30
0.0
 11
50.0
 21
95.5
 31
0.0
  0
LINE
  5
1B60
  8
0
 10
50.0
 20
114.5
 30
0.0
 11
50.0
 21
103.97901994577489
 31
0.0
  0
LINE
  5
1B61
  8
0
 10
65.5
 20
95.5
 30
0.0
 11
50.0
 21
95.5
 31
0.0
  0
LINE
  5
1B62
  8
0
 10
65.5
 20
114.5
 30
0.0
 11
50.0
 21
114.5
 31
0.0
  0
ARC
  5
1B63
  8
0
 10
37.989050614432188
 20
102.4990212155987
 30
0.0
 40
12.10178918110849
 50
353.00244111118212
 51
7.0246218435125618
  0
ARC
  5
1B64
  8
0
 10
50.987357021142152
 20
115.7719933973284
 30
0.0
 40
1.288724954366562
 50
282.58624953712371
 51
11.546834590159939
  0
LINE
  5
1B65
  8
0
 10
52.249999999999943
 20
116.5
 30
0.0
 11
52.249999999999943
 21
116.0299560224277
 31
0.0
  0
LINE
  5
1B66
  8
0
 10
63.249999999999943
 20
116.5
 30
0.0
 11
52.249999999999943
 21
116.5
 31
0.0
  0
LINE
  5
1B67
  8
0
 10
63.249999999999943
 20
116.0299560224274
 30
0.0
 11
63.249999999999943
 21
116.5
 31
0.0
  0
ARC
  5
1B68
  8
0
 10
64.516752590407862
 20
115.7746554297327
 30
0.0
 40
1.2922230913953741
 50
168.60528236435729
 51
257.2616335083747
  0
LINE
  5
1B6D
  8
2
 10
60.75
 20
110.5
 30
0.0
 11
54.75
 21
110.5
 31
0.0
  0
ARC
  5
1B6E
  8
2
 10
52.007976899652981
 20
102.50008334264371
 30
0.0
 40
3.12545047342801
 50
331.35667024540749
 51
28.679142182369748
  0
LINE
  5
1B7E
  8
2
 10
60.75
 20
95.5
 30
0.0
 11
60.75
 21
110.5
 31
0.0
  0
LINE
  5
1B7F
  8
2
 10
54.75
 20
101.00188086538989
 30
0.0
 11
54.75
 21
95.5
 31
0.0
  0
LINE
  5
1B80
  8
2
 10
54.75
 20
110.5
 30
0.0
 11
54.75
 21
104.0
 31
0.0
  0
LINE
  5
1B81
  8
2
 10
54.75
 20
104.0
 30
0.0
 11
50.0
 21
104.0
 31
0.0
  0
LINE
  5
1B82
  8
2
 10
50.0
 20
101.0
 30
0.0
 11
54.750933980417066
 21
101.0
 31
0.0
  0
LINE
  5
1BD4
  8
2
 10
102.0
 20
161.89929263069669
 30
0.0
 11
102.0
 21
156.8486861491252
 31
0.0
  0
LINE
  5
1BD5
  8
2
 10
105.0
 20
156.84919320693379
 30
0.0
 11
105.0
 21
161.8002821962192
 31
0.0
  0
CIRCLE
  5
1BD8
  8
2
 10
103.5
 20
154.25
 30
0.0
 40
3.0
  0
LINE
  5
1BDE
  8
1
 10
103.5
 20
141.50245121601799
 30
0.0
 11
103.5
 21
166.99754878398201
 31
0.0
  0
LINE
  5
1BDF
  8
1
 10
90.5
 20
154.25
 30
0.0
 11
152.49999615383501
 21
154.25
 31
0.0
  0
ARC
  5
1BE1
  8
0
 10
103.25
 20
154.25
 30
0.0
 40
7.7500000000000249
 50
57.841849512825739
 51
302.15815048717428
  0
CIRCLE
  5
1BE2
  8
0
 10
103.25
 20
154.25
 30
0.0
 40
3.875
  0
ARC
  5
1BE3
  8
0
 10
142.00000000000011
 20
154.25000000000011
 30
0.0
 40
5.499999999999889
 50
35.09680122758499
 51
90.0
  0
ARC
  5
1BE4
  8
0
 10
142.00000000000011
 20
154.24999999999989
 30
0.0
 40
5.499999999999889
 50
270.0
 51
324.90319877241501
  0
LINE
  5
1BE5
  8
0
 10
110.7874067158409
 20
159.75
 30
0.0
 11
142.0
 21
159.75
 31
0.0
  0
LINE
  5
1BE6
  8
0
 10
142.0
 20
148.75
 30
0.0
 11
110.7874067158407
 21
148.75
 31
0.0
  0
POLYLINE
  5
1BE7
  8
0
 66
     1
 10
0.0
 20
0.0
 30
0.0
  0
VERTEX
  5
20D1
  8
0
 10
147.5
 20
154.25
 30
0.0
  0
VERTEX
  5
20D2
  8
0
 10
147.49998307687989
 20
154.26364382788179
 30
0.0
  0
VERTEX
  5
20D3
  8
0
 10
147.48675976603599
 20
154.6314017171006
 30
0.0
  0
VERTEX
  5
20D4
  8
0
 10
147.44862182397191
 20
155.00001347943871
 30
0.0
  0
VERTEX
  5
20D5
  8
0
 10
147.38156925898889
 20
155.38520102128521
 30
0.0
  0
VERTEX
  5
20D6
  8
0
 10
147.28629507229689
 20
155.7682504433088
 30
0.0
  0
VERTEX
  5
20D7
  8
0
 10
147.1586899845469
 20
156.15728749188401
 30
0.0
  0
VERTEX
  5
20D8
  8
0
 10
146.999954321736
 20
156.54138752299889
 30
0.0
  0
VERTEX
  5
20D9
  8
0
 10
146.89259917250601
 20
156.7624506788078
 30
0.0
  0
VERTEX
  5
20DA
  8
0
 10
146.77437468986599
 20
156.98044800733661
 30
0.0
  0
VERTEX
  5
20DB
  8
0
 10
146.6425373572319
 20
157.19901193672371
 30
0.0
  0
VERTEX
  5
20DC
  8
0
 10
146.5
 20
157.4122776601684
 30
0.0
  0
SEQEND
  5
20DD
  8
0
  0
POLYLINE
  5
1BE8
  8
0
 66
     1
 10
0.0
 20
0.0
 30
0.0
  0
VERTEX
  5
20DE
  8
0
 10
146.5
 20
151.0877223398316
 30
0.0
  0
VERTEX
  5
20DF
  8
0
 10
146.63953646207401
 20
151.29626689195621
 30
0.0
  0
VERTEX
  5
20E0
  8
0
 10
146.76884616687491
 20
151.50990762260139
 30
0.0
  0
VERTEX
  5
20E1
  8
0
 10
146.89007881336599
 20
151.7326487101783
 30
0.0
  0
VERTEX
  5
20E2
  8
0
 10
146.999954321736
 20
151.95861247700111
 30
0.0
  0
VERTEX
  5
20E3
  8
0
 10
147.15513504363801
 20
152.33312117086439
 30
0.0
  0
VERTEX
  5
20E4
  8
0
 10
147.280689015902
 20
152.7123643092944
 30
0.0
  0
VERTEX
  5
20E5
  8
0
 10
147.379500612024
 20
153.1050379658875
 30
0.0
  0
VERTEX
  5
20E6
  8
0
 10
147.44862182397191
 20
153.49998652056141
 30
0.0
  0
VERTEX
  5
20E7
  8
0
 10
147.48665986240701
 20
153.86716380231999
 30
0.0
  0
VERTEX
  5
20E8
  8
0
 10
147.49998307687989
 20
154.23635617211821
 30
0.0
  0
VERTEX
  5
20E9
  8
0
 10
147.5
 20
154.25
 30
0.0
  0
SEQEND
  5
20EA
  8
0
  0
LINE
  5
1BEA
  8
0
 10
107.4983565125646
 20
160.7318181818182
 30
0.0
 11
107.375
 21
160.81101173600541
 31
0.0
  0
LINE
  5
1BEC
  8
0
 10
107.375
 20
147.68898826399459
 30
0.0
 11
107.4983565125646
 21
147.7681818181818
 31
0.0
  0
POLYLINE
  5
1BED
  8
0
 66
     1
 10
0.0
 20
0.0
 30
0.0
  0
VERTEX
  5
20EB
  8
0
 10
107.4983565125646
 20
147.7681818181818
 30
0.0
  0
VERTEX
  5
20EC
  8
0
 10
107.8230239257136
 20
147.9665169477469
 30
0.0
  0
VERTEX
  5
20ED
  8
0
 10
108.1566153141833
 20
148.14248890596591
 30
0.0
  0
VERTEX
  5
20EE
  8
0
 10
108.5063122370663
 20
148.29942734216809
 30
0.0
  0
VERTEX
  5
20EF
  8
0
 10
108.85874152991261
 20
148.43157113839021
 30
0.0
  0
VERTEX
  5
20F0
  8
0
 10
109.2002803726652
 20
148.5362482905681
 30
0.0
  0
VERTEX
  5
20F1
  8
0
 10
109.53758453819241
 20
148.61838517177071
 30
0.0
  0
VERTEX
  5
20F2
  8
0
 10
109.8770755387734
 20
148.68051541396949
 30
0.0
  0
VERTEX
  5
20F3
  8
0
 10
110.2056452476055
 20
148.72172953122259
 30
0.0
  0
VERTEX
  5
20F4
  8
0
 10
110.5027640649036
 20
148.74324441027289
 30
0.0
  0
VERTEX
  5
20F5
  8
0
 10
110.7874067158407
 20
148.75
 30
0.0
  0
SEQEND
  5
20F6
  8
0
  0
LINE
  5
1BEE
  8
0
 10
111.25
 20
148.75
 30
0.0
 11
111.25
 21
159.75
 31
0.0
  0
POLYLINE
  5
1BEF
  8
0
 66
     1
 10
0.0
 20
0.0
 30
0.0
  0
VERTEX
  5
20F7
  8
0
 10
110.7874067158409
 20
159.75
 30
0.0
  0
VERTEX
  5
20F8
  8
0
 10
110.4896639750295
 20
159.75740531213299
 30
0.0
  0
VERTEX
  5
20F9
  8
0
 10
110.1766136406381
 20
159.78116997902569
 30
0.0
  0
VERTEX
  5
20FA
  8
0
 10
109.8415545846011
 20
159.82504822919429
 30
0.0
  0
VERTEX
  5
20FB
  8
0
 10
109.4955428986683
 20
159.8907263352971
 30
0.0
  0
VERTEX
  5
20FC
  8
0
 10
109.15060320210701
 20
159.9776108364569
 30
0.0
  0
VERTEX
  5
20FD
  8
0
 10
108.80175483551911
 20
160.0880933767701
 30
0.0
  0
VERTEX
  5
20FE
  8
0
 10
108.4413118392501
 20
160.22774240740171
 30
0.0
  0
VERTEX
  5
20FF
  8
0
 10
108.0844323297766
 20
160.3933285084596
 30
0.0
  0
VERTEX
  5
2100
  8
0
 10
107.7885011561243
 20
160.55321585556001
 30
0.0
  0
VERTEX
  5
2101
  8
0
 10
107.4983565125646
 20
160.7318181818182
 30
0.0
  0
SEQEND
  5
2102
  8
0
  0
LINE
  5
1BF1
  8
2
 10
100.5
 20
110.5
 30
0.0
 11
100.5
 21
95.5
 31
0.0
  0
LINE
  5
1BF2
  8
2
 10
106.5
 20
95.5
 30
0.0
 11
106.5
 21
110.5
 31
0.0
  0
LINE
  5
1BF3
  8
2
 10
106.5
 20
110.5
 30
0.0
 11
100.5
 21
110.5
 31
0.0
  0
LINE
  5
1BFA
  8
1
 10
103.5
 20
119.5
 30
0.0
 11
103.5
 21
90.5
 31
0.0
  0
LINE
  5
1BFB
  8
0
 10
143.49999999999901
 20
108.5
 30
0.0
 11
142.0
 21
108.5
 31
0.0
  0
ARC
  5
1BFC
  8
0
 10
143.50050282301299
 20
112.49995425988131
 30
0.0
 40
3.9994953314977919
 50
353.0703173778619
 51
359.8590205202641
  0
ARC
  5
1BFD
  8
0
 10
143.5000000000002
 20
112.4999999999998
 30
0.0
 40
3.999999999999829
 50
270.0
 51
353.07053596382622
  0
LINE
  5
1BFE
  8
0
 10
111.25
 20
116.5
 30
0.0
 11
146.5
 21
116.5
 31
0.0
  0
POLYLINE
  5
1C00
  8
0
 66
     1
 10
0.0
 20
0.0
 30
0.0
  0
VERTEX
  5
2103
  8
0
 10
146.5
 20
116.5
 30
0.0
  0
VERTEX
  5
2104
  8
0
 10
146.63953646207401
 20
116.490232093773
 30
0.0
  0
VERTEX
  5
2105
  8
0
 10
146.76884616687499
 20
116.46318312825601
 30
0.0
  0
VERTEX
  5
2106
  8
0
 10
146.89007881336599
 20
116.420791906714
 30
0.0
  0
VERTEX
  5
2107
  8
0
 10
146.999954321736
 20
116.366051774537
 30
0.0
  0
VERTEX
  5
2108
  8
0
 10
147.15513504363801
 20
116.25555049661899
 30
0.0
  0
VERTEX
  5
2109
  8
0
 10
147.280689015902
 20
116.12491972320601
 30
0.0
  0
VERTEX
  5
210A
  8
0
 10
147.379500612024
 20
115.975916144973
 30
0.0
  0
VERTEX
  5
210B
  8
0
 10
147.44862182397191
 20
115.816412128537
 30
0.0
  0
VERTEX
  5
210C
  8
0
 10
147.48665986240701
 20
115.66279531908501
 30
0.0
  0
VERTEX
  5
210D
  8
0
 10
147.49998307687989
 20
115.50581772815799
 30
0.0
  0
VERTEX
  5
210E
  8
0
 10
147.5
 20
115.500000000002
 30
0.0
  0
SEQEND
  5
210F
  8
0
  0
LINE
  5
1C01
  8
0
 10
147.499986047372
 20
112.49011328717999
 30
0.0
 11
147.5
 21
115.500000000002
 31
0.0
  0
ARC
  5
1C02
  8
0
 10
106.7487683831915
 20
120.4672300075168
 30
0.0
 40
6.0000000000581286
 50
312.3072724994841
 51
318.6081620928062
  0
LINE
  5
1C03
  8
0
 10
138.911701367776
 20
111.166666666667
 30
0.0
 11
138.93037814756201
 21
111.14820801188699
 31
0.0
  0
ARC
  5
1C04
  8
0
 10
141.5113693458228
 20
59.212300582202438
 30
0.0
 40
51.999999962598693
 50
92.400553632571018
 51
92.845013251759539
  0
LINE
  5
1C05
  8
0
 10
142.0
 20
108.5
 30
0.0
 11
139.333333333333
 21
111.166666666667
 31
0.0
  0
POLYLINE
  5
1C07
  8
0
 66
     1
 10
0.0
 20
0.0
 30
0.0
  0
VERTEX
  5
2110
  8
0
 10
107.4983565125646
 20
114.51423768123099
 30
0.0
  0
VERTEX
  5
2111
  8
0
 10
107.8230239257136
 20
114.564205870995
 30
0.0
  0
VERTEX
  5
2112
  8
0
 10
108.1566153141833
 20
114.634737656947
 30
0.0
  0
VERTEX
  5
2113
  8
0
 10
108.5063122370663
 20
114.73045281723201
 30
0.0
  0
VERTEX
  5
2114
  8
0
 10
108.85874152991271
 20
114.850468189465
 30
0.0
  0
VERTEX
  5
2115
  8
0
 10
109.2002803726652
 20
114.990947079878
 30
0.0
  0
VERTEX
  5
2116
  8
0
 10
109.53758453819241
 20
115.154744294194
 30
0.0
  0
VERTEX
  5
2117
  8
0
 10
109.8770755387735
 20
115.347339448171
 30
0.0
  0
VERTEX
  5
2118
  8
0
 10
110.2056452476055
 20
115.563149834339
 30
0.0
  0
VERTEX
  5
2119
  8
0
 10
110.5027640649036
 20
115.78668341311401
 30
0.0
  0
VERTEX
  5
211A
  8
0
 10
110.7874067158407
 20
116.029956022427
 30
0.0
  0
SEQEND
  5
211B
  8
0
  0
LINE
  5
1C08
  8
0
 10
110.7874067158407
 20
102.58685738613509
 30
0.0
 11
110.7874067158407
 21
116.029956022427
 31
0.0
  0
POLYLINE
  5
1C09
  8
0
 66
     1
 10
0.0
 20
0.0
 30
0.0
  0
VERTEX
  5
211C
  8
0
 10
110.7874067158407
 20
102.58685738613509
 30
0.0
  0
VERTEX
  5
211D
  8
0
 10
112.4206379983947
 20
103.45426661135259
 30
0.0
  0
VERTEX
  5
211E
  8
0
 10
114.06160832854999
 20
104.307425065708
 30
0.0
  0
VERTEX
  5
211F
  8
0
 10
115.71547188724099
 20
105.1344802057629
 30
0.0
  0
VERTEX
  5
2120
  8
0
 10
117.387382855402
 20
105.923579488079
 30
0.0
  0
VERTEX
  5
2121
  8
0
 10
119.093197007721
 20
106.671991033452
 30
0.0
  0
VERTEX
  5
2122
  8
0
 10
120.820433643793
 20
107.37171072392
 30
0.0
  0
VERTEX
  5
2123
  8
0
 10
122.567707971519
 20
108.019354114167
 30
0.0
  0
VERTEX
  5
2124
  8
0
 10
124.333635198794
 20
108.611536758881
 30
0.0
  0
VERTEX
  5
2125
  8
0
 10
126.094432333602
 20
109.139297818871
 30
0.0
  0
VERTEX
  5
2126
  8
0
 10
127.87240264366299
 20
109.60982924073799
 30
0.0
  0
VERTEX
  5
2127
  8
0
 10
129.66483904572789
 20
110.021614191246
 30
0.0
  0
VERTEX
  5
2128
  8
0
 10
131.46903445654701
 20
110.37313583715699
 30
0.0
  0
VERTEX
  5
2129
  8
0
 10
133.31771271703201
 20
110.66818330632699
 30
0.0
  0
VERTEX
  5
212A
  8
0
 10
135.176608854097
 20
110.899268851709
 30
0.0
  0
VERTEX
  5
212B
  8
0
 10
137.04238452019499
 20
111.065670597192
 30
0.0
  0
VERTEX
  5
212C
  8
0
 10
138.911701367776
 20
111.166666666667
 30
0.0
  0
SEQEND
  5
212D
  8
0
  0
POLYLINE
  5
1C0A
  8
0
 66
     1
 10
0.0
 20
0.0
 30
0.0
  0
VERTEX
  5
212E
  8
0
 10
107.4983565125646
 20
101.5
 30
0.0
  0
VERTEX
  5
212F
  8
0
 10
107.80202522305591
 20
101.5134644826926
 30
0.0
  0
VERTEX
  5
2130
  8
0
 10
108.1144698394542
 20
101.55299484871649
 30
0.0
  0
VERTEX
  5
2131
  8
0
 10
108.44417621747419
 20
101.61980608936859
 30
0.0
  0
VERTEX
  5
2132
  8
0
 10
108.7776808456823
 20
101.71009921673669
 30
0.0
  0
VERTEX
  5
2133
  8
0
 10
109.1858182978343
 20
101.8473534750289
 30
0.0
  0
VERTEX
  5
2134
  8
0
 10
109.5937183523971
 20
102.00919485369479
 30
0.0
  0
VERTEX
  5
2135
  8
0
 10
110.0107935690679
 20
102.1956893903988
 30
0.0
  0
VERTEX
  5
2136
  8
0
 10
110.4245233930189
 20
102.3979195698051
 30
0.0
  0
VERTEX
  5
2137
  8
0
 10
110.7874067158407
 20
102.58685738613509
 30
0.0
  0
SEQEND
  5
2138
  8
0
  0
ARC
  5
1C0B
  8
0
 10
141.23526356854759
 20
59.224235038777827
 30
0.0
 40
51.975104291535999
 50
92.541669346527186
 51
125.5720240092901
  0
LINE
  5
1C0C
  8
0
 10
107.4983565125646
 20
101.5
 30
0.0
 11
107.4983565125646
 21
114.51423768123099
 31
0.0
  0
LINE
  5
1C0D
  8
0
 10
107.375
 20
114.5
 30
0.0
 11
107.4983565125646
 21
114.51423768123099
 31
0.0
  0
LINE
  5
1C0E
  8
0
 10
107.375
 20
114.5
 30
0.0
 11
95.5
 21
114.5
 31
0.0
  0
LINE
  5
1C0F
  8
0
 10
95.5
 20
114.5
 30
0.0
 11
95.5
 21
95.5
 31
0.0
  0
LINE
  5
1C10
  8
0
 10
111.0
 20
95.5
 30
0.0
 11
111.0
 21
101.5
 31
0.0
  0
LINE
  5
1C11
  8
0
 10
111.0
 20
101.5
 30
0.0
 11
107.4983565125646
 21
101.5
 31
0.0
  0
LINE
  5
1C12
  8
0
 10
111.0
 20
95.5
 30
0.0
 11
95.5
 21
95.5
 31
0.0
  0
LINE
  5
1C13
  8
2
 10
192.99999302368599
 20
104.0
 30
0.0
 11
188.24999302368599
 21
104.0
 31
0.0
  0
LINE
  5
1C14
  8
2
 10
188.2499930236857
 20
101.0
 30
0.0
 11
192.99999302368599
 21
101.0
 31
0.0
  0
LINE
  5
1C16
  8
2
 10
188.24999302368599
 20
110.5
 30
0.0
 11
182.24999302368599
 21
110.5
 31
0.0
  0
LINE
  5
1C17
  8
2
 10
182.24999302368599
 20
110.5
 30
0.0
 11
182.24999302368599
 21
95.5
 31
0.0
  0
LINE
  5
1C18
  8
2
 10
188.24999302368599
 20
95.5
 30
0.0
 11
188.24999302368599
 21
100.9999999999996
 31
0.0
  0
LINE
  5
1C19
  8
2
 10
188.24999302368599
 20
104.0
 30
0.0
 11
188.24999302368599
 21
110.5
 31
0.0
  0
POLYLINE
  5
1C1A
  8
2
 66
     1
 10
0.0
 20
0.0
 30
0.0
  0
VERTEX
  5
2139
  8
2
 10
188.24999302360661
 20
101.00000000015859
 30
0.0
  0
VERTEX
  5
213A
  8
2
 10
188.2461720998366
 20
101.00765652198881
 30
0.0
  0
VERTEX
  5
213B
  8
2
 10
188.2268872261568
 20
101.0467625477217
 30
0.0
  0
VERTEX
  5
213C
  8
2
 10
188.1918787350713
 20
101.11989437402291
 30
0.0
  0
VERTEX
  5
213D
  8
2
 10
188.1444559799333
 20
101.22410196132741
 30
0.0
  0
VERTEX
  5
213E
  8
2
 10
188.0873019108225
 20
101.3596834996266
 30
0.0
  0
VERTEX
  5
213F
  8
2
 10
188.0218903192175
 20
101.53386614955549
 30
0.0
  0
VERTEX
  5
2140
  8
2
 10
187.95695086132281
 20
101.7399863588435
 30
0.0
  0
VERTEX
  5
2141
  8
2
 10
187.9008143149679
 20
101.9738312834143
 30
0.0
  0
VERTEX
  5
2142
  8
2
 10
187.8782791259606
 20
102.1027433123101
 30
0.0
  0
VERTEX
  5
2143
  8
2
 10
187.86147917922139
 20
102.2356896889015
 30
0.0
  0
VERTEX
  5
2144
  8
2
 10
187.8482038573523
 20
102.4735512537021
 30
0.0
  0
VERTEX
  5
2145
  8
2
 10
187.85742897126681
 20
102.72073110505011
 30
0.0
  0
VERTEX
  5
2146
  8
2
 10
187.8836662467632
 20
102.93154912345391
 30
0.0
  0
VERTEX
  5
2147
  8
2
 10
187.9248902051022
 20
103.1364549718151
 30
0.0
  0
VERTEX
  5
2148
  8
2
 10
187.9785217270254
 20
103.3335879587345
 30
0.0
  0
VERTEX
  5
2149
  8
2
 10
188.0391342939991
 20
103.514548680825
 30
0.0
  0
VERTEX
  5
214A
  8
2
 10
188.1055602891802
 20
103.685016627631
 30
0.0
  0
VERTEX
  5
214B
  8
2
 10
188.167021698497
 20
103.8262941942383
 30
0.0
  0
VERTEX
  5
214C
  8
2
 10
188.2138559814239
 20
103.9263532634838
 30
0.0
  0
VERTEX
  5
214D
  8
2
 10
188.23122505865919
 20
103.96211064984
 30
0.0
  0
VERTEX
  5
214E
  8
2
 10
188.24315828897861
 20
103.9862833866238
 30
0.0
  0
VERTEX
  5
214F
  8
2
 10
188.24999302368599
 20
104.0
 30
0.0
  0
SEQEND
  5
2150
  8
2
  0
LINE
  5
1C20
  8
1
 10
185.84779855631109
 20
102.5
 30
0.0
 11
194.89930054995261
 21
102.5
 31
0.0
  0
LINE
  5
1C21
  8
1
 10
185.24999302368599
 20
121.4999999999999
 30
0.0
 11
185.24999302368599
 21
90.5
 31
0.0
  0
POLYLINE
  5
1C24
  8
0
 66
     1
 10
0.0
 20
0.0
 30
0.0
  0
VERTEX
  5
2151
  8
0
 10
178.76817484186779
 20
114.51423768123099
 30
0.0
  0
VERTEX
  5
2152
  8
0
 10
178.9665099714328
 20
114.564205870995
 30
0.0
  0
VERTEX
  5
2153
  8
0
 10
179.14248192965189
 20
114.634737656947
 30
0.0
  0
VERTEX
  5
2154
  8
0
 10
179.2994203658541
 20
114.73045281723201
 30
0.0
  0
VERTEX
  5
2155
  8
0
 10
179.43156416207611
 20
114.850468189465
 30
0.0
  0
VERTEX
  5
2156
  8
0
 10
179.53624131425411
 20
114.990947079878
 30
0.0
  0
VERTEX
  5
2157
  8
0
 10
179.61837819545659
 20
115.154744294194
 30
0.0
  0
VERTEX
  5
2158
  8
0
 10
179.6805084376555
 20
115.347339448171
 30
0.0
  0
VERTEX
  5
2159
  8
0
 10
179.7217225549085
 20
115.563149834339
 30
0.0
  0
VERTEX
  5
215A
  8
0
 10
179.7432374339588
 20
115.78668341311401
 30
0.0
  0
VERTEX
  5
215B
  8
0
 10
179.74999302368599
 20
116.029956022427
 30
0.0
  0
SEQEND
  5
215C
  8
0
  0
POLYLINE
  5
1C25
  8
0
 66
     1
 10
0.0
 20
0.0
 30
0.0
  0
VERTEX
  5
215D
  8
0
 10
190.7499930236859
 20
116.029956022428
 30
0.0
  0
VERTEX
  5
215E
  8
0
 10
190.75739833581889
 20
115.77623951968501
 30
0.0
  0
VERTEX
  5
215F
  8
0
 10
190.78116300271159
 20
115.54281360639099
 30
0.0
  0
VERTEX
  5
2160
  8
0
 10
190.82504125288031
 20
115.325807384557
 30
0.0
  0
VERTEX
  5
2161
  8
0
 10
190.89071935898309
 20
115.132885646513
 30
0.0
  0
VERTEX
  5
2162
  8
0
 10
190.97760386014289
 20
114.9689811769
 30
0.0
  0
VERTEX
  5
2163
  8
0
 10
191.08808640045601
 20
114.829389407858
 30
0.0
  0
VERTEX
  5
2164
  8
0
 10
191.22773543108769
 20
114.710943255625
 30
0.0
  0
VERTEX
  5
2165
  8
0
 10
191.39332153214559
 20
114.617785433683
 30
0.0
  0
VERTEX
  5
2166
  8
0
 10
191.553208879246
 20
114.558003682403
 30
0.0
  0
VERTEX
  5
2167
  8
0
 10
191.73181120550419
 20
114.51423768123099
 30
0.0
  0
SEQEND
  5
2168
  8
0
  0
LINE
  5
1C26
  8
0
 10
191.73181120550419
 20
114.51423768123099
 30
0.0
 11
191.8110047596914
 21
114.5
 31
0.0
  0
LINE
  5
1C27
  8
0
 10
178.6889812876806
 20
114.5
 30
0.0
 11
178.76817484186779
 21
114.51423768123099
 31
0.0
  0
POLYLINE
  5
1C28
  8
0
 66
     1
 10
0.0
 20
0.0
 30
0.0
  0
VERTEX
  5
2169
  8
0
 10
192.99999302368599
 20
103.97901994577489
 30
0.0
  0
VERTEX
  5
216A
  8
0
 10
192.9962898526021
 20
103.9178639821745
 30
0.0
  0
VERTEX
  5
216B
  8
0
 10
192.98560525302739
 20
103.8147951429023
 30
0.0
  0
VERTEX
  5
216C
  8
0
 10
192.9702953839363
 20
103.67862702481349
 30
0.0
  0
VERTEX
  5
216D
  8
0
 10
192.9517816652708
 20
103.505482645874
 30
0.0
  0
VERTEX
  5
216E
  8
0
 10
192.93336040969939
 20
103.3075224905448
 30
0.0
  0
VERTEX
  5
216F
  8
0
 10
192.9167107310866
 20
103.0805214148414
 30
0.0
  0
VERTEX
  5
2170
  8
0
 10
192.90491513299909
 20
102.8430965736823
 30
0.0
  0
VERTEX
  5
2171
  8
0
 10
192.89894919560851
 20
102.58853243234771
 30
0.0
  0
VERTEX
  5
2172
  8
0
 10
192.89988895440101
 20
102.34155952665979
 30
0.0
  0
VERTEX
  5
2173
  8
0
 10
192.90754982394091
 20
102.0920159923859
 30
0.0
  0
VERTEX
  5
2174
  8
0
 10
192.9204684661664
 20
101.86164281422251
 30
0.0
  0
VERTEX
  5
2175
  8
0
 10
192.937657027977
 20
101.6428607220722
 30
0.0
  0
VERTEX
  5
2176
  8
0
 10
192.95619530961889
 20
101.45158694634731
 30
0.0
  0
VERTEX
  5
2177
  8
0
 10
192.9743965472274
 20
101.2847916616477
 30
0.0
  0
VERTEX
  5
2178
  8
0
 10
192.98885189545669
 20
101.1556663716991
 30
0.0
  0
VERTEX
  5
2179
  8
0
 10
192.99800295085819
 20
101.0616508980835
 30
0.0
  0
VERTEX
  5
217A
  8
0
 10
192.9999929941076
 20
101.0210946642965
 30
0.0
  0
SEQEND
  5
217B
  8
0
  0
LINE
  5
1C29
  8
0
 10
178.7681748418677
 20
101.5
 30
0.0
 11
178.76817484186779
 21
114.51423768123099
 31
0.0
  0
LINE
  5
1C2A
  8
0
 10
178.6889812876806
 20
114.5
 30
0.0
 11
177.49999302368599
 21
114.5
 31
0.0
  0
LINE
  5
1C2B
  8
0
 10
191.7318112055043
 20
101.5
 30
0.0
 11
191.73181120550419
 21
114.51423768123099
 31
0.0
  0
LINE
  5
1C2C
  8
0
 10
192.99999302368599
 20
95.5
 30
0.0
 11
177.49999302368599
 21
95.5
 31
0.0
  0
LINE
  5
1C2D
  8
0
 10
177.49999302368599
 20
114.5
 30
0.0
 11
177.49999302368599
 21
95.5
 31
0.0
  0
LINE
  5
1C2E
  8
0
 10
192.99999302368599
 20
95.5
 30
0.0
 11
192.99999302368599
 21
101.0210940615021
 31
0.0
  0
LINE
  5
1C2F
  8
0
 10
192.99999302368599
 20
103.97901994577489
 30
0.0
 11
192.99999302368599
 21
114.5
 31
0.0
  0
LINE
  5
1C31
  8
0
 10
192.99999302368599
 20
114.5
 30
0.0
 11
191.8110047596914
 21
114.5
 31
0.0
  0
LINE
  5
1C32
  8
0
 10
190.7499930236859
 20
108.497320926125
 30
0.0
 11
190.7499930236859
 21
102.58685738613541
 31
0.0
  0
LINE
  5
1C33
  8
0
 10
179.74999302368599
 20
102.58685738613509
 30
0.0
 11
179.74999302368599
 21
108.49725488649401
 31
0.0
  0
POLYLINE
  5
1C34
  8
0
 66
     1
 10
0.0
 20
0.0
 30
0.0
  0
VERTEX
  5
217C
  8
0
 10
178.7681748418677
 20
101.5
 30
0.0
  0
VERTEX
  5
217D
  8
0
 10
178.9545157600304
 20
101.5134644826926
 30
0.0
  0
VERTEX
  5
217E
  8
0
 10
179.1217160670727
 20
101.55299484871649
 30
0.0
  0
VERTEX
  5
217F
  8
0
 10
179.27348439408581
 20
101.61980608936859
 30
0.0
  0
VERTEX
  5
2180
  8
0
 10
179.4033992470892
 20
101.71009921673669
 30
0.0
  0
VERTEX
  5
2181
  8
0
 10
179.53226516359729
 20
101.8473534750289
 30
0.0
  0
VERTEX
  5
2182
  8
0
 10
179.6300532351957
 20
102.00919485369479
 30
0.0
  0
VERTEX
  5
2183
  8
0
 10
179.6995170694575
 20
102.1956893903988
 30
0.0
  0
VERTEX
  5
2184
  8
0
 10
179.73900927796501
 20
102.3979195698051
 30
0.0
  0
VERTEX
  5
2185
  8
0
 10
179.74999302368599
 20
102.58685738613509
 30
0.0
  0
SEQEND
  5
2186
  8
0
  0
LINE
  5
1C35
  8
0
 10
191.7318112055043
 20
101.5
 30
0.0
 11
178.7681748418677
 21
101.5
 31
0.0
  0
POLYLINE
  5
1C36
  8
0
 66
     1
 10
0.0
 20
0.0
 30
0.0
  0
VERTEX
  5
2187
  8
0
 10
190.7499930236859
 20
102.58685738613541
 30
0.0
  0
VERTEX
  5
2188
  8
0
 10
190.76422001284331
 20
102.3726331002803
 30
0.0
  0
VERTEX
  5
2189
  8
0
 10
190.80767740377269
 20
102.1707937756242
 30
0.0
  0
VERTEX
  5
218A
  8
0
 10
190.88379516348351
 20
101.9813872599083
 30
0.0
  0
VERTEX
  5
218B
  8
0
 10
190.9934972568814
 20
101.81465784607821
 30
0.0
  0
VERTEX
  5
218C
  8
0
 10
191.09432594376921
 20
101.7120530339546
 30
0.0
  0
VERTEX
  5
218D
  8
0
 10
191.21385968555029
 20
101.6269938816605
 30
0.0
  0
VERTEX
  5
218E
  8
0
 10
191.35629430508979
 20
101.5606612130441
 30
0.0
  0
VERTEX
  5
218F
  8
0
 10
191.518363554383
 20
101.5178288025641
 30
0.0
  0
VERTEX
  5
2190
  8
0
 10
191.7318112055043
 20
101.5
 30
0.0
  0
SEQEND
  5
2191
  8
0
  0
POLYLINE
  5
1C37
  8
0
 66
     1
 10
0.0
 20
0.0
 30
0.0
  0
VERTEX
  5
2192
  8
0
 10
179.86916220767321
 20
108.5
 30
0.0
  0
VERTEX
  5
2193
  8
0
 10
179.95471068630471
 20
108.51393080843199
 30
0.0
  0
VERTEX
  5
2194
  8
0
 10
180.05190794166151
 20
108.549777350092
 30
0.0
  0
VERTEX
  5
2195
  8
0
 10
180.16617529262709
 20
108.60580032604
 30
0.0
  0
VERTEX
  5
2196
  8
0
 10
180.30021145892971
 20
108.682513869971
 30
0.0
  0
VERTEX
  5
2197
  8
0
 10
180.449586053058
 20
108.776584509522
 30
0.0
  0
VERTEX
  5
2198
  8
0
 10
180.653394757104
 20
108.914056992165
 30
0.0
  0
VERTEX
  5
2199
  8
0
 10
180.87596405785911
 20
109.07186643108901
 30
0.0
  0
VERTEX
  5
219A
  8
0
 10
181.1215463333084
 20
109.25196447514899
 30
0.0
  0
VERTEX
  5
219B
  8
0
 10
181.38218875529429
 20
109.44769461961999
 30
0.0
  0
VERTEX
  5
219C
  8
0
 10
181.62076996873429
 20
109.629707298903
 30
0.0
  0
VERTEX
  5
219D
  8
0
 10
181.8683401115396
 20
109.820670066041
 30
0.0
  0
VERTEX
  5
219E
  8
0
 10
182.1234427950813
 20
110.01909691588
 30
0.0
  0
VERTEX
  5
219F
  8
0
 10
182.52948229450439
 20
110.33736592651201
 30
0.0
  0
VERTEX
  5
21A0
  8
0
 10
182.9485573546624
 20
110.66804989249501
 30
0.0
  0
VERTEX
  5
21A1
  8
0
 10
183.3131587073438
 20
110.956944498423
 30
0.0
  0
VERTEX
  5
21A2
  8
0
 10
183.68412644815501
 20
111.25168289323101
 30
0.0
  0
VERTEX
  5
21A3
  8
0
 10
184.05950751153779
 20
111.550497013117
 30
0.0
  0
VERTEX
  5
21A4
  8
0
 10
184.450059604232
 20
111.861778518259
 30
0.0
  0
VERTEX
  5
21A5
  8
0
 10
184.8433735901196
 20
112.175517978846
 30
0.0
  0
VERTEX
  5
21A6
  8
0
 10
185.23760437097221
 20
112.49011328717999
 30
0.0
  0
VERTEX
  5
21A7
  8
0
 10
185.24999302368599
 20
112.5
 30
0.0
  0
SEQEND
  5
21A8
  8
0
  0
POLYLINE
  5
1C38
  8
0
 66
     1
 10
0.0
 20
0.0
 30
0.0
  0
VERTEX
  5
21A9
  8
0
 10
185.24999302368599
 20
112.5
 30
0.0
  0
VERTEX
  5
21AA
  8
0
 10
185.26238167639971
 20
112.49011328717999
 30
0.0
  0
VERTEX
  5
21AB
  8
0
 10
185.64505065187711
 20
112.184743382628
 30
0.0
  0
VERTEX
  5
21AC
  8
0
 10
186.02688053201319
 20
111.880156541034
 30
0.0
  0
VERTEX
  5
21AD
  8
0
 10
186.4061862269071
 20
111.577815348242
 30
0.0
  0
VERTEX
  5
21AE
  8
0
 10
186.7932383027424
 20
111.26967492745599
 30
0.0
  0
VERTEX
  5
21AF
  8
0
 10
187.1756955919123
 20
110.96577771450301
 30
0.0
  0
VERTEX
  5
21B0
  8
0
 10
187.55142869270961
 20
110.66804989249501
 30
0.0
  0
VERTEX
  5
21B1
  8
0
 10
187.95995906781559
 20
110.345663796286
 30
0.0
  0
VERTEX
  5
21B2
  8
0
 10
188.35618223510949
 20
110.034992249871
 30
0.0
  0
VERTEX
  5
21B3
  8
0
 10
188.6184498896319
 20
109.830896102021
 30
0.0
  0
VERTEX
  5
21B4
  8
0
 10
188.8728442447391
 20
109.63459732789499
 30
0.0
  0
VERTEX
  5
21B5
  8
0
 10
189.1177972920776
 20
109.44769461961999
 30
0.0
  0
VERTEX
  5
21B6
  8
0
 10
189.372085539327
 20
109.256687863275
 30
0.0
  0
VERTEX
  5
21B7
  8
0
 10
189.6121107265364
 20
109.080477232544
 30
0.0
  0
VERTEX
  5
21B8
  8
0
 10
189.84109175391049
 20
108.917873479878
 30
0.0
  0
VERTEX
  5
21B9
  8
0
 10
190.05039999431389
 20
108.776584509522
 30
0.0
  0
VERTEX
  5
21BA
  8
0
 10
190.19599909053781
 20
108.68479673067201
 30
0.0
  0
VERTEX
  5
21BB
  8
0
 10
190.32709890158489
 20
108.609406703112
 30
0.0
  0
VERTEX
  5
21BC
  8
0
 10
190.44517665241261
 20
108.551049529697
 30
0.0
  0
VERTEX
  5
21BD
  8
0
 10
190.5452753610673
 20
108.51393080843199
 30
0.0
  0
VERTEX
  5
21BE
  8
0
 10
190.63082383969879
 20
108.5
 30
0.0
  0
SEQEND
  5
21BF
  8
0
  0
LINE
  5
1C39
  8
0
 10
190.7499930236859
 20
108.5
 30
0.0
 11
190.7499930236859
 21
116.5
 31
0.0
  0
LINE
  5
1C3A
  8
0
 10
179.74999302368599
 20
116.5
 30
0.0
 11
190.7499930236859
 21
116.5
 31
0.0
  0
POLYLINE
  5
1C3B
  8
0
 66
     1
 10
0.0
 20
0.0
 30
0.0
  0
VERTEX
  5
21C0
  8
0
 10
185.24999302368599
 20
115.500000000002
 30
0.0
  0
VERTEX
  5
21C1
  8
0
 10
185.26363685156781
 20
115.50581772815799
 30
0.0
  0
VERTEX
  5
21C2
  8
0
 10
185.63139474078659
 20
115.66218866832401
 30
0.0
  0
VERTEX
  5
21C3
  8
0
 10
186.00000650312461
 20
115.816412128537
 30
0.0
  0
VERTEX
  5
21C4
  8
0
 10
186.3851940449712
 20
115.972071149051
 30
0.0
  0
VERTEX
  5
21C5
  8
0
 10
186.76824346699479
 20
116.11785116272701
 30
0.0
  0
VERTEX
  5
21C6
  8
0
 10
187.15728051556999
 20
116.25245679280999
 30
0.0
  0
VERTEX
  5
21C7
  8
0
 10
187.54138054668479
 20
116.366051774537
 30
0.0
  0
VERTEX
  5
21C8
  8
0
 10
187.76244370249381
 20
116.41971918055
 30
0.0
  0
VERTEX
  5
21C9
  8
0
 10
187.98044103102251
 20
116.461622862437
 30
0.0
  0
VERTEX
  5
21CA
  8
0
 10
188.1990049604097
 20
116.489805897048
 30
0.0
  0
VERTEX
  5
21CB
  8
0
 10
188.41227068385439
 20
116.5
 30
0.0
  0
SEQEND
  5
21CC
  8
0
  0
POLYLINE
  5
1C3C
  8
0
 66
     1
 10
0.0
 20
0.0
 30
0.0
  0
VERTEX
  5
21CD
  8
0
 10
182.0877153635175
 20
116.5
 30
0.0
  0
VERTEX
  5
21CE
  8
0
 10
182.29625991564211
 20
116.490232093773
 30
0.0
  0
VERTEX
  5
21CF
  8
0
 10
182.50990064628741
 20
116.46318312825601
 30
0.0
  0
VERTEX
  5
21D0
  8
0
 10
182.73264173386431
 20
116.420791906714
 30
0.0
  0
VERTEX
  5
21D1
  8
0
 10
182.9586055006871
 20
116.366051774537
 30
0.0
  0
VERTEX
  5
21D2
  8
0
 10
183.33311419455029
 20
116.25555049661899
 30
0.0
  0
VERTEX
  5
21D3
  8
0
 10
183.7123573329803
 20
116.12491972320601
 30
0.0
  0
VERTEX
  5
21D4
  8
0
 10
184.10503098957349
 20
115.975916144973
 30
0.0
  0
VERTEX
  5
21D5
  8
0
 10
184.49997954424731
 20
115.816412128537
 30
0.0
  0
VERTEX
  5
21D6
  8
0
 10
184.8671568260059
 20
115.66279531908501
 30
0.0
  0
VERTEX
  5
21D7
  8
0
 10
185.23634919580411
 20
115.50581772815799
 30
0.0
  0
VERTEX
  5
21D8
  8
0
 10
185.24999302368599
 20
115.500000000002
 30
0.0
  0
SEQEND
  5
21D9
  8
0
  0
LINE
  5
1C3D
  8
0
 10
179.74999302368599
 20
108.5
 30
0.0
 11
179.74999302368599
 21
116.5
 31
0.0
  0
LINE
  5
1C3E
  8
0
 10
179.74999302368599
 20
108.5
 30
0.0
 11
190.7499930236859
 21
108.5
 31
0.0
  0
CIRCLE
  5
1D35
  8
2
 10
103.5
 20
102.5
 30
0.0
 40
1.5
  0
LINE
  5
1E56
  8
1
 10
103.5
 20
70.497548783981955
 30
0.0
 11
103.5
 21
45.002451216018031
 31
0.0
  0
LINE
  5
1E57
  8
1
 10
90.5
 20
57.750000000000007
 30
0.0
 11
152.49999615383501
 21
57.750000000000007
 31
0.0
  0
LINE
  5
1EE5
  8
1
 10
57.152194467374812
 20
102.5
 30
0.0
 11
48.100692473733289
 21
102.4999999999998
 31
0.0
  0
LINE
  5
1EE6
  8
1
 10
57.75
 20
121.4999999999999
 30
0.0
 11
57.75
 21
90.5
 31
0.0
  0
LINE
  5
1EE9
  8
1
 10
107.0
 20
102.4999999999999
 30
0.0
 11
100.0
 21
102.4999999999999
 31
0.0
  0
ENDSEC
  0
EOF
