  0
SECTION
  2
HEADER
  9
$ACADVER
  1
AC1009
  9
$INSBASE
 10
0.0
 20
0.0
 30
0.0
  9
$EXTMIN
 10
0.0
 20
-1.4802182810368341
 30
0.0
  9
$EXTMAX
 10
171.54977090128361
 20
107.3660634173964
 30
0.0
  9
$LIMMIN
 10
0.0
 20
0.0
  9
$LIMMAX
 10
279.39999999999998
 20
215.90000000000001
  9
$ORTHOMODE
 70
     1
  9
$REGENMODE
 70
     1
  9
$FILLMODE
 70
     1
  9
$QTEXTMODE
 70
     0
  9
$MIRRTEXT
 70
     1
  9
$DRAGMODE
 70
     2
  9
$LTSCALE
 40
1.0
  9
$OSMODE
 70
  3071
  9
$ATTMODE
 70
     1
  9
$TEXTSIZE
 40
2.5
  9
$TRACEWID
 40
1.0
  9
$TEXTSTYLE
  7
STANDARD
  9
$CLAYER
  8
0
  9
$CELTYPE
  6
BYLAYER
  9
$CECOLOR
 62
   256
  9
$DIMSCALE
 40
1.0
  9
$DIMASZ
 40
6.0
  9
$DIMEXO
 40
1.0
  9
$DIMDLI
 40
3.75
  9
$DIMRND
 40
0.0
  9
$DIMDLE
 40
0.0
  9
$DIMEXE
 40
1.0
  9
$DIMTP
 40
0.0
  9
$DIMTM
 40
0.0
  9
$DIMTXT
 40
3.5
  9
$DIMCEN
 40
2.5
  9
$DIMTSZ
 40
0.0
  9
$DIMTOL
 70
     0
  9
$DIMLIM
 70
     0
  9
$DIMTIH
 70
     0
  9
$DIMTOH
 70
     0
  9
$DIMSE1
 70
     0
  9
$DIMSE2
 70
     0
  9
$DIMTAD
 70
     1
  9
$DIMZIN
 70
     8
  9
$DIMBLK
  1

  9
$DIMASO
 70
     1
  9
$DIMSHO
 70
     1
  9
$DIMPOST
  1

  9
$DIMAPOST
  1

  9
$DIMALT
 70
     0
  9
$DIMALTD
 70
     3
  9
$DIMALTF
 40
0.0393700787401575
  9
$DIMLFAC
 40
1.0
  9
$DIMTOFL
 70
     1
  9
$DIMTVP
 40
0.0
  9
$DIMTIX
 70
     0
  9
$DIMSOXD
 70
     0
  9
$DIMSAH
 70
     0
  9
$DIMBLK1
  1

  9
$DIMBLK2
  1

  9
$DIMSTYLE
  2
ISO-25
  9
$DIMCLRD
 70
     0
  9
$DIMCLRE
 70
     0
  9
$DIMCLRT
 70
     0
  9
$DIMTFAC
 40
1.0
  9
$DIMGAP
 40
1.524
  9
$LUNITS
 70
     2
  9
$LUPREC
 70
     3
  9
$SKETCHINC
 40
1.0
  9
$FILLETRAD
 40
10.0
  9
$AUNITS
 70
     0
  9
$AUPREC
 70
     0
  9
$MENU
  1
.
  9
$ELEVATION
 40
0.0
  9
$PELEVATION
 40
0.0
  9
$THICKNESS
 40
0.0
  9
$LIMCHECK
 70
     0
  9
$BLIPMODE
 70
     0
  9
$CHAMFERA
 40
10.0
  9
$CHAMFERB
 40
10.0
  9
$SKPOLY
 70
     0
  9
$TDCREATE
 40
2455132.3992460528
  9
$TDUPDATE
 40
2456598.6593417129
  9
$TDINDWG
 40
0.2035039236
  9
$TDUSRTIMER
 40
0.2035039236
  9
$USRTIMER
 70
     1
  9
$ANGBASE
 50
0.0
  9
$ANGDIR
 70
     0
  9
$PDMODE
 70
     0
  9
$PDSIZE
 40
-1.0
  9
$PLINEWID
 40
0.0
  9
$COORDS
 70
     1
  9
$SPLFRAME
 70
     0
  9
$SPLINETYPE
 70
     6
  9
$SPLINESEGS
 70
     8
  9
$ATTDIA
 70
     0
  9
$ATTREQ
 70
     1
  9
$HANDLING
 70
     1
  9
$HANDSEED
  5
36E4
  9
$SURFTAB1
 70
     6
  9
$SURFTAB2
 70
     6
  9
$SURFTYPE
 70
     6
  9
$SURFU
 70
     6
  9
$SURFV
 70
     6
  9
$UCSNAME
  2

  9
$UCSORG
 10
0.0
 20
0.0
 30
0.0
  9
$UCSXDIR
 10
1.0
 20
0.0
 30
0.0
  9
$UCSYDIR
 10
0.0
 20
1.0
 30
0.0
  9
$PUCSNAME
  2

  9
$PUCSORG
 10
0.0
 20
0.0
 30
0.0
  9
$PUCSXDIR
 10
1.0
 20
0.0
 30
0.0
  9
$PUCSYDIR
 10
0.0
 20
1.0
 30
0.0
  9
$USERI1
 70
     0
  9
$USERI2
 70
     0
  9
$USERI3
 70
     0
  9
$USERI4
 70
     0
  9
$USERI5
 70
     0
  9
$USERR1
 40
0.0
  9
$USERR2
 40
0.0
  9
$USERR3
 40
0.0
  9
$USERR4
 40
0.0
  9
$USERR5
 40
0.0
  9
$WORLDVIEW
 70
     1
  9
$SHADEDGE
 70
     3
  9
$SHADEDIF
 70
    70
  9
$TILEMODE
 70
     1
  9
$MAXACTVP
 70
    64
  9
$PLIMCHECK
 70
     0
  9
$PEXTMIN
 10
1.0000000000000000E+020
 20
1.0000000000000000E+020
 30
1.0000000000000000E+020
  9
$PEXTMAX
 10
-1.0000000000000000E+020
 20
-1.0000000000000000E+020
 30
-1.0000000000000000E+020
  9
$PLIMMIN
 10
0.0
 20
0.0
  9
$PLIMMAX
 10
420.0
 20
297.0
  9
$UNITMODE
 70
     0
  9
$VISRETAIN
 70
     1
  9
$PLINEGEN
 70
     0
  9
$PSLTSCALE
 70
     1
  0
ENDSEC
  0
SECTION
  2
TABLES
  0
TABLE
  2
VPORT
 70
     1
  0
VPORT
  2
*ACTIVE
 70
     0
 10
0.0
 20
0.0
 11
1.0
 21
1.0
 12
139.69573701959541
 22
136.18828034825529
 13
0.0
 23
0.0
 14
10.0
 24
10.0
 15
10.0
 25
10.0
 16
0.0
 26
0.0
 36
1.0
 17
0.0
 27
0.0
 37
0.0
 40
277.85339726799202
 41
1.831871345029239
 42
50.0
 43
0.0
 44
0.0
 50
0.0
 51
0.0
 71
     0
 72
  2000
 73
     1
 74
     3
 75
     0
 76
     0
 77
     0
 78
     0
  0
ENDTAB
  0
TABLE
  2
LTYPE
 70
     3
  0
LTYPE
  2
CONTINUOUS
 70
     0
  3
Solid line
 72
    65
 73
     0
 40
0.0
  0
LTYPE
  2
CENTER
 70
     0
  3
____ _ ____ _ ____ _ ____ _ ____ _ ____ _ ____
 72
    65
 73
     4
 40
2.0
 49
1.25
 49
-0.25
 49
0.25
 49
-0.25
  0
LTYPE
  2
HIDDEN
 70
     0
  3
_ _ _ _ _ _ _ _ _ _ _ _ _ _ _ _ _ _ _ _ _ _ _
 72
    65
 73
     2
 40
0.375
 49
0.25
 49
-0.125
  0
ENDTAB
  0
TABLE
  2
LAYER
 70
     5
  0
LAYER
  2
0
 70
     0
 62
     7
  6
CONTINUOUS
  0
LAYER
  2
1
 70
     0
 62
     1
  6
CENTER
  0
LAYER
  2
DEFPOINTS
 70
     0
 62
     7
  6
CONTINUOUS
  0
LAYER
  2
2
 70
     0
 62
     2
  6
HIDDEN
  0
LAYER
  2
3
 70
     0
 62
     3
  6
CONTINUOUS
  0
ENDTAB
  0
TABLE
  2
STYLE
 70
     2
  0
STYLE
  2
STANDARD
 70
     0
 40
0.0
 41
1.0
 50
0.0
 71
     0
 42
2.5
  3
txt
  4
bigfont
  0
STYLE
  2
STANDARD1
 70
     0
 40
0.0
 41
1.0
 50
0.0
 71
     0
 42
3.0
  3
txt
  4

  0
ENDTAB
  0
TABLE
  2
VIEW
 70
     0
  0
ENDTAB
  0
TABLE
  2
UCS
 70
     0
  0
ENDTAB
  0
TABLE
  2
APPID
 70
     3
  0
APPID
  2
ACAD
 70
     0
  0
APPID
  2
ACAD_MLEADERVER
 70
     0
  0
APPID
  2
ACAD_NAV_VCDISPLAY
 70
     0
  0
ENDTAB
  0
TABLE
  2
DIMSTYLE
 70
     2
  0
DIMSTYLE
  2
ISO-25
 70
     0
  3

  4

  5

  6

  7

 40
1.0
 41
2.5
 42
0.625
 43
3.75
 44
1.25
 45
0.0
 46
0.0
 47
0.0
 48
0.0
140
2.5
141
2.5
142
0.0
143
0.03937007874016
144
1.0
145
0.0
146
1.0
147
0.625
 71
     0
 72
     0
 73
     0
 74
     0
 75
     0
 76
     0
 77
     1
 78
     8
170
     0
171
     3
172
     1
173
     0
174
     0
175
     0
176
     0
177
     0
178
     0
  0
DIMSTYLE
  2
STANDARD
 70
     0
  3

  4

  5

  6

  7

 40
1.0
 41
0.18
 42
0.0625
 43
0.38
 44
0.18
 45
0.0
 46
0.0
 47
0.0
 48
0.0
140
0.18
141
0.09
142
0.0
143
25.399999999999999
144
1.0
145
0.0
146
1.0
147
0.09
 71
     0
 72
     0
 73
     1
 74
     1
 75
     0
 76
     0
 77
     0
 78
     0
170
     0
171
     2
172
     0
173
     0
174
     0
175
     0
176
     0
177
     0
178
     0
  0
ENDTAB
  0
ENDSEC
  0
SECTION
  2
BLOCKS
  0
BLOCK
  8
0
  2
$MODEL_SPACE
 70
     0
 10
0.0
 20
0.0
 30
0.0
  3
$MODEL_SPACE
  1

  0
ENDBLK
  5
21
  8
0
  0
BLOCK
 67
     1
  8
0
  2
$PAPER_SPACE
 70
     0
 10
0.0
 20
0.0
 30
0.0
  3
$PAPER_SPACE
  1

  0
ENDBLK
  5
1D
 67
     1
  8
0
  0
ENDSEC
  0
SECTION
  2
ENTITIES
  0
LINE
  5
1C31
  8
0
 10
76.928524500239234
 20
91.866063417396475
 30
0.0
 11
93.315024500239247
 21
91.866063417396475
 31
0.0
  0
LINE
  5
1C32
  8
0
 10
93.315024500239247
 20
101.8660634173965
 30
0.0
 11
76.928524500239234
 21
101.8660634173965
 31
0.0
  0
LINE
  5
1C33
  8
0
 10
76.315024500239247
 20
92.479563417396463
 30
0.0
 11
76.928524500239234
 21
91.866063417396475
 31
0.0
  0
LINE
  5
1C34
  8
0
 10
76.928524500239234
 20
101.8660634173965
 30
0.0
 11
76.315024500239247
 21
101.2525634173965
 31
0.0
  0
LINE
  5
1C39
  8
0
 10
76.315024500239247
 20
92.479563417396463
 30
0.0
 11
76.315024500239247
 21
101.2525634173965
 31
0.0
  0
LINE
  5
1C3A
  8
0
 10
76.928524500239234
 20
91.866063417396475
 30
0.0
 11
76.928524500239234
 21
101.8660634173965
 31
0.0
  0
LINE
  5
1C3B
  8
0
 10
98.315024500239261
 20
102.8660634173965
 30
0.0
 11
98.315024500239261
 21
90.866063417396475
 31
0.0
  0
LINE
  5
1C3C
  8
0
 10
93.315024500239247
 20
102.8660634173965
 30
0.0
 11
93.315024500239247
 21
90.866063417396475
 31
0.0
  0
POLYLINE
  5
1C3D
  8
0
 66
     1
 10
0.0
 20
0.0
 30
0.0
  0
VERTEX
  5
2E08
  8
0
 10
98.066313194274954
 20
102.8660634173965
 30
0.0
  0
VERTEX
  5
2E09
  8
0
 10
98.144108209311895
 20
102.3249191457231
 30
0.0
  0
VERTEX
  5
2E0A
  8
0
 10
98.254002514394017
 20
101.3112390197458
 30
0.0
  0
VERTEX
  5
2E0B
  8
0
 10
98.308187529506711
 20
100.34578374842749
 30
0.0
  0
VERTEX
  5
2E0C
  8
0
 10
98.315024500239261
 20
99.866063417396475
 30
0.0
  0
SEQEND
  5
2E0D
  8
0
  0
POLYLINE
  5
1C3E
  8
0
 66
     1
 10
0.0
 20
0.0
 30
0.0
  0
VERTEX
  5
2E0E
  8
0
 10
98.315024500239261
 20
99.866063417396475
 30
0.0
  0
VERTEX
  5
2E0F
  8
0
 10
98.308187529506711
 20
99.386343086365443
 30
0.0
  0
VERTEX
  5
2E10
  8
0
 10
98.254002514394017
 20
98.420887815047124
 30
0.0
  0
VERTEX
  5
2E11
  8
0
 10
98.144108209311895
 20
97.407207689069807
 30
0.0
  0
VERTEX
  5
2E12
  8
0
 10
98.066313194274954
 20
96.866063417396475
 30
0.0
  0
SEQEND
  5
2E13
  8
0
  0
LINE
  5
1C41
  8
0
 10
98.066313194274926
 20
96.866063417396475
 30
0.0
 11
93.315024500239247
 21
96.866063417396475
 31
0.0
  0
POLYLINE
  5
1C42
  8
0
 66
     1
 10
0.0
 20
0.0
 30
0.0
  0
VERTEX
  5
2E14
  8
0
 10
98.066313194274954
 20
96.866063417396475
 30
0.0
  0
VERTEX
  5
2E15
  8
0
 10
98.144108209311895
 20
96.324919145723115
 30
0.0
  0
VERTEX
  5
2E16
  8
0
 10
98.254002514394017
 20
95.311239019745841
 30
0.0
  0
VERTEX
  5
2E17
  8
0
 10
98.308187529506711
 20
94.345783748427479
 30
0.0
  0
VERTEX
  5
2E18
  8
0
 10
98.315024500239261
 20
93.866063417396475
 30
0.0
  0
SEQEND
  5
2E19
  8
0
  0
POLYLINE
  5
1C43
  8
0
 66
     1
 10
0.0
 20
0.0
 30
0.0
  0
VERTEX
  5
2E1A
  8
0
 10
98.315024500239261
 20
93.866063417396475
 30
0.0
  0
VERTEX
  5
2E1B
  8
0
 10
98.308187529506711
 20
93.386343086365414
 30
0.0
  0
VERTEX
  5
2E1C
  8
0
 10
98.254002514394017
 20
92.420887815047095
 30
0.0
  0
VERTEX
  5
2E1D
  8
0
 10
98.144108209311895
 20
91.407207689069821
 30
0.0
  0
VERTEX
  5
2E1E
  8
0
 10
98.066313194274954
 20
90.866063417396475
 30
0.0
  0
SEQEND
  5
2E1F
  8
0
  0
LINE
  5
1C58
  8
3
 10
76.315024500239247
 20
92.479563417396463
 30
0.0
 11
93.315024500239247
 21
92.479563417396463
 31
0.0
  0
LINE
  5
1C5B
  8
3
 10
76.315024500239247
 20
101.2525634173965
 30
0.0
 11
93.315024500239247
 21
101.2525634173965
 31
0.0
  0
LINE
  5
1C5E
  8
0
 10
98.515024500239235
 20
100.9910634173964
 30
0.0
 11
98.315024500239261
 21
100.9910634173964
 31
0.0
  0
LINE
  5
1C5F
  8
0
 10
98.315024500239261
 20
92.741063417396475
 30
0.0
 11
98.515024500239235
 21
92.741063417396475
 31
0.0
  0
LINE
  5
1C60
  8
0
 10
108.08565410851109
 20
103.1160634173964
 30
0.0
 11
98.515024500239235
 21
103.1160634173964
 31
0.0
  0
LINE
  5
1C61
  8
0
 10
98.515024500239235
 20
90.616063417396475
 30
0.0
 11
108.08565410851109
 21
90.616063417396475
 31
0.0
  0
LINE
  5
1C6D
  8
0
 10
72.18963506558589
 20
94.504711483070054
 30
0.0
 11
73.065024500239247
 21
94.366063417396475
 31
0.0
  0
LINE
  5
1C6E
  8
0
 10
73.065024500239247
 20
99.366063417396475
 30
0.0
 11
72.18963506558589
 21
99.227415351722897
 31
0.0
  0
ARC
  5
1C6F
  8
0
 10
74.940024500239247
 20
96.866063417396475
 30
0.0
 40
3.6250000000000031
 50
139.35219968656639
 51
220.64780031343361
  0
LINE
  5
1C70
  8
0
 10
73.065024500239247
 20
94.366063417396475
 30
0.0
 11
76.315024500239247
 21
94.366063417396475
 31
0.0
  0
LINE
  5
1C73
  8
0
 10
76.315024500239247
 20
99.366063417396475
 30
0.0
 11
73.065024500239247
 21
99.366063417396475
 31
0.0
  0
LINE
  5
1C76
  8
0
 10
98.515024500239235
 20
90.616063417396475
 30
0.0
 11
98.515024500239235
 21
103.1160634173964
 31
0.0
  0
LINE
  5
1D9B
  8
0
 10
72.18963506558589
 20
94.504711483070054
 30
0.0
 11
72.18963506558589
 21
99.227415351722897
 31
0.0
  0
LINE
  5
1D9C
  8
0
 10
73.065024500239247
 20
94.366063417396475
 30
0.0
 11
73.065024500239247
 21
99.366063417396475
 31
0.0
  0
LINE
  5
1D9D
  8
1
 10
117.2649306875248
 20
96.866063417396475
 30
0.0
 11
70.365118312953655
 21
96.866063417396475
 31
0.0
  0
LINE
  5
1D9E
  8
1
 10
117.2649306875248
 20
58.014317890268423
 30
0.0
 11
70.365118312953655
 21
58.014317890268423
 31
0.0
  0
LINE
  5
1D9F
  8
0
 10
73.065024500239247
 20
55.514317890268423
 30
0.0
 11
73.065024500239247
 21
60.514317890268423
 31
0.0
  0
LINE
  5
1DA0
  8
0
 10
72.18963506558589
 20
55.652965955942008
 30
0.0
 11
72.18963506558589
 21
60.375669824594851
 31
0.0
  0
LINE
  5
1DA1
  8
0
 10
116.3150245002392
 20
67.960668056423955
 30
0.0
 11
113.62502450023921
 21
67.960668056423955
 31
0.0
  0
POLYLINE
  5
1DA2
  8
0
 66
     1
 10
0.0
 20
0.0
 30
0.0
  0
VERTEX
  5
2E20
  8
0
 10
115.8150245002392
 20
68.460415937642878
 30
0.0
  0
VERTEX
  5
2E21
  8
0
 10
115.9015261411205
 20
68.381840877839778
 30
0.0
  0
VERTEX
  5
2E22
  8
0
 10
116.0706807557771
 20
68.226640395038757
 30
0.0
  0
VERTEX
  5
2E23
  8
0
 10
116.2348083587295
 20
68.073943831128375
 30
0.0
  0
VERTEX
  5
2E24
  8
0
 10
116.3150245002392
 20
67.998499534001084
 30
0.0
  0
SEQEND
  5
2E25
  8
0
  0
LINE
  5
1DA3
  8
0
 10
116.3150245002392
 20
67.851693762596014
 30
0.0
 11
113.62502450023921
 21
67.851693762596014
 31
0.0
  0
POLYLINE
  5
1DA4
  8
0
 66
     1
 10
0.0
 20
0.0
 30
0.0
  0
VERTEX
  5
2E26
  8
0
 10
115.8150245002392
 20
68.292123265552917
 30
0.0
  0
VERTEX
  5
2E27
  8
0
 10
115.9015261411207
 20
68.222874798806984
 30
0.0
  0
VERTEX
  5
2E28
  8
0
 10
116.070680755777
 20
68.086096086845416
 30
0.0
  0
VERTEX
  5
2E29
  8
0
 10
116.2348083587293
 20
67.951524087095848
 30
0.0
  0
VERTEX
  5
2E2A
  8
0
 10
116.3150245002392
 20
67.885034772116171
 30
0.0
  0
SEQEND
  5
2E2B
  8
0
  0
LINE
  5
1DA5
  8
0
 10
116.3150245002392
 20
67.634939120107546
 30
0.0
 11
113.62502450023921
 21
67.634939120107546
 31
0.0
  0
POLYLINE
  5
1DA6
  8
0
 66
     1
 10
0.0
 20
0.0
 30
0.0
  0
VERTEX
  5
2E2C
  8
0
 10
115.8150245002392
 20
68.011224807002307
 30
0.0
  0
VERTEX
  5
2E2D
  8
0
 10
115.9015261411206
 20
67.95206163400654
 30
0.0
  0
VERTEX
  5
2E2E
  8
0
 10
116.070680755777
 20
67.835203269075194
 30
0.0
  0
VERTEX
  5
2E2F
  8
0
 10
116.2348083587294
 20
67.720230232476567
 30
0.0
  0
VERTEX
  5
2E30
  8
0
 10
116.3150245002392
 20
67.663424370493445
 30
0.0
  0
SEQEND
  5
2E31
  8
0
  0
LINE
  5
1DA7
  8
0
 10
116.3150245002392
 20
67.312778938180585
 30
0.0
 11
113.62502450023921
 21
67.312778938180585
 31
0.0
  0
POLYLINE
  5
1DA8
  8
0
 66
     1
 10
0.0
 20
0.0
 30
0.0
  0
VERTEX
  5
2E32
  8
0
 10
115.8150245002392
 20
67.620798144284663
 30
0.0
  0
VERTEX
  5
2E33
  8
0
 10
115.9015261411206
 20
67.572368469143086
 30
0.0
  0
VERTEX
  5
2E34
  8
0
 10
116.07068075577691
 20
67.476710775942465
 30
0.0
  0
VERTEX
  5
2E35
  8
0
 10
116.2348083587293
 20
67.382596371143435
 30
0.0
  0
VERTEX
  5
2E36
  8
0
 10
116.3150245002392
 20
67.336096339068021
 30
0.0
  0
SEQEND
  5
2E37
  8
0
  0
LINE
  5
1DA9
  8
0
 10
116.3150245002392
 20
66.888742871184576
 30
0.0
 11
113.62502450023921
 21
66.888742871184576
 31
0.0
  0
POLYLINE
  5
1DAA
  8
0
 66
     1
 10
0.0
 20
0.0
 30
0.0
  0
VERTEX
  5
2E38
  8
0
 10
115.8150245002392
 20
67.125120873618826
 30
0.0
  0
VERTEX
  5
2E39
  8
0
 10
115.9015261411207
 20
67.087955301986696
 30
0.0
  0
VERTEX
  5
2E3A
  8
0
 10
116.070680755777
 20
67.014546326221151
 30
0.0
  0
VERTEX
  5
2E3B
  8
0
 10
116.2348083587293
 20
66.942321690335476
 30
0.0
  0
VERTEX
  5
2E3C
  8
0
 10
116.3150245002392
 20
66.906636952250011
 30
0.0
  0
SEQEND
  5
2E3D
  8
0
  0
LINE
  5
1DAB
  8
0
 10
116.3150245002392
 20
66.367476747004829
 30
0.0
 11
113.62502450023921
 21
66.367476747004829
 31
0.0
  0
POLYLINE
  5
1DAC
  8
0
 66
     1
 10
0.0
 20
0.0
 30
0.0
  0
VERTEX
  5
2E3E
  8
0
 10
115.8150245002392
 20
66.529623738909308
 30
0.0
  0
VERTEX
  5
2E3F
  8
0
 10
115.9015261411206
 20
66.504129464566972
 30
0.0
  0
VERTEX
  5
2E40
  8
0
 10
116.070680755777
 20
66.453773490336715
 30
0.0
  0
VERTEX
  5
2E41
  8
0
 10
116.2348083587294
 20
66.404229931589015
 30
0.0
  0
VERTEX
  5
2E42
  8
0
 10
116.3150245002392
 20
66.379751456951524
 30
0.0
  0
SEQEND
  5
2E43
  8
0
  0
LINE
  5
1DAD
  8
0
 10
116.3150245002392
 20
65.754691666379856
 30
0.0
 11
113.62502450023921
 21
65.754691666379856
 31
0.0
  0
POLYLINE
  5
1DAE
  8
0
 66
     1
 10
0.0
 20
0.0
 30
0.0
  0
VERTEX
  5
2E44
  8
0
 10
115.8150245002392
 20
65.840831131379744
 30
0.0
  0
VERTEX
  5
2E45
  8
0
 10
115.9015261411206
 20
65.827287474931879
 30
0.0
  0
VERTEX
  5
2E46
  8
0
 10
116.0706807557771
 20
65.800536212828291
 30
0.0
  0
VERTEX
  5
2E47
  8
0
 10
116.2348083587295
 20
65.774216540815928
 30
0.0
  0
VERTEX
  5
2E48
  8
0
 10
116.3150245002392
 20
65.761212520916942
 30
0.0
  0
SEQEND
  5
2E49
  8
0
  0
LINE
  5
1DAF
  8
0
 10
116.3150245002392
 20
65.057101430886448
 30
0.0
 11
113.62502450023921
 21
65.057101430886448
 31
0.0
  0
POLYLINE
  5
1DB0
  8
0
 66
     1
 10
0.0
 20
0.0
 30
0.0
  0
VERTEX
  5
2E4A
  8
0
 10
115.8150245002392
 20
65.066289606977392
 30
0.0
  0
VERTEX
  5
2E4B
  8
0
 10
115.9015261411206
 20
65.064844955558229
 30
0.0
  0
VERTEX
  5
2E4C
  8
0
 10
116.070680755777
 20
65.061991498007004
 30
0.0
  0
VERTEX
  5
2E4D
  8
0
 10
116.2348083587295
 20
65.059184076564264
 30
0.0
  0
VERTEX
  5
2E4E
  8
0
 10
116.3150245002392
 20
65.057796986167062
 30
0.0
  0
SEQEND
  5
2E4F
  8
0
  0
POLYLINE
  5
1DB1
  8
0
 66
     1
 10
0.0
 20
0.0
 30
0.0
  0
VERTEX
  5
2E50
  8
0
 10
115.8150245002392
 20
64.214485204726827
 30
0.0
  0
VERTEX
  5
2E51
  8
0
 10
115.9015261411205
 20
64.225155386239607
 30
0.0
  0
VERTEX
  5
2E52
  8
0
 10
116.07068075577691
 20
64.246230996318772
 30
0.0
  0
VERTEX
  5
2E53
  8
0
 10
116.2348083587294
 20
64.266966584142494
 30
0.0
  0
VERTEX
  5
2E54
  8
0
 10
116.3150245002392
 20
64.277211620499756
 30
0.0
  0
SEQEND
  5
2E55
  8
0
  0
LINE
  5
1DB2
  8
0
 10
113.62502450023921
 20
63.438922679018091
 30
0.0
 11
113.62502450023921
 21
63.294750471910604
 31
0.0
  0
POLYLINE
  5
1DB3
  8
0
 66
     1
 10
0.0
 20
0.0
 30
0.0
  0
VERTEX
  5
2E56
  8
0
 10
115.8150245002392
 20
63.294750471910618
 30
0.0
  0
VERTEX
  5
2E57
  8
0
 10
115.9015261411206
 20
63.317418581613829
 30
0.0
  0
VERTEX
  5
2E58
  8
0
 10
116.070680755777
 20
63.362192350529007
 30
0.0
  0
VERTEX
  5
2E59
  8
0
 10
116.2348083587293
 20
63.406243764179813
 30
0.0
  0
VERTEX
  5
2E5A
  8
0
 10
116.3150245002392
 20
63.428008680529253
 30
0.0
  0
SEQEND
  5
2E5B
  8
0
  0
POLYLINE
  5
1DB4
  8
0
 66
     1
 10
0.0
 20
0.0
 30
0.0
  0
VERTEX
  5
2E5C
  8
0
 10
115.8150245002392
 20
62.317162214728377
 30
0.0
  0
VERTEX
  5
2E5D
  8
0
 10
115.9015261411207
 20
62.351579896068543
 30
0.0
  0
VERTEX
  5
2E5E
  8
0
 10
116.0706807557771
 20
62.419561273038013
 30
0.0
  0
VERTEX
  5
2E5F
  8
0
 10
116.2348083587294
 20
62.48644587600954
 30
0.0
  0
VERTEX
  5
2E60
  8
0
 10
116.3150245002392
 20
62.519492211373027
 30
0.0
  0
SEQEND
  5
2E61
  8
0
  0
POLYLINE
  5
1DB5
  8
0
 66
     1
 10
0.0
 20
0.0
 30
0.0
  0
VERTEX
  5
2E62
  8
0
 10
115.8150245002392
 20
61.292431094699317
 30
0.0
  0
VERTEX
  5
2E63
  8
0
 10
115.9015261411206
 20
61.338221260357201
 30
0.0
  0
VERTEX
  5
2E64
  8
0
 10
116.070680755777
 20
61.428665427188839
 30
0.0
  0
VERTEX
  5
2E65
  8
0
 10
116.2348083587294
 20
61.517650417774497
 30
0.0
  0
VERTEX
  5
2E66
  8
0
 10
116.3150245002392
 20
61.561616109586453
 30
0.0
  0
SEQEND
  5
2E67
  8
0
  0
LINE
  5
1DB6
  8
0
 10
113.62502450023921
 20
60.592155579489521
 30
0.0
 11
113.62502450023921
 21
60.23178428041318
 31
0.0
  0
POLYLINE
  5
1DB7
  8
0
 66
     1
 10
0.0
 20
0.0
 30
0.0
  0
VERTEX
  5
2E68
  8
0
 10
115.8150245002392
 20
60.231784280413208
 30
0.0
  0
VERTEX
  5
2E69
  8
0
 10
115.9015261411206
 20
60.288445243751731
 30
0.0
  0
VERTEX
  5
2E6A
  8
0
 10
116.070680755777
 20
60.400361275227127
 30
0.0
  0
VERTEX
  5
2E6B
  8
0
 10
116.2348083587295
 20
60.510471715248698
 30
0.0
  0
VERTEX
  5
2E6C
  8
0
 10
116.3150245002392
 20
60.564875066189138
 30
0.0
  0
SEQEND
  5
2E6D
  8
0
  0
POLYLINE
  5
1DB8
  8
0
 66
     1
 10
0.0
 20
0.0
 30
0.0
  0
VERTEX
  5
2E6E
  8
0
 10
115.8150245002392
 20
59.14684244032199
 30
0.0
  0
VERTEX
  5
2E6F
  8
0
 10
115.9015261411207
 20
59.213753411969819
 30
0.0
  0
VERTEX
  5
2E70
  8
0
 10
116.0706807557771
 20
59.345915132628093
 30
0.0
  0
VERTEX
  5
2E71
  8
0
 10
116.2348083587294
 20
59.47594462906256
 30
0.0
  0
VERTEX
  5
2E72
  8
0
 10
116.3150245002392
 20
59.540189584634049
 30
0.0
  0
SEQEND
  5
2E73
  8
0
  0
POLYLINE
  5
1DB9
  8
0
 66
     1
 10
0.0
 20
0.0
 30
0.0
  0
VERTEX
  5
2E74
  8
0
 10
115.8150245002392
 20
58.0494924242644
 30
0.0
  0
VERTEX
  5
2E75
  8
0
 10
115.9015261411207
 20
58.125920313614031
 30
0.0
  0
VERTEX
  5
2E76
  8
0
 10
116.070680755777
 20
58.27687973198703
 30
0.0
  0
VERTEX
  5
2E77
  8
0
 10
116.2348083587293
 20
58.425403654461107
 30
0.0
  0
VERTEX
  5
2E78
  8
0
 10
116.3150245002392
 20
58.498786333486301
 30
0.0
  0
SEQEND
  5
2E79
  8
0
  0
POLYLINE
  5
1DBA
  8
0
 66
     1
 10
0.0
 20
0.0
 30
0.0
  0
VERTEX
  5
2E7A
  8
0
 10
115.8150245002392
 20
56.951757028651578
 30
0.0
  0
VERTEX
  5
2E7B
  8
0
 10
115.9015261411205
 20
57.036864475753568
 30
0.0
  0
VERTEX
  5
2E7C
  8
0
 10
116.07068075577691
 20
57.204967648863473
 30
0.0
  0
VERTEX
  5
2E7D
  8
0
 10
116.2348083587294
 20
57.370358738202107
 30
0.0
  0
VERTEX
  5
2E7E
  8
0
 10
116.3150245002392
 20
57.452075144693133
 30
0.0
  0
SEQEND
  5
2E7F
  8
0
  0
POLYLINE
  5
1DBB
  8
0
 66
     1
 10
0.0
 20
0.0
 30
0.0
  0
VERTEX
  5
2E80
  8
0
 10
115.8150245002392
 20
55.865663272193828
 30
0.0
  0
VERTEX
  5
2E81
  8
0
 10
115.9015261411206
 20
55.958517822048186
 30
0.0
  0
VERTEX
  5
2E82
  8
0
 10
116.070680755777
 20
56.141922976352397
 30
0.0
  0
VERTEX
  5
2E83
  8
0
 10
116.2348083587294
 20
56.322369173170152
 30
0.0
  0
VERTEX
  5
2E84
  8
0
 10
116.3150245002392
 20
56.411524005077318
 30
0.0
  0
SEQEND
  5
2E85
  8
0
  0
POLYLINE
  5
1DBC
  8
0
 66
     1
 10
0.0
 20
0.0
 30
0.0
  0
VERTEX
  5
2E86
  8
0
 10
115.8150245002392
 20
54.803110625366557
 30
0.0
  0
VERTEX
  5
2E87
  8
0
 10
115.9015261411206
 20
54.90269494409393
 30
0.0
  0
VERTEX
  5
2E88
  8
0
 10
116.070680755777
 20
55.099392654341912
 30
0.0
  0
VERTEX
  5
2E89
  8
0
 10
116.2348083587294
 20
55.29291695234572
 30
0.0
  0
VERTEX
  5
2E8A
  8
0
 10
116.3150245002392
 20
55.388533410673872
 30
0.0
  0
SEQEND
  5
2E8B
  8
0
  0
POLYLINE
  5
1DBD
  8
0
 66
     1
 10
0.0
 20
0.0
 30
0.0
  0
VERTEX
  5
2E8C
  8
0
 10
115.8150245002392
 20
53.775740637321888
 30
0.0
  0
VERTEX
  5
2E8D
  8
0
 10
115.9015261411206
 20
53.880963658286831
 30
0.0
  0
VERTEX
  5
2E8E
  8
0
 10
116.0706807557771
 20
54.08879886320365
 30
0.0
  0
VERTEX
  5
2E8F
  8
0
 10
116.2348083587295
 20
54.293280969687117
 30
0.0
  0
VERTEX
  5
2E90
  8
0
 10
116.3150245002392
 20
54.39431146050957
 30
0.0
  0
SEQEND
  5
2E91
  8
0
  0
POLYLINE
  5
1DBE
  8
0
 66
     1
 10
0.0
 20
0.0
 30
0.0
  0
VERTEX
  5
2E92
  8
0
 10
115.8150245002392
 20
52.794809388639798
 30
0.0
  0
VERTEX
  5
2E93
  8
0
 10
115.9015261411207
 20
52.904518266405411
 30
0.0
  0
VERTEX
  5
2E94
  8
0
 10
116.070680755777
 20
53.12121387999337
 30
0.0
  0
VERTEX
  5
2E95
  8
0
 10
116.2348083587294
 20
53.334413446207122
 30
0.0
  0
VERTEX
  5
2E96
  8
0
 10
116.3150245002392
 20
53.439751058324767
 30
0.0
  0
SEQEND
  5
2E97
  8
0
  0
POLYLINE
  5
1DBF
  8
0
 66
     1
 10
0.0
 20
0.0
 30
0.0
  0
VERTEX
  5
2E98
  8
0
 10
115.8150245002392
 20
51.87106416735395
 30
0.0
  0
VERTEX
  5
2E99
  8
0
 10
115.9015261411207
 20
51.984056908497287
 30
0.0
  0
VERTEX
  5
2E9A
  8
0
 10
116.070680755777
 20
52.207238768267644
 30
0.0
  0
VERTEX
  5
2E9B
  8
0
 10
116.2348083587294
 20
52.426819935149418
 30
0.0
  0
VERTEX
  5
2E9C
  8
0
 10
116.3150245002392
 20
52.53531056764038
 30
0.0
  0
SEQEND
  5
2E9D
  8
0
  0
POLYLINE
  5
1DC0
  8
0
 66
     1
 10
0.0
 20
0.0
 30
0.0
  0
VERTEX
  5
2E9E
  8
0
 10
115.8150245002392
 20
51.014625719414823
 30
0.0
  0
VERTEX
  5
2E9F
  8
0
 10
115.9015261411207
 20
51.129664351818761
 30
0.0
  0
VERTEX
  5
2EA0
  8
0
 10
116.070680755777
 20
51.356887230611889
 30
0.0
  0
VERTEX
  5
2EA1
  8
0
 10
116.2348083587293
 20
51.580444220946987
 30
0.0
  0
VERTEX
  5
2EA2
  8
0
 10
116.3150245002392
 20
51.690899227738711
 30
0.0
  0
SEQEND
  5
2EA3
  8
0
  0
POLYLINE
  5
1DC1
  8
0
 66
     1
 10
0.0
 20
0.0
 30
0.0
  0
VERTEX
  5
2EA4
  8
0
 10
115.8150245002392
 20
50.234877363679331
 30
0.0
  0
VERTEX
  5
2EA5
  8
0
 10
115.9015261411205
 20
50.3507015000135
 30
0.0
  0
VERTEX
  5
2EA6
  8
0
 10
116.070680755777
 20
50.579475896420291
 30
0.0
  0
VERTEX
  5
2EA7
  8
0
 10
116.2348083587295
 20
50.804559373040618
 30
0.0
  0
VERTEX
  5
2EA8
  8
0
 10
116.3150245002392
 20
50.91576858596413
 30
0.0
  0
SEQEND
  5
2EA9
  8
0
  0
POLYLINE
  5
1DC2
  8
0
 66
     1
 10
0.0
 20
0.0
 30
0.0
  0
VERTEX
  5
2EAA
  8
0
 10
115.8150245002392
 20
49.540362186305728
 30
0.0
  0
VERTEX
  5
2EAB
  8
0
 10
115.9015261411206
 20
49.655702833095098
 30
0.0
  0
VERTEX
  5
2EAC
  8
0
 10
116.070680755777
 20
49.883522246954108
 30
0.0
  0
VERTEX
  5
2EAD
  8
0
 10
116.2348083587295
 20
50.107666148187697
 30
0.0
  0
VERTEX
  5
2EAE
  8
0
 10
116.3150245002392
 20
50.218411135834451
 30
0.0
  0
SEQEND
  5
2EAF
  8
0
  0
POLYLINE
  5
1DC4
  8
0
 66
     1
 10
0.0
 20
0.0
 30
0.0
  0
VERTEX
  5
2EB0
  8
0
 10
115.8150245002392
 20
48.93868944091399
 30
0.0
  0
VERTEX
  5
2EB1
  8
0
 10
115.9015261411206
 20
49.052282901895651
 30
0.0
  0
VERTEX
  5
2EB2
  8
0
 10
116.070680755777
 20
49.276651296034331
 30
0.0
  0
VERTEX
  5
2EB3
  8
0
 10
116.2348083587294
 20
49.497399854394203
 30
0.0
  0
VERTEX
  5
2EB4
  8
0
 10
116.3150245002392
 20
49.606467271504719
 30
0.0
  0
SEQEND
  5
2EB5
  8
0
  0
LINE
  5
1DC5
  8
0
 10
116.3150245002392
 20
49.086641578010003
 30
0.0
 11
116.3150245002392
 21
49.139892909352263
 31
0.0
  0
POLYLINE
  5
1DC6
  8
0
 66
     1
 10
0.0
 20
0.0
 30
0.0
  0
VERTEX
  5
2EB6
  8
0
 10
115.8150245002392
 20
48.436451180010721
 30
0.0
  0
VERTEX
  5
2EB7
  8
0
 10
115.9015261411207
 20
48.547052901455281
 30
0.0
  0
VERTEX
  5
2EB8
  8
0
 10
116.070680755777
 20
48.765512048795372
 30
0.0
  0
VERTEX
  5
2EB9
  8
0
 10
116.2348083587294
 20
48.980446696881479
 30
0.0
  0
VERTEX
  5
2EBA
  8
0
 10
116.3150245002392
 20
49.086641578010031
 30
0.0
  0
SEQEND
  5
2EBB
  8
0
  0
LINE
  5
1DC7
  8
0
 10
116.3150245002392
 20
48.66462937442882
 30
0.0
 11
116.3150245002392
 21
48.715856842356267
 31
0.0
  0
POLYLINE
  5
1DC8
  8
0
 66
     1
 10
0.0
 20
0.0
 30
0.0
  0
VERTEX
  5
2EBC
  8
0
 10
115.8150245002392
 20
48.039150031082507
 30
0.0
  0
VERTEX
  5
2EBD
  8
0
 10
115.9015261411206
 20
48.145548237384737
 30
0.0
  0
VERTEX
  5
2EBE
  8
0
 10
116.0706807557771
 20
48.355704653792607
 30
0.0
  0
VERTEX
  5
2EBF
  8
0
 10
116.2348083587295
 20
48.562470522622718
 30
0.0
  0
VERTEX
  5
2EC0
  8
0
 10
116.3150245002392
 20
48.664629374428813
 30
0.0
  0
SEQEND
  5
2EC1
  8
0
  0
LINE
  5
1DC9
  8
0
 10
116.3150245002392
 20
48.345054314775197
 30
0.0
 11
116.3150245002392
 21
48.393696660429313
 31
0.0
  0
POLYLINE
  5
1DCA
  8
0
 66
     1
 10
0.0
 20
0.0
 30
0.0
  0
VERTEX
  5
2EC2
  8
0
 10
115.8150245002392
 20
47.751138908657587
 30
0.0
  0
VERTEX
  5
2EC3
  8
0
 10
115.9015261411205
 20
47.852167878803947
 30
0.0
  0
VERTEX
  5
2EC4
  8
0
 10
116.07068075577691
 20
48.051719046603253
 30
0.0
  0
VERTEX
  5
2EC5
  8
0
 10
116.2348083587294
 20
48.24805076604995
 30
0.0
  0
VERTEX
  5
2EC6
  8
0
 10
116.3150245002392
 20
48.345054314775233
 30
0.0
  0
SEQEND
  5
2EC7
  8
0
  0
LINE
  5
1DCB
  8
0
 10
116.3150245002392
 20
48.131417730278237
 30
0.0
 11
116.3150245002392
 21
48.176942017940839
 31
0.0
  0
POLYLINE
  5
1DCC
  8
0
 66
     1
 10
0.0
 20
0.0
 30
0.0
  0
VERTEX
  5
2EC8
  8
0
 10
115.8150245002392
 20
47.575573322863477
 30
0.0
  0
VERTEX
  5
2EC9
  8
0
 10
115.9015261411206
 20
47.670126162315633
 30
0.0
  0
VERTEX
  5
2ECA
  8
0
 10
116.070680755777
 20
47.856885757153179
 30
0.0
  0
VERTEX
  5
2ECB
  8
0
 10
116.2348083587294
 20
48.040632275812911
 30
0.0
  0
VERTEX
  5
2ECC
  8
0
 10
116.3150245002392
 20
48.131417730278258
 30
0.0
  0
SEQEND
  5
2ECD
  8
0
  0
LINE
  5
1DCD
  8
0
 10
116.3150245002392
 20
48.026060268063908
 30
0.0
 11
116.3150245002392
 21
48.067967724112897
 31
0.0
  0
POLYLINE
  5
1DCE
  8
0
 66
     1
 10
0.0
 20
0.0
 30
0.0
  0
VERTEX
  5
2ECE
  8
0
 10
115.8150245002392
 20
47.51437680699761
 30
0.0
  0
VERTEX
  5
2ECF
  8
0
 10
115.9015261411206
 20
47.601417575059898
 30
0.0
  0
VERTEX
  5
2ED0
  8
0
 10
116.07068075577691
 20
47.773339419732622
 30
0.0
  0
VERTEX
  5
2ED1
  8
0
 10
116.2348083587293
 20
47.94248757229569
 30
0.0
  0
VERTEX
  5
2ED2
  8
0
 10
116.3150245002392
 20
48.026060268063937
 30
0.0
  0
SEQEND
  5
2ED3
  8
0
  0
LINE
  5
1DCF
  8
0
 10
113.62502450023921
 20
47.568219842893967
 30
0.0
 11
115.8150245002392
 21
47.568219842893967
 31
0.0
  0
LINE
  5
1DD0
  8
0
 10
116.3150245002392
 20
48.067967724112897
 30
0.0
 11
113.62502450023921
 21
48.067967724112897
 31
0.0
  0
POLYLINE
  5
1DD1
  8
0
 66
     1
 10
0.0
 20
0.0
 30
0.0
  0
VERTEX
  5
2ED4
  8
0
 10
115.8150245002392
 20
47.568219842893967
 30
0.0
  0
VERTEX
  5
2ED5
  8
0
 10
115.9015261411205
 20
47.64679490269706
 30
0.0
  0
VERTEX
  5
2ED6
  8
0
 10
116.070680755777
 20
47.801995385498003
 30
0.0
  0
VERTEX
  5
2ED7
  8
0
 10
116.2348083587295
 20
47.954691949408399
 30
0.0
  0
VERTEX
  5
2ED8
  8
0
 10
116.3150245002392
 20
48.030136246535768
 30
0.0
  0
SEQEND
  5
2ED9
  8
0
  0
LINE
  5
1DD2
  8
0
 10
113.62502450023921
 20
47.736512514983907
 30
0.0
 11
115.8150245002392
 21
47.736512514983907
 31
0.0
  0
LINE
  5
1DD3
  8
0
 10
116.3150245002392
 20
48.176942017940839
 30
0.0
 11
113.62502450023921
 21
48.176942017940839
 31
0.0
  0
POLYLINE
  5
1DD4
  8
0
 66
     1
 10
0.0
 20
0.0
 30
0.0
  0
VERTEX
  5
2EDA
  8
0
 10
115.8150245002392
 20
47.736512514983943
 30
0.0
  0
VERTEX
  5
2EDB
  8
0
 10
115.9015261411206
 20
47.805760981729797
 30
0.0
  0
VERTEX
  5
2EDC
  8
0
 10
116.0706807557771
 20
47.942539693691501
 30
0.0
  0
VERTEX
  5
2EDD
  8
0
 10
116.2348083587295
 20
48.077111693441132
 30
0.0
  0
VERTEX
  5
2EDE
  8
0
 10
116.3150245002392
 20
48.143601008420688
 30
0.0
  0
SEQEND
  5
2EDF
  8
0
  0
LINE
  5
1DD5
  8
0
 10
113.62502450023921
 20
48.017410973534531
 30
0.0
 11
115.8150245002392
 21
48.017410973534531
 31
0.0
  0
LINE
  5
1DD6
  8
0
 10
116.3150245002392
 20
48.393696660429313
 30
0.0
 11
113.62502450023921
 21
48.393696660429313
 31
0.0
  0
POLYLINE
  5
1DD7
  8
0
 66
     1
 10
0.0
 20
0.0
 30
0.0
  0
VERTEX
  5
2EE0
  8
0
 10
115.8150245002392
 20
48.01741097353456
 30
0.0
  0
VERTEX
  5
2EE1
  8
0
 10
115.9015261411205
 20
48.076574146530277
 30
0.0
  0
VERTEX
  5
2EE2
  8
0
 10
116.070680755777
 20
48.193432511461623
 30
0.0
  0
VERTEX
  5
2EE3
  8
0
 10
116.2348083587294
 20
48.308405548060293
 30
0.0
  0
VERTEX
  5
2EE4
  8
0
 10
116.3150245002392
 20
48.365211410043408
 30
0.0
  0
SEQEND
  5
2EE5
  8
0
  0
LINE
  5
1DD8
  8
0
 10
113.62502450023921
 20
48.407837636252211
 30
0.0
 11
115.8150245002392
 21
48.407837636252211
 31
0.0
  0
LINE
  5
1DD9
  8
0
 10
116.3150245002392
 20
48.715856842356331
 30
0.0
 11
113.62502450023921
 21
48.715856842356331
 31
0.0
  0
POLYLINE
  5
1DDA
  8
0
 66
     1
 10
0.0
 20
0.0
 30
0.0
  0
VERTEX
  5
2EE6
  8
0
 10
115.8150245002392
 20
48.407837636252182
 30
0.0
  0
VERTEX
  5
2EE7
  8
0
 10
115.9015261411205
 20
48.456267311393752
 30
0.0
  0
VERTEX
  5
2EE8
  8
0
 10
116.0706807557771
 20
48.551925004594509
 30
0.0
  0
VERTEX
  5
2EE9
  8
0
 10
116.23480835872959
 20
48.646039409393588
 30
0.0
  0
VERTEX
  5
2EEA
  8
0
 10
116.3150245002392
 20
48.692539441468831
 30
0.0
  0
SEQEND
  5
2EEB
  8
0
  0
LINE
  5
1DDB
  8
0
 10
113.62502450023921
 20
48.903514906918062
 30
0.0
 11
115.8150245002392
 21
48.903514906918062
 31
0.0
  0
LINE
  5
1DDC
  8
0
 10
116.3150245002392
 20
49.139892909352263
 30
0.0
 11
113.62502450023921
 21
49.139892909352263
 31
0.0
  0
POLYLINE
  5
1DDD
  8
0
 66
     1
 10
0.0
 20
0.0
 30
0.0
  0
VERTEX
  5
2EEC
  8
0
 10
115.8150245002392
 20
48.903514906918033
 30
0.0
  0
VERTEX
  5
2EED
  8
0
 10
115.9015261411205
 20
48.94068047855005
 30
0.0
  0
VERTEX
  5
2EEE
  8
0
 10
116.07068075577691
 20
49.01408945431568
 30
0.0
  0
VERTEX
  5
2EEF
  8
0
 10
116.2348083587295
 20
49.086314090201448
 30
0.0
  0
VERTEX
  5
2EF0
  8
0
 10
116.3150245002392
 20
49.121998828286863
 30
0.0
  0
SEQEND
  5
2EF1
  8
0
  0
LINE
  5
1DDE
  8
0
 10
113.62502450023921
 20
49.499012041627552
 30
0.0
 11
115.8150245002392
 21
49.499012041627552
 31
0.0
  0
LINE
  5
1DDF
  8
0
 10
116.3150245002392
 20
49.66115903353203
 30
0.0
 11
113.62502450023921
 21
49.66115903353203
 31
0.0
  0
POLYLINE
  5
1DE0
  8
0
 66
     1
 10
0.0
 20
0.0
 30
0.0
  0
VERTEX
  5
2EF2
  8
0
 10
115.8150245002392
 20
49.499012041627559
 30
0.0
  0
VERTEX
  5
2EF3
  8
0
 10
115.9015261411205
 20
49.524506315969873
 30
0.0
  0
VERTEX
  5
2EF4
  8
0
 10
116.070680755777
 20
49.574862290200137
 30
0.0
  0
VERTEX
  5
2EF5
  8
0
 10
116.2348083587294
 20
49.624405848947852
 30
0.0
  0
VERTEX
  5
2EF6
  8
0
 10
116.3150245002392
 20
49.648884323585342
 30
0.0
  0
SEQEND
  5
2EF7
  8
0
  0
LINE
  5
1DE1
  8
0
 10
113.62502450023921
 20
50.187804649157087
 30
0.0
 11
115.8150245002392
 21
50.187804649157087
 31
0.0
  0
LINE
  5
1DE2
  8
0
 10
116.3150245002392
 20
50.273944114156997
 30
0.0
 11
113.62502450023921
 21
50.273944114156997
 31
0.0
  0
POLYLINE
  5
1DE3
  8
0
 66
     1
 10
0.0
 20
0.0
 30
0.0
  0
VERTEX
  5
2EF8
  8
0
 10
115.8150245002392
 20
50.187804649157108
 30
0.0
  0
VERTEX
  5
2EF9
  8
0
 10
115.9015261411206
 20
50.201348305604981
 30
0.0
  0
VERTEX
  5
2EFA
  8
0
 10
116.0706807557771
 20
50.228099567708561
 30
0.0
  0
VERTEX
  5
2EFB
  8
0
 10
116.2348083587295
 20
50.254419239720932
 30
0.0
  0
VERTEX
  5
2EFC
  8
0
 10
116.3150245002392
 20
50.267423259619918
 30
0.0
  0
SEQEND
  5
2EFD
  8
0
  0
LINE
  5
1DE4
  8
0
 10
113.62502450023921
 20
50.962346173559453
 30
0.0
 11
115.8150245002392
 21
50.962346173559453
 31
0.0
  0
LINE
  5
1DE5
  8
0
 10
116.3150245002392
 20
50.971534349650412
 30
0.0
 11
113.62502450023921
 21
50.971534349650412
 31
0.0
  0
POLYLINE
  5
1DE6
  8
0
 66
     1
 10
0.0
 20
0.0
 30
0.0
  0
VERTEX
  5
2EFE
  8
0
 10
115.8150245002392
 20
50.962346173559482
 30
0.0
  0
VERTEX
  5
2EFF
  8
0
 10
115.9015261411206
 20
50.963790824978652
 30
0.0
  0
VERTEX
  5
2F00
  8
0
 10
116.070680755777
 20
50.96664428252987
 30
0.0
  0
VERTEX
  5
2F01
  8
0
 10
116.2348083587293
 20
50.969451703972588
 30
0.0
  0
VERTEX
  5
2F02
  8
0
 10
116.3150245002392
 20
50.970838794369811
 30
0.0
  0
SEQEND
  5
2F03
  8
0
  0
LINE
  5
1DE7
  8
0
 10
113.62502450023921
 20
51.814150575810046
 30
0.0
 11
115.8150245002392
 21
51.814150575810046
 31
0.0
  0
LINE
  5
1DE8
  8
0
 10
116.3150245002392
 20
51.74628679541204
 30
0.0
 11
113.62502450023921
 21
51.74628679541204
 31
0.0
  0
POLYLINE
  5
1DE9
  8
0
 66
     1
 10
0.0
 20
0.0
 30
0.0
  0
VERTEX
  5
2F04
  8
0
 10
115.8150245002392
 20
51.814150575810046
 30
0.0
  0
VERTEX
  5
2F05
  8
0
 10
115.9015261411206
 20
51.803480394297267
 30
0.0
  0
VERTEX
  5
2F06
  8
0
 10
116.070680755777
 20
51.782404784218087
 30
0.0
  0
VERTEX
  5
2F07
  8
0
 10
116.2348083587293
 20
51.761669196394351
 30
0.0
  0
VERTEX
  5
2F08
  8
0
 10
116.3150245002392
 20
51.751424160037132
 30
0.0
  0
SEQEND
  5
2F09
  8
0
  0
LINE
  5
1DEA
  8
0
 10
113.62502450023921
 20
52.733885308626249
 30
0.0
 11
115.8150245002392
 21
52.733885308626249
 31
0.0
  0
LINE
  5
1DEB
  8
0
 10
116.3150245002392
 20
52.589713101518768
 30
0.0
 11
113.62502450023921
 21
52.589713101518768
 31
0.0
  0
POLYLINE
  5
1DEC
  8
0
 66
     1
 10
0.0
 20
0.0
 30
0.0
  0
VERTEX
  5
2F0A
  8
0
 10
115.8150245002392
 20
52.733885308626249
 30
0.0
  0
VERTEX
  5
2F0B
  8
0
 10
115.9015261411207
 20
52.71121719892303
 30
0.0
  0
VERTEX
  5
2F0C
  8
0
 10
116.070680755777
 20
52.666443430007831
 30
0.0
  0
VERTEX
  5
2F0D
  8
0
 10
116.2348083587294
 20
52.62239201635704
 30
0.0
  0
VERTEX
  5
2F0E
  8
0
 10
116.3150245002392
 20
52.600627100007628
 30
0.0
  0
SEQEND
  5
2F0F
  8
0
  0
LINE
  5
1DED
  8
0
 10
113.62502450023921
 20
53.711473565808483
 30
0.0
 11
115.8150245002392
 21
53.711473565808483
 31
0.0
  0
LINE
  5
1DEE
  8
0
 10
116.3150245002392
 20
53.492572512862573
 30
0.0
 11
113.62502450023921
 21
53.492572512862573
 31
0.0
  0
POLYLINE
  5
1DEF
  8
0
 66
     1
 10
0.0
 20
0.0
 30
0.0
  0
VERTEX
  5
2F10
  8
0
 10
115.8150245002392
 20
53.711473565808483
 30
0.0
  0
VERTEX
  5
2F11
  8
0
 10
115.9015261411207
 20
53.677055884468352
 30
0.0
  0
VERTEX
  5
2F12
  8
0
 10
116.070680755777
 20
53.609074507498903
 30
0.0
  0
VERTEX
  5
2F13
  8
0
 10
116.2348083587293
 20
53.542189904527362
 30
0.0
  0
VERTEX
  5
2F14
  8
0
 10
116.3150245002392
 20
53.509143569163832
 30
0.0
  0
SEQEND
  5
2F15
  8
0
  0
LINE
  5
1DF0
  8
0
 10
113.62502450023921
 20
54.736204685837592
 30
0.0
 11
115.8150245002392
 21
54.736204685837592
 31
0.0
  0
LINE
  5
1DF1
  8
0
 10
116.3150245002392
 20
54.444973112797229
 30
0.0
 11
113.62502450023921
 21
54.444973112797229
 31
0.0
  0
POLYLINE
  5
1DF2
  8
0
 66
     1
 10
0.0
 20
0.0
 30
0.0
  0
VERTEX
  5
2F16
  8
0
 10
115.8150245002392
 20
54.736204685837571
 30
0.0
  0
VERTEX
  5
2F17
  8
0
 10
115.9015261411206
 20
54.69041452017963
 30
0.0
  0
VERTEX
  5
2F18
  8
0
 10
116.070680755777
 20
54.599970353347977
 30
0.0
  0
VERTEX
  5
2F19
  8
0
 10
116.2348083587294
 20
54.510985362762369
 30
0.0
  0
VERTEX
  5
2F1A
  8
0
 10
116.3150245002392
 20
54.467019670950421
 30
0.0
  0
SEQEND
  5
2F1B
  8
0
  0
LINE
  5
1DF3
  8
0
 10
113.62502450023921
 20
55.79685150012368
 30
0.0
 11
115.8150245002392
 21
55.79685150012368
 31
0.0
  0
LINE
  5
1DF4
  8
0
 10
116.3150245002392
 20
55.436480201047331
 30
0.0
 11
113.62502450023921
 21
55.436480201047331
 31
0.0
  0
POLYLINE
  5
1DF5
  8
0
 66
     1
 10
0.0
 20
0.0
 30
0.0
  0
VERTEX
  5
2F1C
  8
0
 10
115.8150245002392
 20
55.79685150012368
 30
0.0
  0
VERTEX
  5
2F1D
  8
0
 10
115.9015261411206
 20
55.740190536785121
 30
0.0
  0
VERTEX
  5
2F1E
  8
0
 10
116.070680755777
 20
55.628274505309761
 30
0.0
  0
VERTEX
  5
2F1F
  8
0
 10
116.2348083587294
 20
55.518164065288197
 30
0.0
  0
VERTEX
  5
2F20
  8
0
 10
116.3150245002392
 20
55.463760714347728
 30
0.0
  0
SEQEND
  5
2F21
  8
0
  0
LINE
  5
1DF6
  8
0
 10
113.62502450023921
 20
56.881793340214912
 30
0.0
 11
115.8150245002392
 21
56.881793340214912
 31
0.0
  0
LINE
  5
1DF7
  8
0
 10
116.3150245002392
 20
56.456230618467757
 30
0.0
 11
113.62502450023921
 21
56.456230618467757
 31
0.0
  0
POLYLINE
  5
1DF8
  8
0
 66
     1
 10
0.0
 20
0.0
 30
0.0
  0
VERTEX
  5
2F22
  8
0
 10
115.8150245002392
 20
56.881793340214877
 30
0.0
  0
VERTEX
  5
2F23
  8
0
 10
115.9015261411206
 20
56.814882368567119
 30
0.0
  0
VERTEX
  5
2F24
  8
0
 10
116.070680755777
 20
56.682720647908823
 30
0.0
  0
VERTEX
  5
2F25
  8
0
 10
116.2348083587294
 20
56.552691151474292
 30
0.0
  0
VERTEX
  5
2F26
  8
0
 10
116.3150245002392
 20
56.488446195902817
 30
0.0
  0
SEQEND
  5
2F27
  8
0
  0
LINE
  5
1DF9
  8
0
 10
113.62502450023921
 20
57.979143356272502
 30
0.0
 11
115.8150245002392
 21
57.979143356272502
 31
0.0
  0
LINE
  5
1DFA
  8
0
 10
116.3150245002392
 20
57.493051766088719
 30
0.0
 11
113.62502450023921
 21
57.493051766088719
 31
0.0
  0
POLYLINE
  5
1DFB
  8
0
 66
     1
 10
0.0
 20
0.0
 30
0.0
  0
VERTEX
  5
2F28
  8
0
 10
115.8150245002392
 20
57.979143356272473
 30
0.0
  0
VERTEX
  5
2F29
  8
0
 10
115.9015261411205
 20
57.902715466922942
 30
0.0
  0
VERTEX
  5
2F2A
  8
0
 10
116.070680755777
 20
57.751756048549787
 30
0.0
  0
VERTEX
  5
2F2B
  8
0
 10
116.2348083587295
 20
57.603232126075611
 30
0.0
  0
VERTEX
  5
2F2C
  8
0
 10
116.3150245002392
 20
57.529849447050559
 30
0.0
  0
SEQEND
  5
2F2D
  8
0
  0
LINE
  5
1DFC
  8
0
 10
113.62502450023921
 20
59.076878751885253
 30
0.0
 11
115.8150245002392
 21
59.076878751885253
 31
0.0
  0
LINE
  5
1DFD
  8
0
 10
116.3150245002392
 20
58.535584014448133
 30
0.0
 11
113.62502450023921
 21
58.535584014448133
 31
0.0
  0
POLYLINE
  5
1DFE
  8
0
 66
     1
 10
0.0
 20
0.0
 30
0.0
  0
VERTEX
  5
2F2E
  8
0
 10
115.8150245002392
 20
59.076878751885282
 30
0.0
  0
VERTEX
  5
2F2F
  8
0
 10
115.9015261411205
 20
58.991771304783271
 30
0.0
  0
VERTEX
  5
2F30
  8
0
 10
116.07068075577691
 20
58.823668131673386
 30
0.0
  0
VERTEX
  5
2F31
  8
0
 10
116.2348083587294
 20
58.658277042334781
 30
0.0
  0
VERTEX
  5
2F32
  8
0
 10
116.3150245002392
 20
58.576560635843748
 30
0.0
  0
SEQEND
  5
2F33
  8
0
  0
LINE
  5
1DFF
  8
0
 10
113.62502450023921
 20
60.162972508343032
 30
0.0
 11
115.8150245002392
 21
60.162972508343032
 31
0.0
  0
LINE
  5
1E00
  8
0
 10
116.3150245002392
 20
59.572405162069103
 30
0.0
 11
113.62502450023921
 21
59.572405162069103
 31
0.0
  0
POLYLINE
  5
1E01
  8
0
 66
     1
 10
0.0
 20
0.0
 30
0.0
  0
VERTEX
  5
2F34
  8
0
 10
115.8150245002392
 20
60.162972508343053
 30
0.0
  0
VERTEX
  5
2F35
  8
0
 10
115.9015261411206
 20
60.070117958488737
 30
0.0
  0
VERTEX
  5
2F36
  8
0
 10
116.070680755777
 20
59.886712804184477
 30
0.0
  0
VERTEX
  5
2F37
  8
0
 10
116.2348083587294
 20
59.7062666073667
 30
0.0
  0
VERTEX
  5
2F38
  8
0
 10
116.3150245002392
 20
59.617111775459549
 30
0.0
  0
SEQEND
  5
2F39
  8
0
  0
LINE
  5
1E02
  8
0
 10
113.62502450023921
 20
61.225525155170303
 30
0.0
 11
115.8150245002392
 21
61.225525155170303
 31
0.0
  0
LINE
  5
1E03
  8
0
 10
116.3150245002392
 20
60.592155579489521
 30
0.0
 11
113.62502450023921
 21
60.592155579489521
 31
0.0
  0
POLYLINE
  5
1E04
  8
0
 66
     1
 10
0.0
 20
0.0
 30
0.0
  0
VERTEX
  5
2F3A
  8
0
 10
115.8150245002392
 20
61.225525155170303
 30
0.0
  0
VERTEX
  5
2F3B
  8
0
 10
115.9015261411206
 20
61.125940836442979
 30
0.0
  0
VERTEX
  5
2F3C
  8
0
 10
116.070680755777
 20
60.92924312619499
 30
0.0
  0
VERTEX
  5
2F3D
  8
0
 10
116.2348083587294
 20
60.735718828191153
 30
0.0
  0
VERTEX
  5
2F3E
  8
0
 10
116.3150245002392
 20
60.640102369863001
 30
0.0
  0
SEQEND
  5
2F3F
  8
0
  0
LINE
  5
1E05
  8
0
 10
113.62502450023921
 20
62.252895143215007
 30
0.0
 11
115.8150245002392
 21
62.252895143215007
 31
0.0
  0
LINE
  5
1E06
  8
0
 10
116.3150245002392
 20
61.583662667739631
 30
0.0
 11
113.62502450023921
 21
61.583662667739631
 31
0.0
  0
POLYLINE
  5
1E07
  8
0
 66
     1
 10
0.0
 20
0.0
 30
0.0
  0
VERTEX
  5
2F40
  8
0
 10
115.8150245002392
 20
62.252895143214992
 30
0.0
  0
VERTEX
  5
2F41
  8
0
 10
115.9015261411205
 20
62.147672122250192
 30
0.0
  0
VERTEX
  5
2F42
  8
0
 10
116.07068075577691
 20
61.93983691733343
 30
0.0
  0
VERTEX
  5
2F43
  8
0
 10
116.2348083587294
 20
61.735354810849842
 30
0.0
  0
VERTEX
  5
2F44
  8
0
 10
116.3150245002392
 20
61.634324320027297
 30
0.0
  0
SEQEND
  5
2F45
  8
0
  0
LINE
  5
1E08
  8
0
 10
113.62502450023921
 20
63.233826391897061
 30
0.0
 11
115.8150245002392
 21
63.233826391897061
 31
0.0
  0
LINE
  5
1E09
  8
0
 10
116.3150245002392
 20
62.536063267674287
 30
0.0
 11
113.62502450023921
 21
62.536063267674287
 31
0.0
  0
POLYLINE
  5
1E0A
  8
0
 66
     1
 10
0.0
 20
0.0
 30
0.0
  0
VERTEX
  5
2F46
  8
0
 10
115.8150245002392
 20
63.233826391897061
 30
0.0
  0
VERTEX
  5
2F47
  8
0
 10
115.9015261411206
 20
63.124117514131498
 30
0.0
  0
VERTEX
  5
2F48
  8
0
 10
116.0706807557771
 20
62.907421900543419
 30
0.0
  0
VERTEX
  5
2F49
  8
0
 10
116.2348083587295
 20
62.694222334329623
 30
0.0
  0
VERTEX
  5
2F4A
  8
0
 10
116.3150245002392
 20
62.588884722212121
 30
0.0
  0
SEQEND
  5
2F4B
  8
0
  0
LINE
  5
1E0B
  8
0
 10
113.62502450023921
 20
64.157571613182924
 30
0.0
 11
115.8150245002392
 21
64.157571613182924
 31
0.0
  0
LINE
  5
1E0C
  8
0
 10
116.3150245002392
 20
63.438922679018091
 30
0.0
 11
113.62502450023921
 21
63.438922679018091
 31
0.0
  0
POLYLINE
  5
1E0D
  8
0
 66
     1
 10
0.0
 20
0.0
 30
0.0
  0
VERTEX
  5
2F4C
  8
0
 10
115.8150245002392
 20
64.157571613182924
 30
0.0
  0
VERTEX
  5
2F4D
  8
0
 10
115.9015261411205
 20
64.044578872039779
 30
0.0
  0
VERTEX
  5
2F4E
  8
0
 10
116.070680755777
 20
63.821397012269337
 30
0.0
  0
VERTEX
  5
2F4F
  8
0
 10
116.2348083587295
 20
63.601815845387357
 30
0.0
  0
VERTEX
  5
2F50
  8
0
 10
116.3150245002392
 20
63.493325212896501
 30
0.0
  0
SEQEND
  5
2F51
  8
0
  0
LINE
  5
1E0E
  8
0
 10
113.62502450023921
 20
65.01401006112205
 30
0.0
 11
115.8150245002392
 21
65.01401006112205
 31
0.0
  0
LINE
  5
1E0F
  8
0
 10
116.3150245002392
 20
64.282348985124813
 30
0.0
 11
113.62502450023921
 21
64.282348985124813
 31
0.0
  0
POLYLINE
  5
1E10
  8
0
 66
     1
 10
0.0
 20
0.0
 30
0.0
  0
VERTEX
  5
2F52
  8
0
 10
115.8150245002392
 20
65.01401006112205
 30
0.0
  0
VERTEX
  5
2F53
  8
0
 10
115.9015261411206
 20
64.898971428718269
 30
0.0
  0
VERTEX
  5
2F54
  8
0
 10
116.070680755777
 20
64.671748549924985
 30
0.0
  0
VERTEX
  5
2F55
  8
0
 10
116.2348083587294
 20
64.448191559589731
 30
0.0
  0
VERTEX
  5
2F56
  8
0
 10
116.3150245002392
 20
64.337736552798162
 30
0.0
  0
SEQEND
  5
2F57
  8
0
  0
LINE
  5
1E11
  8
0
 10
113.62502450023921
 20
65.793758416857514
 30
0.0
 11
115.8150245002392
 21
65.793758416857514
 31
0.0
  0
LINE
  5
1E12
  8
0
 10
113.62502450023921
 20
65.057101430886391
 30
0.0
 11
113.62502450023921
 21
68.508763436886042
 31
0.0
  0
POLYLINE
  5
1E13
  8
0
 66
     1
 10
0.0
 20
0.0
 30
0.0
  0
VERTEX
  5
2F58
  8
0
 10
115.8150245002392
 20
65.793758416857514
 30
0.0
  0
VERTEX
  5
2F59
  8
0
 10
115.9015261411206
 20
65.677934280523175
 30
0.0
  0
VERTEX
  5
2F5A
  8
0
 10
116.070680755777
 20
65.449159884116511
 30
0.0
  0
VERTEX
  5
2F5B
  8
0
 10
116.2348083587294
 20
65.224076407496355
 30
0.0
  0
VERTEX
  5
2F5C
  8
0
 10
116.3150245002392
 20
65.112867194572743
 30
0.0
  0
SEQEND
  5
2F5D
  8
0
  0
LINE
  5
1E14
  8
0
 10
113.62502450023921
 20
66.488273594231131
 30
0.0
 11
115.8150245002392
 21
66.488273594231131
 31
0.0
  0
POLYLINE
  5
1E15
  8
0
 66
     1
 10
0.0
 20
0.0
 30
0.0
  0
VERTEX
  5
2F5E
  8
0
 10
115.8150245002392
 20
66.488273594231131
 30
0.0
  0
VERTEX
  5
2F5F
  8
0
 10
115.9015261411207
 20
66.372932947441669
 30
0.0
  0
VERTEX
  5
2F60
  8
0
 10
116.070680755777
 20
66.145113533582759
 30
0.0
  0
VERTEX
  5
2F61
  8
0
 10
116.2348083587294
 20
65.920969632349284
 30
0.0
  0
VERTEX
  5
2F62
  8
0
 10
116.3150245002392
 20
65.810224644702416
 30
0.0
  0
SEQEND
  5
2F63
  8
0
  0
LINE
  5
1E16
  8
0
 10
113.62502450023921
 20
67.08994633962287
 30
0.0
 11
115.8150245002392
 21
67.08994633962287
 31
0.0
  0
POLYLINE
  5
1E17
  8
0
 66
     1
 10
0.0
 20
0.0
 30
0.0
  0
VERTEX
  5
2F64
  8
0
 10
115.8150245002392
 20
67.08994633962287
 30
0.0
  0
VERTEX
  5
2F65
  8
0
 10
115.9015261411206
 20
66.976352878641251
 30
0.0
  0
VERTEX
  5
2F66
  8
0
 10
116.07068075577691
 20
66.751984484502643
 30
0.0
  0
VERTEX
  5
2F67
  8
0
 10
116.2348083587293
 20
66.531235926142742
 30
0.0
  0
VERTEX
  5
2F68
  8
0
 10
116.3150245002392
 20
66.422168509032133
 30
0.0
  0
SEQEND
  5
2F69
  8
0
  0
LINE
  5
1E18
  8
0
 10
113.62502450023921
 20
67.592184600526124
 30
0.0
 11
115.8150245002392
 21
67.592184600526124
 31
0.0
  0
POLYLINE
  5
1E19
  8
0
 66
     1
 10
0.0
 20
0.0
 30
0.0
  0
VERTEX
  5
2F6A
  8
0
 10
115.8150245002392
 20
67.592184600526139
 30
0.0
  0
VERTEX
  5
2F6B
  8
0
 10
115.9015261411205
 20
67.481582879081742
 30
0.0
  0
VERTEX
  5
2F6C
  8
0
 10
116.070680755777
 20
67.263123731741516
 30
0.0
  0
VERTEX
  5
2F6D
  8
0
 10
116.2348083587295
 20
67.048189083655274
 30
0.0
  0
VERTEX
  5
2F6E
  8
0
 10
116.3150245002392
 20
66.941994202526828
 30
0.0
  0
SEQEND
  5
2F6F
  8
0
  0
LINE
  5
1E1A
  8
0
 10
113.62502450023921
 20
67.989485749454374
 30
0.0
 11
115.8150245002392
 21
67.989485749454374
 31
0.0
  0
POLYLINE
  5
1E1B
  8
0
 66
     1
 10
0.0
 20
0.0
 30
0.0
  0
VERTEX
  5
2F70
  8
0
 10
115.8150245002392
 20
67.98948574945436
 30
0.0
  0
VERTEX
  5
2F71
  8
0
 10
115.9015261411205
 20
67.883087543152286
 30
0.0
  0
VERTEX
  5
2F72
  8
0
 10
116.070680755777
 20
67.672931126744388
 30
0.0
  0
VERTEX
  5
2F73
  8
0
 10
116.2348083587295
 20
67.466165257914142
 30
0.0
  0
VERTEX
  5
2F74
  8
0
 10
116.3150245002392
 20
67.364006406108061
 30
0.0
  0
SEQEND
  5
2F75
  8
0
  0
LINE
  5
1E1C
  8
0
 10
113.62502450023921
 20
68.277496871879279
 30
0.0
 11
115.8150245002392
 21
68.277496871879279
 31
0.0
  0
POLYLINE
  5
1E1D
  8
0
 66
     1
 10
0.0
 20
0.0
 30
0.0
  0
VERTEX
  5
2F76
  8
0
 10
115.8150245002392
 20
68.277496871879265
 30
0.0
  0
VERTEX
  5
2F77
  8
0
 10
115.9015261411206
 20
68.17646790173275
 30
0.0
  0
VERTEX
  5
2F78
  8
0
 10
116.070680755777
 20
67.976916733933521
 30
0.0
  0
VERTEX
  5
2F79
  8
0
 10
116.2348083587294
 20
67.780585014486974
 30
0.0
  0
VERTEX
  5
2F7A
  8
0
 10
116.3150245002392
 20
67.683581465761634
 30
0.0
  0
SEQEND
  5
2F7B
  8
0
  0
LINE
  5
1E1E
  8
0
 10
113.62502450023921
 20
68.45306245767334
 30
0.0
 11
115.8150245002392
 21
68.45306245767334
 31
0.0
  0
POLYLINE
  5
1E1F
  8
0
 66
     1
 10
0.0
 20
0.0
 30
0.0
  0
VERTEX
  5
2F7C
  8
0
 10
115.8150245002392
 20
68.453062457673369
 30
0.0
  0
VERTEX
  5
2F7D
  8
0
 10
115.9015261411205
 20
68.358509618221305
 30
0.0
  0
VERTEX
  5
2F7E
  8
0
 10
116.070680755777
 20
68.171750023383666
 30
0.0
  0
VERTEX
  5
2F7F
  8
0
 10
116.2348083587295
 20
67.988003504723835
 30
0.0
  0
VERTEX
  5
2F80
  8
0
 10
116.3150245002392
 20
67.897218050258601
 30
0.0
  0
SEQEND
  5
2F81
  8
0
  0
LINE
  5
1E21
  8
0
 10
115.8205027230966
 20
68.508763436886042
 30
0.0
 11
113.62502450023921
 21
68.508763436886042
 31
0.0
  0
LINE
  5
1E22
  8
0
 10
115.8150245002392
 20
68.514241699515807
 30
0.0
 11
115.8205027221131
 21
68.508763435902594
 31
0.0
  0
LINE
  5
1E23
  8
0
 10
113.62502450023921
 20
47.51437680699761
 30
0.0
 11
113.62502450023921
 21
47.568219842893967
 31
0.0
  0
LINE
  5
1E24
  8
0
 10
113.62502450023921
 20
47.51437680699761
 30
0.0
 11
113.62502450023921
 21
50.971534349650412
 31
0.0
  0
LINE
  5
1E2B
  8
0
 10
113.62502450023921
 20
50.234877363679331
 30
0.0
 11
113.62502450023921
 21
50.962346173559453
 31
0.0
  0
LINE
  5
1E2C
  8
0
 10
113.62502450023921
 20
51.014625719414809
 30
0.0
 11
113.62502450023921
 21
51.814150575810046
 31
0.0
  0
LINE
  5
1E2D
  8
0
 10
113.62502450023921
 20
51.871064167353929
 30
0.0
 11
113.62502450023921
 21
52.733885308626249
 31
0.0
  0
LINE
  5
1E2E
  8
0
 10
113.62502450023921
 20
52.794809388639791
 30
0.0
 11
113.62502450023921
 21
53.711473565808483
 31
0.0
  0
LINE
  5
1E2F
  8
0
 10
113.62502450023921
 20
53.775740637321839
 30
0.0
 11
113.62502450023921
 21
54.736204685837592
 31
0.0
  0
LINE
  5
1E30
  8
0
 10
113.62502450023921
 20
54.803110625366557
 30
0.0
 11
113.62502450023921
 21
55.79685150012368
 31
0.0
  0
LINE
  5
1E31
  8
0
 10
113.62502450023921
 20
55.865663272193828
 30
0.0
 11
113.62502450023921
 21
56.881793340214912
 31
0.0
  0
LINE
  5
1E32
  8
0
 10
113.62502450023921
 20
56.951757028651564
 30
0.0
 11
113.62502450023921
 21
57.979143356272502
 31
0.0
  0
LINE
  5
1E33
  8
0
 10
113.62502450023921
 20
58.049492424264351
 30
0.0
 11
113.62502450023921
 21
59.076878751885303
 31
0.0
  0
LINE
  5
1E34
  8
0
 10
113.62502450023921
 20
59.14684244032194
 30
0.0
 11
113.62502450023921
 21
60.162972508343032
 31
0.0
  0
LINE
  5
1E35
  8
0
 10
113.62502450023921
 20
60.23178428041318
 30
0.0
 11
113.62502450023921
 21
61.225525155170303
 31
0.0
  0
LINE
  5
1E36
  8
0
 10
113.62502450023921
 20
61.292431094699268
 30
0.0
 11
113.62502450023921
 21
62.252895143215007
 31
0.0
  0
LINE
  5
1E37
  8
0
 10
113.62502450023921
 20
62.317162214728377
 30
0.0
 11
113.62502450023921
 21
63.233826391897061
 31
0.0
  0
LINE
  5
1E38
  8
0
 10
113.62502450023921
 20
63.294750471910604
 30
0.0
 11
113.62502450023921
 21
64.157571613182924
 31
0.0
  0
LINE
  5
1E39
  8
0
 10
113.62502450023921
 20
64.214485204726813
 30
0.0
 11
113.62502450023921
 21
65.01401006112205
 31
0.0
  0
LINE
  5
1E3A
  8
0
 10
113.62502450023921
 20
65.066289606977406
 30
0.0
 11
113.62502450023921
 21
65.793758416857514
 31
0.0
  0
LINE
  5
1E3B
  8
0
 10
113.62502450023921
 20
65.840831131379716
 30
0.0
 11
113.62502450023921
 21
66.488273594231131
 31
0.0
  0
LINE
  5
1E3C
  8
0
 10
113.62502450023921
 20
66.529623738909308
 30
0.0
 11
113.62502450023921
 21
67.08994633962287
 31
0.0
  0
LINE
  5
1E3D
  8
0
 10
113.62502450023921
 20
67.125120873618783
 30
0.0
 11
113.62502450023921
 21
67.592184600526124
 31
0.0
  0
LINE
  5
1E3E
  8
0
 10
113.62502450023921
 20
67.620798144284649
 30
0.0
 11
113.62502450023921
 21
67.989485749454374
 31
0.0
  0
LINE
  5
1E3F
  8
0
 10
113.62502450023921
 20
68.011224807002279
 30
0.0
 11
113.62502450023921
 21
68.277496871879279
 31
0.0
  0
LINE
  5
1E40
  8
0
 10
113.62502450023921
 20
68.292123265552945
 30
0.0
 11
113.62502450023921
 21
68.45306245767334
 31
0.0
  0
LINE
  5
1E41
  8
0
 10
113.62502450023921
 20
68.460415937642878
 30
0.0
 11
113.62502450023921
 21
68.514241699515807
 31
0.0
  0
POLYLINE
  5
1E42
  8
0
 66
     1
 10
0.0
 20
0.0
 30
0.0
  0
VERTEX
  5
2F82
  8
0
 10
115.8205027230966
 20
68.508763436886014
 30
0.0
  0
VERTEX
  5
2F83
  8
0
 10
115.90602376664739
 20
68.422676800387094
 30
0.0
  0
VERTEX
  5
2F84
  8
0
 10
116.0732997620366
 20
68.252615863454395
 30
0.0
  0
VERTEX
  5
2F85
  8
0
 10
116.2356554735738
 20
68.085268840251274
 30
0.0
  0
VERTEX
  5
2F86
  8
0
 10
116.3150245002392
 20
68.002575512472916
 30
0.0
  0
SEQEND
  5
2F87
  8
0
  0
POLYLINE
  5
1E58
  8
0
 66
     1
 10
0.0
 20
0.0
 30
0.0
  0
VERTEX
  5
2F88
  8
0
 10
116.3150245002392
 20
51.751424160037118
 30
0.0
  0
VERTEX
  5
2F89
  8
0
 10
116.2348083587294
 20
51.761669196394351
 30
0.0
  0
VERTEX
  5
2F8A
  8
0
 10
116.070680755777
 20
51.782404784218073
 30
0.0
  0
VERTEX
  5
2F8B
  8
0
 10
115.9015261411206
 20
51.803480394297253
 30
0.0
  0
VERTEX
  5
2F8C
  8
0
 10
115.8150245002392
 20
51.814150575810046
 30
0.0
  0
SEQEND
  5
2F8D
  8
0
  0
LINE
  5
1E66
  8
0
 10
115.8150245002392
 20
47.575573322863519
 30
0.0
 11
113.62502450023921
 21
47.575573322863519
 31
0.0
  0
LINE
  5
1E68
  8
0
 10
115.8150245002392
 20
47.75113890865758
 30
0.0
 11
113.62502450023921
 21
47.75113890865758
 31
0.0
  0
LINE
  5
1E6A
  8
0
 10
115.8150245002392
 20
48.039150031082478
 30
0.0
 11
113.62502450023921
 21
48.039150031082478
 31
0.0
  0
LINE
  5
1E6C
  8
0
 10
115.8150245002392
 20
48.436451180010742
 30
0.0
 11
113.62502450023921
 21
48.436451180010742
 31
0.0
  0
LINE
  5
1E6E
  8
0
 10
115.8150245002392
 20
48.93868944091399
 30
0.0
 11
113.62502450023921
 21
48.93868944091399
 31
0.0
  0
LINE
  5
1E70
  8
0
 10
115.8150245002392
 20
49.540362186305728
 30
0.0
 11
113.62502450023921
 21
49.540362186305728
 31
0.0
  0
LINE
  5
1E72
  8
0
 10
115.8150245002392
 20
50.234877363679331
 30
0.0
 11
113.62502450023921
 21
50.234877363679331
 31
0.0
  0
LINE
  5
1E74
  8
0
 10
115.8150245002392
 20
51.014625719414809
 30
0.0
 11
113.62502450023921
 21
51.014625719414809
 31
0.0
  0
POLYLINE
  5
1E75
  8
0
 66
     1
 10
0.0
 20
0.0
 30
0.0
  0
VERTEX
  5
2F8E
  8
0
 10
116.3150245002392
 20
51.690899227738697
 30
0.0
  0
VERTEX
  5
2F8F
  8
0
 10
116.2348083587294
 20
51.58044422094715
 30
0.0
  0
VERTEX
  5
2F90
  8
0
 10
116.07068075577691
 20
51.356887230611783
 30
0.0
  0
VERTEX
  5
2F91
  8
0
 10
115.9015261411205
 20
51.129664351818448
 30
0.0
  0
VERTEX
  5
2F92
  8
0
 10
115.8150245002392
 20
51.014625719414809
 30
0.0
  0
SEQEND
  5
2F93
  8
0
  0
LINE
  5
1E76
  8
0
 10
115.8150245002392
 20
51.871064167353929
 30
0.0
 11
113.62502450023921
 21
51.871064167353929
 31
0.0
  0
LINE
  5
1E78
  8
0
 10
115.8150245002392
 20
52.794809388639791
 30
0.0
 11
113.62502450023921
 21
52.794809388639791
 31
0.0
  0
LINE
  5
1E7A
  8
0
 10
115.8150245002392
 20
53.775740637321839
 30
0.0
 11
113.62502450023921
 21
53.775740637321839
 31
0.0
  0
LINE
  5
1E7C
  8
0
 10
115.8150245002392
 20
54.803110625366557
 30
0.0
 11
113.62502450023921
 21
54.803110625366557
 31
0.0
  0
LINE
  5
1E7E
  8
0
 10
115.8150245002392
 20
55.865663272193828
 30
0.0
 11
113.62502450023921
 21
55.865663272193828
 31
0.0
  0
LINE
  5
1E80
  8
0
 10
115.8150245002392
 20
56.951757028651564
 30
0.0
 11
113.62502450023921
 21
56.951757028651564
 31
0.0
  0
LINE
  5
1E82
  8
0
 10
115.8150245002392
 20
58.049492424264351
 30
0.0
 11
113.62502450023921
 21
58.049492424264351
 31
0.0
  0
LINE
  5
1E84
  8
0
 10
115.8150245002392
 20
59.14684244032194
 30
0.0
 11
113.62502450023921
 21
59.14684244032194
 31
0.0
  0
LINE
  5
1E86
  8
0
 10
115.8150245002392
 20
60.23178428041318
 30
0.0
 11
113.62502450023921
 21
60.23178428041318
 31
0.0
  0
LINE
  5
1E88
  8
0
 10
115.8150245002392
 20
61.292431094699268
 30
0.0
 11
113.62502450023921
 21
61.292431094699268
 31
0.0
  0
LINE
  5
1E8A
  8
0
 10
115.8150245002392
 20
62.317162214728377
 30
0.0
 11
113.62502450023921
 21
62.317162214728377
 31
0.0
  0
LINE
  5
1E8C
  8
0
 10
115.8150245002392
 20
63.294750471910604
 30
0.0
 11
113.62502450023921
 21
63.294750471910604
 31
0.0
  0
LINE
  5
1E8E
  8
0
 10
115.8150245002392
 20
64.214485204726813
 30
0.0
 11
113.62502450023921
 21
64.214485204726813
 31
0.0
  0
LINE
  5
1E90
  8
0
 10
115.8150245002392
 20
65.066289606977406
 30
0.0
 11
113.62502450023921
 21
65.066289606977406
 31
0.0
  0
LINE
  5
1E92
  8
0
 10
115.8150245002392
 20
65.840831131379716
 30
0.0
 11
113.62502450023921
 21
65.840831131379716
 31
0.0
  0
LINE
  5
1E94
  8
0
 10
115.8150245002392
 20
66.529623738909308
 30
0.0
 11
113.62502450023921
 21
66.529623738909308
 31
0.0
  0
LINE
  5
1E96
  8
0
 10
115.8150245002392
 20
67.125120873618783
 30
0.0
 11
113.62502450023921
 21
67.125120873618783
 31
0.0
  0
LINE
  5
1E98
  8
0
 10
115.8150245002392
 20
67.620798144284649
 30
0.0
 11
113.62502450023921
 21
67.620798144284649
 31
0.0
  0
LINE
  5
1E9A
  8
0
 10
115.8150245002392
 20
68.011224807002279
 30
0.0
 11
113.62502450023921
 21
68.011224807002279
 31
0.0
  0
LINE
  5
1E9C
  8
0
 10
115.8150245002392
 20
68.292123265552945
 30
0.0
 11
113.62502450023921
 21
68.292123265552945
 31
0.0
  0
LINE
  5
1E9E
  8
0
 10
115.8150245002392
 20
68.460415937642878
 30
0.0
 11
113.62502450023921
 21
68.460415937642878
 31
0.0
  0
LINE
  5
1EA0
  8
0
 10
111.1737652836954
 20
68.51431789026843
 30
0.0
 11
111.1737652836954
 21
47.51431789026843
 31
0.0
  0
LINE
  5
1EA1
  8
0
 10
115.8150245002392
 20
47.568219842893967
 30
0.0
 11
115.8150245002392
 21
47.575573322863519
 31
0.0
  0
LINE
  5
1EA2
  8
0
 10
115.8150245002392
 20
47.736512514983907
 30
0.0
 11
115.8150245002392
 21
47.75113890865758
 31
0.0
  0
LINE
  5
1EA3
  8
0
 10
115.8150245002392
 20
48.017410973534531
 30
0.0
 11
115.8150245002392
 21
48.039150031082478
 31
0.0
  0
LINE
  5
1EA4
  8
0
 10
115.8150245002392
 20
48.407837636252211
 30
0.0
 11
115.8150245002392
 21
48.436451180010742
 31
0.0
  0
LINE
  5
1EA5
  8
0
 10
115.8150245002392
 20
48.903514906918062
 30
0.0
 11
115.8150245002392
 21
48.93868944091399
 31
0.0
  0
LINE
  5
1EA6
  8
0
 10
115.8150245002392
 20
49.499012041627552
 30
0.0
 11
115.8150245002392
 21
49.540362186305728
 31
0.0
  0
LINE
  5
1EA7
  8
0
 10
115.8150245002392
 20
50.187804649157087
 30
0.0
 11
115.8150245002392
 21
50.234877363679331
 31
0.0
  0
LINE
  5
1EA8
  8
0
 10
115.8150245002392
 20
50.962346173559453
 30
0.0
 11
115.8150245002392
 21
51.014625719414809
 31
0.0
  0
LINE
  5
1EA9
  8
0
 10
115.8150245002392
 20
51.814150575810046
 30
0.0
 11
115.8150245002392
 21
51.871064167353929
 31
0.0
  0
LINE
  5
1EAA
  8
0
 10
115.8150245002392
 20
52.733885308626249
 30
0.0
 11
115.8150245002392
 21
52.794809388639791
 31
0.0
  0
LINE
  5
1EAB
  8
0
 10
115.8150245002392
 20
53.711473565808483
 30
0.0
 11
115.8150245002392
 21
53.775740637321839
 31
0.0
  0
LINE
  5
1EAC
  8
0
 10
115.8150245002392
 20
54.736204685837592
 30
0.0
 11
115.8150245002392
 21
54.803110625366557
 31
0.0
  0
LINE
  5
1EAD
  8
0
 10
115.8150245002392
 20
55.79685150012368
 30
0.0
 11
115.8150245002392
 21
55.865663272193828
 31
0.0
  0
LINE
  5
1EAE
  8
0
 10
115.8150245002392
 20
56.881793340214912
 30
0.0
 11
115.8150245002392
 21
56.951757028651613
 31
0.0
  0
LINE
  5
1EAF
  8
0
 10
115.8150245002392
 20
57.979143356272502
 30
0.0
 11
115.8150245002392
 21
58.049492424264351
 31
0.0
  0
LINE
  5
1EB0
  8
0
 10
115.8150245002392
 20
59.076878751885253
 30
0.0
 11
115.8150245002392
 21
59.14684244032194
 31
0.0
  0
LINE
  5
1EB1
  8
0
 10
115.8150245002392
 20
60.162972508343032
 30
0.0
 11
115.8150245002392
 21
60.23178428041318
 31
0.0
  0
LINE
  5
1EB2
  8
0
 10
115.8150245002392
 20
61.225525155170303
 30
0.0
 11
115.8150245002392
 21
61.292431094699268
 31
0.0
  0
LINE
  5
1EB3
  8
0
 10
115.8150245002392
 20
62.252895143215007
 30
0.0
 11
115.8150245002392
 21
62.317162214728377
 31
0.0
  0
LINE
  5
1EB4
  8
0
 10
115.8150245002392
 20
63.233826391897061
 30
0.0
 11
115.8150245002392
 21
63.294750471910604
 31
0.0
  0
LINE
  5
1EB5
  8
0
 10
115.8150245002392
 20
64.157571613182924
 30
0.0
 11
115.8150245002392
 21
64.214485204726813
 31
0.0
  0
LINE
  5
1EB6
  8
0
 10
115.8150245002392
 20
65.01401006112205
 30
0.0
 11
115.8150245002392
 21
65.066289606977406
 31
0.0
  0
LINE
  5
1EB7
  8
0
 10
115.8150245002392
 20
65.793758416857514
 30
0.0
 11
115.8150245002392
 21
65.840831131379716
 31
0.0
  0
LINE
  5
1EB8
  8
0
 10
115.8150245002392
 20
66.488273594231131
 30
0.0
 11
115.8150245002392
 21
66.529623738909308
 31
0.0
  0
LINE
  5
1EB9
  8
0
 10
115.8150245002392
 20
67.08994633962287
 30
0.0
 11
115.8150245002392
 21
67.125120873618783
 31
0.0
  0
LINE
  5
1EBA
  8
0
 10
115.8150245002392
 20
67.592184600526124
 30
0.0
 11
115.8150245002392
 21
67.620798144284649
 31
0.0
  0
LINE
  5
1EBB
  8
0
 10
115.8150245002392
 20
67.989485749454374
 30
0.0
 11
115.8150245002392
 21
68.011224807002279
 31
0.0
  0
LINE
  5
1EBC
  8
0
 10
115.8150245002392
 20
68.277496871879279
 30
0.0
 11
115.8150245002392
 21
68.292123265552945
 31
0.0
  0
LINE
  5
1EBD
  8
0
 10
115.8150245002392
 20
68.45306245767334
 30
0.0
 11
115.8150245002392
 21
68.460415937642878
 31
0.0
  0
LINE
  5
1EBE
  8
0
 10
116.3150245002392
 20
68.014317890268416
 30
0.0
 11
116.3150245002392
 21
48.014317890268423
 31
0.0
  0
LINE
  5
1EBF
  8
0
 10
109.41281652750639
 20
67.087224685696683
 30
0.0
 11
109.41281652750639
 21
48.94141109484017
 31
0.0
  0
LINE
  5
1EC0
  8
0
 10
108.9661284866056
 20
64.977864492554303
 30
0.0
 11
108.9661284866056
 21
51.050771287982563
 31
0.0
  0
LINE
  5
1EC1
  8
0
 10
108.08565410851109
 20
64.264317890268416
 30
0.0
 11
108.08565410851109
 21
51.764317890268423
 31
0.0
  0
LINE
  5
1EC2
  8
0
 10
98.515024500239235
 20
64.264317890268416
 30
0.0
 11
98.515024500239235
 21
51.764317890268423
 31
0.0
  0
LINE
  5
1EC5
  8
0
 10
76.315024500239247
 20
60.514317890268423
 30
0.0
 11
73.065024500239247
 21
60.514317890268423
 31
0.0
  0
LINE
  5
1EC8
  8
0
 10
73.065024500239247
 20
55.514317890268423
 30
0.0
 11
76.315024500239247
 21
55.514317890268423
 31
0.0
  0
ARC
  5
1EC9
  8
0
 10
74.940024500239247
 20
58.014317890268437
 30
0.0
 40
3.6250000000000031
 50
139.35219968656639
 51
220.64780031343361
  0
LINE
  5
1ECA
  8
0
 10
73.065024500239247
 20
60.514317890268423
 30
0.0
 11
72.18963506558589
 21
60.375669824594851
 31
0.0
  0
LINE
  5
1ECB
  8
0
 10
72.18963506558589
 20
55.652965955942008
 30
0.0
 11
73.065024500239247
 21
55.514317890268423
 31
0.0
  0
LINE
  5
1ECC
  8
0
 10
111.1737652836954
 20
47.51431789026843
 30
0.0
 11
115.8150245002392
 21
47.51431789026843
 31
0.0
  0
LINE
  5
1ECD
  8
0
 10
115.8150245002392
 20
68.51431789026843
 30
0.0
 11
111.1737652836954
 21
68.51431789026843
 31
0.0
  0
LINE
  5
1ECE
  8
0
 10
115.8150245002392
 20
47.51431789026843
 30
0.0
 11
116.3150245002392
 21
48.014317890268423
 31
0.0
  0
ARC
  5
1ECF
  8
2
 10
135.01502450023921
 20
58.014317890268423
 30
0.0
 40
20.500000000000011
 50
155.81048584597511
 51
204.18951415402401
  0
LINE
  5
1ED0
  8
0
 10
116.3150245002392
 20
68.014317890268416
 30
0.0
 11
115.8150245002392
 21
68.51431789026843
 31
0.0
  0
ARC
  5
1ED1
  8
0
 10
111.1737652836954
 20
66.714317890268418
 30
0.0
 40
1.800000000000004
 50
89.999999999999986
 51
168.04341575685021
  0
ARC
  5
1ED2
  8
0
 10
111.1737652836954
 20
49.314317890268441
 30
0.0
 40
1.800000000000004
 50
191.95658424314891
 51
270.0
  0
LINE
  5
1ED3
  8
0
 10
108.9661284866056
 20
51.050771287982563
 30
0.0
 11
109.41281652750639
 21
48.94141109484017
 31
0.0
  0
LINE
  5
1ED4
  8
0
 10
109.41281652750639
 20
67.087224685696683
 30
0.0
 11
108.9661284866056
 21
64.977864492554303
 31
0.0
  0
ARC
  5
1ED5
  8
0
 10
108.08565410851109
 20
65.164317890268407
 30
0.0
 40
0.9000000000000021
 50
270.0
 51
348.043415756851
  0
ARC
  5
1ED6
  8
0
 10
108.08565410851109
 20
50.864317890268453
 30
0.0
 40
0.9000000000000035
 50
11.956584243148971
 51
89.999999999999986
  0
LINE
  5
1ED7
  8
0
 10
98.515024500239235
 20
51.764317890268423
 30
0.0
 11
108.08565410851109
 21
51.764317890268423
 31
0.0
  0
LINE
  5
1ED8
  8
0
 10
108.08565410851109
 20
64.264317890268416
 30
0.0
 11
98.515024500239235
 21
64.264317890268416
 31
0.0
  0
LINE
  5
1ED9
  8
0
 10
98.315024500239261
 20
53.88931789026843
 30
0.0
 11
98.515024500239235
 21
53.88931789026843
 31
0.0
  0
LINE
  5
1EDA
  8
0
 10
98.515024500239235
 20
62.13931789026843
 30
0.0
 11
98.315024500239261
 21
62.13931789026843
 31
0.0
  0
LINE
  5
1EDD
  8
3
 10
76.315024500239247
 20
62.400817890268442
 30
0.0
 11
93.315024500239261
 21
62.400817890268442
 31
0.0
  0
LINE
  5
1EE0
  8
3
 10
76.315024500239247
 20
53.627817890268418
 30
0.0
 11
93.315024500239261
 21
53.627817890268418
 31
0.0
  0
LINE
  5
1EE2
  8
0
 10
98.066313194274926
 20
54.550216275130637
 30
0.0
 11
93.315024500239261
 21
54.550216275130637
 31
0.0
  0
POLYLINE
  5
1EE3
  8
0
 66
     1
 10
0.0
 20
0.0
 30
0.0
  0
VERTEX
  5
2F94
  8
0
 10
98.315024500239261
 20
58.014317890268423
 30
0.0
  0
VERTEX
  5
2F95
  8
0
 10
98.308187529506711
 20
57.460384565755419
 30
0.0
  0
VERTEX
  5
2F96
  8
0
 10
98.254002514394017
 20
56.345572844183053
 30
0.0
  0
VERTEX
  5
2F97
  8
0
 10
98.144108209311895
 20
55.175075856972732
 30
0.0
  0
VERTEX
  5
2F98
  8
0
 10
98.066313194274954
 20
54.55021627513068
 30
0.0
  0
SEQEND
  5
2F99
  8
0
  0
POLYLINE
  5
1EE4
  8
0
 66
     1
 10
0.0
 20
0.0
 30
0.0
  0
VERTEX
  5
2F9A
  8
0
 10
98.066313194274954
 20
61.478419505406201
 30
0.0
  0
VERTEX
  5
2F9B
  8
0
 10
98.144108209311895
 20
60.853559923564127
 30
0.0
  0
VERTEX
  5
2F9C
  8
0
 10
98.254002514394017
 20
59.683062936353807
 30
0.0
  0
VERTEX
  5
2F9D
  8
0
 10
98.308187529506711
 20
58.568251214781441
 30
0.0
  0
VERTEX
  5
2F9E
  8
0
 10
98.315024500239261
 20
58.014317890268423
 30
0.0
  0
SEQEND
  5
2F9F
  8
0
  0
LINE
  5
1EE5
  8
0
 10
98.066313194274926
 20
61.478419505406222
 30
0.0
 11
93.315024500239261
 21
61.478419505406222
 31
0.0
  0
LINE
  5
1EE8
  8
0
 10
98.066313194274926
 20
64.942521120543901
 30
0.0
 11
93.315024500239247
 21
64.942521120543901
 31
0.0
  0
POLYLINE
  5
1EE9
  8
0
 66
     1
 10
0.0
 20
0.0
 30
0.0
  0
VERTEX
  5
2FA0
  8
0
 10
98.315024500239261
 20
63.210470312975062
 30
0.0
  0
VERTEX
  5
2FA1
  8
0
 10
98.308187529506711
 20
63.487436975231581
 30
0.0
  0
VERTEX
  5
2FA2
  8
0
 10
98.254002514394017
 20
64.04484283601775
 30
0.0
  0
VERTEX
  5
2FA3
  8
0
 10
98.144108209311895
 20
64.630091329622914
 30
0.0
  0
VERTEX
  5
2FA4
  8
0
 10
98.066313194274954
 20
64.94252112054393
 30
0.0
  0
SEQEND
  5
2FA5
  8
0
  0
POLYLINE
  5
1EEA
  8
0
 66
     1
 10
0.0
 20
0.0
 30
0.0
  0
VERTEX
  5
2FA6
  8
0
 10
98.066313194274954
 20
61.47841950540618
 30
0.0
  0
VERTEX
  5
2FA7
  8
0
 10
98.144108209311895
 20
61.79084929632721
 30
0.0
  0
VERTEX
  5
2FA8
  8
0
 10
98.254002514394017
 20
62.376097789932373
 30
0.0
  0
VERTEX
  5
2FA9
  8
0
 10
98.308187529506711
 20
62.933503650718549
 30
0.0
  0
VERTEX
  5
2FAA
  8
0
 10
98.315024500239261
 20
63.210470312975062
 30
0.0
  0
SEQEND
  5
2FAB
  8
0
  0
POLYLINE
  5
1EF6
  8
0
 66
     1
 10
0.0
 20
0.0
 30
0.0
  0
VERTEX
  5
2FAC
  8
0
 10
98.315024500239261
 20
52.818165467561791
 30
0.0
  0
VERTEX
  5
2FAD
  8
0
 10
98.308187529506711
 20
53.09513212981831
 30
0.0
  0
VERTEX
  5
2FAE
  8
0
 10
98.254002514394017
 20
53.652537990604472
 30
0.0
  0
VERTEX
  5
2FAF
  8
0
 10
98.144108209311895
 20
54.23778648420965
 30
0.0
  0
VERTEX
  5
2FB0
  8
0
 10
98.066313194274954
 20
54.550216275130659
 30
0.0
  0
SEQEND
  5
2FB1
  8
0
  0
POLYLINE
  5
1EF7
  8
0
 66
     1
 10
0.0
 20
0.0
 30
0.0
  0
VERTEX
  5
2FB2
  8
0
 10
98.066313194274954
 20
51.08611465999293
 30
0.0
  0
VERTEX
  5
2FB3
  8
0
 10
98.144108209311895
 20
51.398544450913938
 30
0.0
  0
VERTEX
  5
2FB4
  8
0
 10
98.254002514394017
 20
51.983792944519102
 30
0.0
  0
VERTEX
  5
2FB5
  8
0
 10
98.308187529506711
 20
52.541198805305278
 30
0.0
  0
VERTEX
  5
2FB6
  8
0
 10
98.315024500239261
 20
52.818165467561791
 30
0.0
  0
SEQEND
  5
2FB7
  8
0
  0
LINE
  5
1EF8
  8
0
 10
98.066313194274926
 20
51.086114659992951
 30
0.0
 11
93.315024500239247
 21
51.086114659992958
 31
0.0
  0
LINE
  5
1EFD
  8
0
 10
93.315024500239247
 20
51.086114659992973
 30
0.0
 11
93.315024500239247
 21
64.942521120543901
 31
0.0
  0
LINE
  5
1EFE
  8
0
 10
98.315024500239261
 20
52.01431789026843
 30
0.0
 11
98.315024500239261
 21
64.01431789026843
 31
0.0
  0
LINE
  5
1EFF
  8
0
 10
76.928524500239234
 20
53.014317890268423
 30
0.0
 11
76.928524500239234
 21
63.014317890268423
 31
0.0
  0
LINE
  5
1F00
  8
0
 10
76.315024500239247
 20
53.627817890268418
 30
0.0
 11
76.315024500239247
 21
62.400817890268442
 31
0.0
  0
LINE
  5
1F07
  8
0
 10
98.066313194274926
 20
51.086114659992951
 30
0.0
 11
98.315024500239261
 21
52.01431789026843
 31
0.0
  0
LINE
  5
1F08
  8
0
 10
98.315024500239261
 20
64.01431789026843
 30
0.0
 11
98.066313194274926
 21
64.942521120543901
 31
0.0
  0
LINE
  5
1F09
  8
0
 10
76.928524500239234
 20
63.014317890268423
 30
0.0
 11
76.315024500239247
 21
62.400817890268442
 31
0.0
  0
LINE
  5
1F0A
  8
0
 10
76.315024500239247
 20
53.627817890268418
 30
0.0
 11
76.928524500239234
 21
53.014317890268423
 31
0.0
  0
LINE
  5
1F0B
  8
0
 10
93.315024500239247
 20
63.014317890268423
 30
0.0
 11
76.928524500239234
 21
63.014317890268423
 31
0.0
  0
LINE
  5
1F0C
  8
0
 10
76.928524500239234
 20
53.014317890268423
 30
0.0
 11
93.315024500239247
 21
53.014317890268423
 31
0.0
  0
CIRCLE
  5
1F11
  8
0
 10
33.935461212666667
 20
58.014317890409629
 30
0.0
 40
10.49999999985805
  0
LINE
  5
1F12
  8
1
 10
20.905851381098731
 20
58.014317890268437
 30
0.0
 11
46.96507104420516
 21
58.014317890268423
 31
0.0
  0
LINE
  5
1F13
  8
1
 10
33.935461212651937
 20
71.04392772182166
 30
0.0
 11
33.935461212651937
 21
44.984708058715192
 31
0.0
  0
CIRCLE
  5
1F15
  8
0
 10
33.935461212651923
 20
58.014317890268423
 30
0.0
 40
2.3613519343264131
  0
LINE
  5
1F17
  8
0
 10
34.497703958227248
 20
67.998499534001084
 30
0.0
 11
34.456727336831648
 21
67.960668056423955
 31
0.0
  0
POLYLINE
  5
1F18
  8
0
 66
     1
 10
0.0
 20
0.0
 30
0.0
  0
VERTEX
  5
2FB8
  8
0
 10
34.998022074268761
 20
68.460415937642878
 30
0.0
  0
VERTEX
  5
2FB9
  8
0
 10
34.912914627166693
 20
68.381840877839792
 30
0.0
  0
VERTEX
  5
2FBA
  8
0
 10
34.744811454056673
 20
68.226640395038757
 30
0.0
  0
VERTEX
  5
2FBB
  8
0
 10
34.579420364718153
 20
68.073943831128375
 30
0.0
  0
VERTEX
  5
2FBC
  8
0
 10
34.497703958227248
 20
67.998499534001084
 30
0.0
  0
SEQEND
  5
2FBD
  8
0
  0
LINE
  5
1F1A
  8
0
 10
35.538255097843027
 20
67.885034772116157
 30
0.0
 11
35.493548484452617
 21
67.851693762596014
 31
0.0
  0
POLYLINE
  5
1F1B
  8
0
 66
     1
 10
0.0
 20
0.0
 30
0.0
  0
VERTEX
  5
2FBE
  8
0
 10
36.084115830726553
 20
68.292123265552917
 30
0.0
  0
VERTEX
  5
2FBF
  8
0
 10
35.991261280872102
 20
68.222874798807013
 30
0.0
  0
VERTEX
  5
2FC0
  8
0
 10
35.80785612656792
 20
68.086096086845416
 30
0.0
  0
VERTEX
  5
2FC1
  8
0
 10
35.627409929750293
 20
67.951524087095848
 30
0.0
  0
VERTEX
  5
2FC2
  8
0
 10
35.538255097843027
 20
67.885034772116157
 30
0.0
  0
SEQEND
  5
2FC3
  8
0
  0
LINE
  5
1F1D
  8
0
 10
36.56124569224648
 20
67.663424370493416
 30
0.0
 11
36.513298901873043
 21
67.634939120107546
 31
0.0
  0
POLYLINE
  5
1F1E
  8
0
 66
     1
 10
0.0
 20
0.0
 30
0.0
  0
VERTEX
  5
2FC4
  8
0
 10
37.14666847755376
 20
68.011224807002307
 30
0.0
  0
VERTEX
  5
2FC5
  8
0
 10
37.047084158826472
 20
67.95206163400654
 30
0.0
  0
VERTEX
  5
2FC6
  8
0
 10
36.850386448578377
 20
67.835203269075194
 30
0.0
  0
VERTEX
  5
2FC7
  8
0
 10
36.656862150574568
 20
67.720230232476567
 30
0.0
  0
VERTEX
  5
2FC8
  8
0
 10
36.56124569224648
 20
67.663424370493445
 30
0.0
  0
SEQEND
  5
2FC9
  8
0
  0
LINE
  5
1F20
  8
0
 10
37.555467642410747
 20
67.336096339068021
 30
0.0
 11
37.504805990123089
 21
67.312778938180585
 31
0.0
  0
POLYLINE
  5
1F21
  8
0
 66
     1
 10
0.0
 20
0.0
 30
0.0
  0
VERTEX
  5
2FCA
  8
0
 10
38.174038465598471
 20
67.620798144284663
 30
0.0
  0
VERTEX
  5
2FCB
  8
0
 10
38.068815444633572
 20
67.572368469143086
 30
0.0
  0
VERTEX
  5
2FCC
  8
0
 10
37.86098023971693
 20
67.476710775942465
 30
0.0
  0
VERTEX
  5
2FCD
  8
0
 10
37.65649813323347
 20
67.382596371143435
 30
0.0
  0
VERTEX
  5
2FCE
  8
0
 10
37.555467642410747
 20
67.336096339068021
 30
0.0
  0
SEQEND
  5
2FCF
  8
0
  0
LINE
  5
1F23
  8
0
 10
38.510028044595572
 20
66.906636952249968
 30
0.0
 11
38.457206590057808
 21
66.888742871184576
 31
0.0
  0
POLYLINE
  5
1F24
  8
0
 66
     1
 10
0.0
 20
0.0
 30
0.0
  0
VERTEX
  5
2FD0
  8
0
 10
39.154969714280533
 20
67.125120873618826
 30
0.0
  0
VERTEX
  5
2FD1
  8
0
 10
39.045260836514842
 20
67.087955301986696
 30
0.0
  0
VERTEX
  5
2FD2
  8
0
 10
38.828565222926962
 20
67.014546326221151
 30
0.0
  0
VERTEX
  5
2FD3
  8
0
 10
38.615365656713323
 20
66.942321690335476
 30
0.0
  0
VERTEX
  5
2FD4
  8
0
 10
38.510028044595572
 20
66.906636952250025
 30
0.0
  0
SEQEND
  5
2FD5
  8
0
  0
LINE
  5
1F26
  8
0
 10
39.41446853527998
 20
66.379751456951553
 30
0.0
 11
39.360066001401599
 21
66.367476747004829
 31
0.0
  0
POLYLINE
  5
1F27
  8
0
 66
     1
 10
0.0
 20
0.0
 30
0.0
  0
VERTEX
  5
2FD6
  8
0
 10
40.078714935566367
 20
66.529623738909308
 30
0.0
  0
VERTEX
  5
2FD7
  8
0
 10
39.965722194423172
 20
66.504129464566958
 30
0.0
  0
VERTEX
  5
2FD8
  8
0
 10
39.742540334652752
 20
66.453773490336715
 30
0.0
  0
VERTEX
  5
2FD9
  8
0
 10
39.522959167770871
 20
66.404229931589029
 30
0.0
  0
VERTEX
  5
2FDA
  8
0
 10
39.41446853527998
 20
66.379751456951524
 30
0.0
  0
SEQEND
  5
2FDB
  8
0
  0
LINE
  5
1F29
  8
0
 10
40.258879875181663
 20
65.761212520916942
 30
0.0
 11
40.203492307508327
 21
65.754691666379856
 31
0.0
  0
POLYLINE
  5
1F2A
  8
0
 66
     1
 10
0.0
 20
0.0
 30
0.0
  0
VERTEX
  5
2FDC
  8
0
 10
40.935153383505508
 20
65.840831131379744
 30
0.0
  0
VERTEX
  5
2FDD
  8
0
 10
40.820114751101698
 20
65.827287474931879
 30
0.0
  0
VERTEX
  5
2FDE
  8
0
 10
40.592891872308371
 20
65.800536212828305
 30
0.0
  0
VERTEX
  5
2FDF
  8
0
 10
40.369334881973138
 20
65.774216540815914
 30
0.0
  0
VERTEX
  5
2FE0
  8
0
 10
40.258879875181663
 20
65.761212520916942
 30
0.0
  0
SEQEND
  5
2FE1
  8
0
  0
LINE
  5
1F2C
  8
0
 10
41.034010516956187
 20
65.057796986167062
 30
0.0
 11
40.978244753269898
 21
65.057101430886433
 31
0.0
  0
POLYLINE
  5
1F2D
  8
0
 66
     1
 10
0.0
 20
0.0
 30
0.0
  0
VERTEX
  5
2FE2
  8
0
 10
41.714901739241043
 20
65.066289606977392
 30
0.0
  0
VERTEX
  5
2FE3
  8
0
 10
41.599077602906732
 20
65.064844955558215
 30
0.0
  0
VERTEX
  5
2FE4
  8
0
 10
41.370303206499948
 20
65.061991498006989
 30
0.0
  0
VERTEX
  5
2FE5
  8
0
 10
41.145219729879777
 20
65.059184076564264
 30
0.0
  0
VERTEX
  5
2FE6
  8
0
 10
41.034010516956243
 20
65.057796986167062
 30
0.0
  0
SEQEND
  5
2FE7
  8
0
  0
LINE
  5
1F2F
  8
0
 10
41.731367967085873
 20
64.277211620499742
 30
0.0
 11
41.67583498876337
 21
64.282348985124798
 31
0.0
  0
POLYLINE
  5
1F30
  8
0
 66
     1
 10
0.0
 20
0.0
 30
0.0
  0
VERTEX
  5
2FE8
  8
0
 10
42.409416916614589
 20
64.214485204726785
 30
0.0
  0
VERTEX
  5
2FE9
  8
0
 10
42.294076269825318
 20
64.225155386239607
 30
0.0
  0
VERTEX
  5
2FEA
  8
0
 10
42.066256855966401
 20
64.246230996318758
 30
0.0
  0
VERTEX
  5
2FEB
  8
0
 10
41.842112954732777
 20
64.266966584142494
 30
0.0
  0
VERTEX
  5
2FEC
  8
0
 10
41.731367967085873
 20
64.277211620499742
 30
0.0
  0
SEQEND
  5
2FED
  8
0
  0
LINE
  5
1F32
  8
0
 10
42.343311831415633
 20
63.428008680529253
 30
0.0
 11
42.288620069388337
 21
63.43892267901807
 31
0.0
  0
POLYLINE
  5
1F33
  8
0
 66
     1
 10
0.0
 20
0.0
 30
0.0
  0
VERTEX
  5
2FEE
  8
0
 10
43.01108966200632
 20
63.294750471910618
 30
0.0
  0
VERTEX
  5
2FEF
  8
0
 10
42.897496201024687
 20
63.317418581613822
 30
0.0
  0
VERTEX
  5
2FF0
  8
0
 10
42.6731278068861
 20
63.362192350529
 30
0.0
  0
VERTEX
  5
2FF1
  8
0
 10
42.452379248526249
 20
63.406243764179813
 30
0.0
  0
VERTEX
  5
2FF2
  8
0
 10
42.343311831415633
 20
63.428008680529253
 30
0.0
  0
SEQEND
  5
2FF3
  8
0
  0
LINE
  5
1F35
  8
0
 10
42.863137524910307
 20
62.519492211373027
 30
0.0
 11
42.80988619356804
 21
62.53606326767428
 31
0.0
  0
POLYLINE
  5
1F36
  8
0
 66
     1
 10
0.0
 20
0.0
 30
0.0
  0
VERTEX
  5
2FF4
  8
0
 10
43.513327922909632
 20
62.317162214728363
 30
0.0
  0
VERTEX
  5
2FF5
  8
0
 10
43.402726201465093
 20
62.351579896068529
 30
0.0
  0
VERTEX
  5
2FF6
  8
0
 10
43.184267054124909
 20
62.419561273037999
 30
0.0
  0
VERTEX
  5
2FF7
  8
0
 10
42.969332406038802
 20
62.486445876009533
 30
0.0
  0
VERTEX
  5
2FF8
  8
0
 10
42.863137524910307
 20
62.519492211373013
 30
0.0
  0
SEQEND
  5
2FF9
  8
0
  0
LINE
  5
1F38
  8
0
 10
43.285149728491547
 20
61.561616109586417
 30
0.0
 11
43.233922260564043
 21
61.583662667739617
 31
0.0
  0
POLYLINE
  5
1F39
  8
0
 66
     1
 10
0.0
 20
0.0
 30
0.0
  0
VERTEX
  5
2FFA
  8
0
 10
43.910629071837832
 20
61.29243109469931
 30
0.0
  0
VERTEX
  5
2FFB
  8
0
 10
43.804230865535651
 20
61.338221260357187
 30
0.0
  0
VERTEX
  5
2FFC
  8
0
 10
43.594074449127838
 20
61.428665427188832
 30
0.0
  0
VERTEX
  5
2FFD
  8
0
 10
43.387308580297713
 20
61.51765041777449
 30
0.0
  0
VERTEX
  5
2FFE
  8
0
 10
43.285149728491547
 20
61.561616109586417
 30
0.0
  0
SEQEND
  5
2FFF
  8
0
  0
LINE
  5
1F3B
  8
0
 10
43.60472478814512
 20
60.56487506618916
 30
0.0
 11
43.556082442491061
 21
60.592155579489507
 31
0.0
  0
POLYLINE
  5
1F3C
  8
0
 66
     1
 10
0.0
 20
0.0
 30
0.0
  0
VERTEX
  5
3000
  8
0
 10
44.19864019426273
 20
60.231784280413187
 30
0.0
  0
VERTEX
  5
3001
  8
0
 10
44.097611224116292
 20
60.288445243751731
 30
0.0
  0
VERTEX
  5
3002
  8
0
 10
43.898060056316972
 20
60.400361275227112
 30
0.0
  0
VERTEX
  5
3003
  8
0
 10
43.70172833687036
 20
60.510471715248677
 30
0.0
  0
VERTEX
  5
3004
  8
0
 10
43.60472478814512
 20
60.564875066189131
 30
0.0
  0
SEQEND
  5
3005
  8
0
  0
LINE
  5
1F3E
  8
0
 10
43.818361372642073
 20
59.540189584634021
 30
0.0
 11
43.772837084979471
 21
59.572405162069082
 31
0.0
  0
POLYLINE
  5
1F3F
  8
0
 66
     1
 10
0.0
 20
0.0
 30
0.0
  0
VERTEX
  5
3006
  8
0
 10
44.374205780056847
 20
59.14684244032199
 30
0.0
  0
VERTEX
  5
3007
  8
0
 10
44.279652940604649
 20
59.213753411969812
 30
0.0
  0
VERTEX
  5
3008
  8
0
 10
44.092893345767088
 20
59.345915132628079
 30
0.0
  0
VERTEX
  5
3009
  8
0
 10
43.909146827107463
 20
59.47594462906256
 30
0.0
  0
VERTEX
  5
300A
  8
0
 10
43.818361372642073
 20
59.540189584634021
 30
0.0
  0
SEQEND
  5
300B
  8
0
  0
LINE
  5
1F41
  8
0
 10
43.923718834856402
 20
58.498786333486322
 30
0.0
 11
43.88181137880747
 21
58.535584014448183
 31
0.0
  0
POLYLINE
  5
1F42
  8
0
 66
     1
 10
0.0
 20
0.0
 30
0.0
  0
VERTEX
  5
300C
  8
0
 10
44.435402295922749
 20
58.0494924242644
 30
0.0
  0
VERTEX
  5
300D
  8
0
 10
44.348361527860391
 20
58.12592031361401
 30
0.0
  0
VERTEX
  5
300E
  8
0
 10
44.176439683187652
 20
58.276879731987009
 30
0.0
  0
VERTEX
  5
300F
  8
0
 10
44.007291530624627
 20
58.425403654461093
 30
0.0
  0
VERTEX
  5
3010
  8
0
 10
43.923718834856402
 20
58.498786333486287
 30
0.0
  0
SEQEND
  5
3011
  8
0
  0
LINE
  5
1F44
  8
0
 10
43.919642856384527
 20
57.452075144693111
 30
0.0
 11
43.88181137880747
 21
57.493051766088712
 31
0.0
  0
POLYLINE
  5
1F45
  8
0
 66
     1
 10
0.0
 20
0.0
 30
0.0
  0
VERTEX
  5
3012
  8
0
 10
44.381559260026329
 20
56.951757028651571
 30
0.0
  0
VERTEX
  5
3013
  8
0
 10
44.302984200223356
 20
57.036864475753561
 30
0.0
  0
VERTEX
  5
3014
  8
0
 10
44.147783717422442
 20
57.204967648863459
 30
0.0
  0
VERTEX
  5
3015
  8
0
 10
43.995087153511967
 20
57.3703587382021
 30
0.0
  0
VERTEX
  5
3016
  8
0
 10
43.919642856384527
 20
57.452075144693111
 30
0.0
  0
SEQEND
  5
3017
  8
0
  0
LINE
  5
1F47
  8
0
 10
43.806178094499671
 20
56.411524005077318
 30
0.0
 11
43.772837084979471
 21
56.456230618467742
 31
0.0
  0
POLYLINE
  5
1F48
  8
0
 66
     1
 10
0.0
 20
0.0
 30
0.0
  0
VERTEX
  5
3018
  8
0
 10
44.213266587936403
 20
55.865663272193807
 30
0.0
  0
VERTEX
  5
3019
  8
0
 10
44.14401812119052
 20
55.958517822048172
 30
0.0
  0
VERTEX
  5
301A
  8
0
 10
44.00723940922893
 20
56.14192297635239
 30
0.0
  0
VERTEX
  5
301B
  8
0
 10
43.872667409479277
 20
56.322369173170131
 30
0.0
  0
VERTEX
  5
301C
  8
0
 10
43.806178094499671
 20
56.411524005077318
 30
0.0
  0
SEQEND
  5
301D
  8
0
  0
LINE
  5
1F4A
  8
0
 10
43.584567692876931
 20
55.38853341067383
 30
0.0
 11
43.556082442491061
 21
55.436480201047317
 31
0.0
  0
POLYLINE
  5
1F4B
  8
0
 66
     1
 10
0.0
 20
0.0
 30
0.0
  0
VERTEX
  5
301E
  8
0
 10
43.932368129385793
 20
54.803110625366543
 30
0.0
  0
VERTEX
  5
301F
  8
0
 10
43.873204956389991
 20
54.902694944093888
 30
0.0
  0
VERTEX
  5
3020
  8
0
 10
43.75634659145868
 20
55.099392654341898
 30
0.0
  0
VERTEX
  5
3021
  8
0
 10
43.641373554860081
 20
55.292916952345699
 30
0.0
  0
VERTEX
  5
3022
  8
0
 10
43.584567692876931
 20
55.388533410673858
 30
0.0
  0
SEQEND
  5
3023
  8
0
  0
LINE
  5
1F4D
  8
0
 10
43.257239661451543
 20
54.394311460509563
 30
0.0
 11
43.233922260564043
 21
54.444973112797221
 31
0.0
  0
POLYLINE
  5
1F4E
  8
0
 66
     1
 10
0.0
 20
0.0
 30
0.0
  0
VERTEX
  5
3024
  8
0
 10
43.541941466668163
 20
53.775740637321888
 30
0.0
  0
VERTEX
  5
3025
  8
0
 10
43.493511791526537
 20
53.880963658286817
 30
0.0
  0
VERTEX
  5
3026
  8
0
 10
43.397854098325858
 20
54.088798863203628
 30
0.0
  0
VERTEX
  5
3027
  8
0
 10
43.303739693526843
 20
54.293280969687117
 30
0.0
  0
VERTEX
  5
3028
  8
0
 10
43.257239661451543
 20
54.394311460509563
 30
0.0
  0
SEQEND
  5
3029
  8
0
  0
LINE
  5
1F50
  8
0
 10
42.827780274633483
 20
53.439751058324731
 30
0.0
 11
42.80988619356804
 21
53.492572512862552
 31
0.0
  0
POLYLINE
  5
1F51
  8
0
 66
     1
 10
0.0
 20
0.0
 30
0.0
  0
VERTEX
  5
302A
  8
0
 10
43.046264196002312
 20
52.794809388639777
 30
0.0
  0
VERTEX
  5
302B
  8
0
 10
43.00909862437021
 20
52.904518266405397
 30
0.0
  0
VERTEX
  5
302C
  8
0
 10
42.935689648604637
 20
53.121213879993348
 30
0.0
  0
VERTEX
  5
302D
  8
0
 10
42.863465012718947
 20
53.334413446207087
 30
0.0
  0
VERTEX
  5
302E
  8
0
 10
42.827780274633483
 20
53.439751058324759
 30
0.0
  0
SEQEND
  5
302F
  8
0
  0
LINE
  5
1F53
  8
0
 10
42.30089477933501
 20
52.53531056764038
 30
0.0
 11
42.288620069388337
 21
52.589713101518747
 31
0.0
  0
POLYLINE
  5
1F54
  8
0
 66
     1
 10
0.0
 20
0.0
 30
0.0
  0
VERTEX
  5
3030
  8
0
 10
42.450767061292758
 20
51.871064167353921
 30
0.0
  0
VERTEX
  5
3031
  8
0
 10
42.425272786950423
 20
51.98405690849728
 30
0.0
  0
VERTEX
  5
3032
  8
0
 10
42.37491681272018
 20
52.207238768267608
 30
0.0
  0
VERTEX
  5
3033
  8
0
 10
42.325373253972479
 20
52.42681993514941
 30
0.0
  0
VERTEX
  5
3034
  8
0
 10
42.30089477933501
 20
52.53531056764038
 30
0.0
  0
SEQEND
  5
3035
  8
0
  0
LINE
  5
1F56
  8
0
 10
41.682355843300449
 20
51.690899227738697
 30
0.0
 11
41.67583498876337
 21
51.746286795412033
 31
0.0
  0
POLYLINE
  5
1F57
  8
0
 66
     1
 10
0.0
 20
0.0
 30
0.0
  0
VERTEX
  5
3036
  8
0
 10
41.76197445376323
 20
51.014625719414788
 30
0.0
  0
VERTEX
  5
3037
  8
0
 10
41.748430797315329
 20
51.129664351818739
 30
0.0
  0
VERTEX
  5
3038
  8
0
 10
41.721679535211813
 20
51.356887230611868
 30
0.0
  0
VERTEX
  5
3039
  8
0
 10
41.695359863199421
 20
51.580444220946987
 30
0.0
  0
VERTEX
  5
303A
  8
0
 10
41.682355843300449
 20
51.690899227738697
 30
0.0
  0
SEQEND
  5
303B
  8
0
  0
LINE
  5
1F59
  8
0
 10
40.978940308550527
 20
50.915768585964109
 30
0.0
 11
40.978244753269898
 21
50.971534349650398
 31
0.0
  0
POLYLINE
  5
1F5A
  8
0
 66
     1
 10
0.0
 20
0.0
 30
0.0
  0
VERTEX
  5
303C
  8
0
 10
40.987432929360857
 20
50.234877363679317
 30
0.0
  0
VERTEX
  5
303D
  8
0
 10
40.985988277941708
 20
50.350701500013493
 30
0.0
  0
VERTEX
  5
303E
  8
0
 10
40.983134820390482
 20
50.579475896420291
 30
0.0
  0
VERTEX
  5
303F
  8
0
 10
40.980327398947729
 20
50.804559373040597
 30
0.0
  0
VERTEX
  5
3040
  8
0
 10
40.978940308550527
 20
50.915768585964109
 30
0.0
  0
SEQEND
  5
3041
  8
0
  0
LINE
  5
1F5C
  8
0
 10
40.198354942883213
 20
50.21841113583443
 30
0.0
 11
40.203492307508263
 21
50.273944114156983
 31
0.0
  0
POLYLINE
  5
1F5D
  8
0
 66
     1
 10
0.0
 20
0.0
 30
0.0
  0
VERTEX
  5
3042
  8
0
 10
40.13562852711032
 20
49.540362186305707
 30
0.0
  0
VERTEX
  5
3043
  8
0
 10
40.146298708623071
 20
49.655702833095091
 30
0.0
  0
VERTEX
  5
3044
  8
0
 10
40.167374318702279
 20
49.883522246954101
 30
0.0
  0
VERTEX
  5
3045
  8
0
 10
40.188109906525987
 20
50.10766614818769
 30
0.0
  0
VERTEX
  5
3046
  8
0
 10
40.198354942883213
 20
50.21841113583443
 30
0.0
  0
SEQEND
  5
3047
  8
0
  0
LINE
  5
1F5F
  8
0
 10
39.349152002912717
 20
49.606467271504719
 30
0.0
 11
39.360066001401599
 21
49.661159033532023
 31
0.0
  0
POLYLINE
  5
1F60
  8
0
 66
     1
 10
0.0
 20
0.0
 30
0.0
  0
VERTEX
  5
3048
  8
0
 10
39.215893794294118
 20
48.938689440913983
 30
0.0
  0
VERTEX
  5
3049
  8
0
 10
39.238561903997322
 20
49.052282901895637
 30
0.0
  0
VERTEX
  5
304A
  8
0
 10
39.283335672912528
 20
49.276651296034323
 30
0.0
  0
VERTEX
  5
304B
  8
0
 10
39.327387086563299
 20
49.497399854394189
 30
0.0
  0
VERTEX
  5
304C
  8
0
 10
39.349152002912717
 20
49.606467271504719
 30
0.0
  0
SEQEND
  5
304D
  8
0
  0
LINE
  5
1F62
  8
0
 10
38.440635533756513
 20
49.086641578009981
 30
0.0
 11
38.457206590057808
 21
49.139892909352263
 31
0.0
  0
POLYLINE
  5
1F63
  8
0
 66
     1
 10
0.0
 20
0.0
 30
0.0
  0
VERTEX
  5
304E
  8
0
 10
38.238305537111899
 20
48.436451180010721
 30
0.0
  0
VERTEX
  5
304F
  8
0
 10
38.272723218452029
 20
48.54705290145526
 30
0.0
  0
VERTEX
  5
3050
  8
0
 10
38.340704595421471
 20
48.765512048795358
 30
0.0
  0
VERTEX
  5
3051
  8
0
 10
38.407589198392998
 20
48.980446696881472
 30
0.0
  0
VERTEX
  5
3052
  8
0
 10
38.440635533756513
 20
49.086641578010017
 30
0.0
  0
SEQEND
  5
3053
  8
0
  0
LINE
  5
1F65
  8
0
 10
37.48275943196996
 20
48.664629374428813
 30
0.0
 11
37.504805990123089
 21
48.715856842356253
 31
0.0
  0
POLYLINE
  5
1F66
  8
0
 66
     1
 10
0.0
 20
0.0
 30
0.0
  0
VERTEX
  5
3054
  8
0
 10
37.213574417082782
 20
48.039150031082499
 30
0.0
  0
VERTEX
  5
3055
  8
0
 10
37.259364582740723
 20
48.14554823738473
 30
0.0
  0
VERTEX
  5
3056
  8
0
 10
37.349808749572389
 20
48.3557046537926
 30
0.0
  0
VERTEX
  5
3057
  8
0
 10
37.438793740158019
 20
48.562470522622696
 30
0.0
  0
VERTEX
  5
3058
  8
0
 10
37.48275943196996
 20
48.664629374428813
 30
0.0
  0
SEQEND
  5
3059
  8
0
  0
LINE
  5
1F68
  8
0
 10
36.486018388572631
 20
48.345054314775183
 30
0.0
 11
36.513298901873043
 21
48.393696660429299
 31
0.0
  0
POLYLINE
  5
1F69
  8
0
 66
     1
 10
0.0
 20
0.0
 30
0.0
  0
VERTEX
  5
305A
  8
0
 10
36.152927602796701
 20
47.751138908657559
 30
0.0
  0
VERTEX
  5
305B
  8
0
 10
36.20958856613516
 20
47.852167878803947
 30
0.0
  0
VERTEX
  5
305C
  8
0
 10
36.321504597610563
 20
48.051719046603239
 30
0.0
  0
VERTEX
  5
305D
  8
0
 10
36.431615037632191
 20
48.248050766049943
 30
0.0
  0
VERTEX
  5
305E
  8
0
 10
36.486018388572631
 20
48.345054314775233
 30
0.0
  0
SEQEND
  5
305F
  8
0
  0
LINE
  5
1F6B
  8
0
 10
35.46133290701755
 20
48.131417730278223
 30
0.0
 11
35.493548484452617
 21
48.176942017940831
 31
0.0
  0
POLYLINE
  5
1F6C
  8
0
 66
     1
 10
0.0
 20
0.0
 30
0.0
  0
VERTEX
  5
3060
  8
0
 10
35.067985762705462
 20
47.575573322863477
 30
0.0
  0
VERTEX
  5
3061
  8
0
 10
35.134896734353219
 20
47.670126162315619
 30
0.0
  0
VERTEX
  5
3062
  8
0
 10
35.267058455011522
 20
47.856885757153137
 30
0.0
  0
VERTEX
  5
3063
  8
0
 10
35.397087951446053
 20
48.040632275812897
 30
0.0
  0
VERTEX
  5
3064
  8
0
 10
35.46133290701755
 20
48.131417730278223
 30
0.0
  0
SEQEND
  5
3065
  8
0
  0
LINE
  5
1F6E
  8
0
 10
34.419929655869801
 20
48.026060268063901
 30
0.0
 11
34.456727336831648
 21
48.067967724112883
 31
0.0
  0
POLYLINE
  5
1F6F
  8
0
 66
     1
 10
0.0
 20
0.0
 30
0.0
  0
VERTEX
  5
3066
  8
0
 10
33.970635746647872
 20
47.514376806997603
 30
0.0
  0
VERTEX
  5
3067
  8
0
 10
34.047063635997461
 20
47.601417575059877
 30
0.0
  0
VERTEX
  5
3068
  8
0
 10
34.198023054370417
 20
47.773339419732586
 30
0.0
  0
VERTEX
  5
3069
  8
0
 10
34.3465469768446
 20
47.942487572295668
 30
0.0
  0
VERTEX
  5
306A
  8
0
 10
34.419929655869801
 20
48.026060268063929
 30
0.0
  0
SEQEND
  5
306B
  8
0
  0
LINE
  5
1F71
  8
0
 10
33.37321846707664
 20
48.03013624653579
 30
0.0
 11
33.414195088472191
 21
48.067967724112918
 31
0.0
  0
POLYLINE
  5
1F72
  8
0
 66
     1
 10
0.0
 20
0.0
 30
0.0
  0
VERTEX
  5
306C
  8
0
 10
32.872900351035071
 20
47.568219842893988
 30
0.0
  0
VERTEX
  5
306D
  8
0
 10
32.958007798137153
 20
47.646794902697081
 30
0.0
  0
VERTEX
  5
306E
  8
0
 10
33.126110971247051
 20
47.801995385498003
 30
0.0
  0
VERTEX
  5
306F
  8
0
 10
33.291502060585628
 20
47.954691949408407
 30
0.0
  0
VERTEX
  5
3070
  8
0
 10
33.373218467076583
 20
48.03013624653579
 30
0.0
  0
SEQEND
  5
3071
  8
0
  0
LINE
  5
1F74
  8
0
 10
32.332667327460797
 20
48.143601008420717
 30
0.0
 11
32.377373940851207
 21
48.17694201794086
 31
0.0
  0
POLYLINE
  5
1F75
  8
0
 66
     1
 10
0.0
 20
0.0
 30
0.0
  0
VERTEX
  5
3072
  8
0
 10
31.786806594577289
 20
47.73651251498395
 30
0.0
  0
VERTEX
  5
3073
  8
0
 10
31.87966114443168
 20
47.805760981729797
 30
0.0
  0
VERTEX
  5
3074
  8
0
 10
32.063066298735983
 20
47.942539693691508
 30
0.0
  0
VERTEX
  5
3075
  8
0
 10
32.243512495553723
 20
48.07711169344114
 30
0.0
  0
VERTEX
  5
3076
  8
0
 10
32.332667327460797
 20
48.143601008420717
 30
0.0
  0
SEQEND
  5
3077
  8
0
  0
LINE
  5
1F77
  8
0
 10
31.309676733057358
 20
48.365211410043457
 30
0.0
 11
31.357623523430849
 21
48.393696660429327
 31
0.0
  0
POLYLINE
  5
1F78
  8
0
 66
     1
 10
0.0
 20
0.0
 30
0.0
  0
VERTEX
  5
3078
  8
0
 10
30.724253947750071
 20
48.017410973534602
 30
0.0
  0
VERTEX
  5
3079
  8
0
 10
30.82383826647731
 20
48.076574146530277
 30
0.0
  0
VERTEX
  5
307A
  8
0
 10
31.020535976725341
 20
48.193432511461651
 30
0.0
  0
VERTEX
  5
307B
  8
0
 10
31.21406027472926
 20
48.3084055480603
 30
0.0
  0
VERTEX
  5
307C
  8
0
 10
31.309676733057358
 20
48.365211410043429
 30
0.0
  0
SEQEND
  5
307D
  8
0
  0
LINE
  5
1F7A
  8
0
 10
30.315454782893081
 20
48.692539441468853
 30
0.0
 11
30.366116435180739
 21
48.715856842356338
 31
0.0
  0
POLYLINE
  5
1F7B
  8
0
 66
     1
 10
0.0
 20
0.0
 30
0.0
  0
VERTEX
  5
307E
  8
0
 10
29.69688395970536
 20
48.407837636252196
 30
0.0
  0
VERTEX
  5
307F
  8
0
 10
29.80210698067015
 20
48.456267311393752
 30
0.0
  0
VERTEX
  5
3080
  8
0
 10
30.009942185587139
 20
48.551925004594523
 30
0.0
  0
VERTEX
  5
3081
  8
0
 10
30.21442429207076
 20
48.646039409393602
 30
0.0
  0
VERTEX
  5
3082
  8
0
 10
30.315454782893031
 20
48.692539441468853
 30
0.0
  0
SEQEND
  5
3083
  8
0
  0
LINE
  5
1F7D
  8
0
 10
29.36089438070826
 20
49.121998828286912
 30
0.0
 11
29.41371583524603
 21
49.139892909352277
 31
0.0
  0
POLYLINE
  5
1F7E
  8
0
 66
     1
 10
0.0
 20
0.0
 30
0.0
  0
VERTEX
  5
3084
  8
0
 10
28.715952711023309
 20
48.903514906918048
 30
0.0
  0
VERTEX
  5
3085
  8
0
 10
28.825661588788648
 20
48.940680478550057
 30
0.0
  0
VERTEX
  5
3086
  8
0
 10
29.04235720237677
 20
49.014089454315688
 30
0.0
  0
VERTEX
  5
3087
  8
0
 10
29.25555676859074
 20
49.086314090201491
 30
0.0
  0
VERTEX
  5
3088
  8
0
 10
29.36089438070826
 20
49.12199882828687
 30
0.0
  0
SEQEND
  5
3089
  8
0
  0
LINE
  5
1F80
  8
0
 10
28.456453890023852
 20
49.648884323585321
 30
0.0
 11
28.510856423902279
 21
49.661159033532037
 31
0.0
  0
POLYLINE
  5
1F81
  8
0
 66
     1
 10
0.0
 20
0.0
 30
0.0
  0
VERTEX
  5
308A
  8
0
 10
27.79220748973745
 20
49.499012041627559
 30
0.0
  0
VERTEX
  5
308B
  8
0
 10
27.90520023088061
 20
49.52450631596988
 30
0.0
  0
VERTEX
  5
308C
  8
0
 10
28.12838209065103
 20
49.574862290200137
 30
0.0
  0
VERTEX
  5
308D
  8
0
 10
28.347963257532971
 20
49.624405848947873
 30
0.0
  0
VERTEX
  5
308E
  8
0
 10
28.456453890023852
 20
49.648884323585342
 30
0.0
  0
SEQEND
  5
308F
  8
0
  0
LINE
  5
1F83
  8
0
 10
27.612042550122169
 20
50.267423259619932
 30
0.0
 11
27.667430117795561
 21
50.273944114157018
 31
0.0
  0
POLYLINE
  5
1F84
  8
0
 66
     1
 10
0.0
 20
0.0
 30
0.0
  0
VERTEX
  5
3090
  8
0
 10
26.93576904179832
 20
50.18780464915713
 30
0.0
  0
VERTEX
  5
3091
  8
0
 10
27.05080767420213
 20
50.201348305605002
 30
0.0
  0
VERTEX
  5
3092
  8
0
 10
27.27803055299546
 20
50.228099567708561
 30
0.0
  0
VERTEX
  5
3093
  8
0
 10
27.50158754333069
 20
50.254419239720953
 30
0.0
  0
VERTEX
  5
3094
  8
0
 10
27.612042550122169
 20
50.267423259619932
 30
0.0
  0
SEQEND
  5
3095
  8
0
  0
LINE
  5
1F86
  8
0
 10
26.836911908347641
 20
50.97083879436979
 30
0.0
 11
26.89267767203393
 21
50.971534349650433
 31
0.0
  0
POLYLINE
  5
1F87
  8
0
 66
     1
 10
0.0
 20
0.0
 30
0.0
  0
VERTEX
  5
3096
  8
0
 10
26.156020686062849
 20
50.962346173559503
 30
0.0
  0
VERTEX
  5
3097
  8
0
 10
26.27184482239716
 20
50.963790824978673
 30
0.0
  0
VERTEX
  5
3098
  8
0
 10
26.500619218803759
 20
50.966644282529899
 30
0.0
  0
VERTEX
  5
3099
  8
0
 10
26.725702695423941
 20
50.969451703972588
 30
0.0
  0
VERTEX
  5
309A
  8
0
 10
26.836911908347641
 20
50.970838794369833
 30
0.0
  0
SEQEND
  5
309B
  8
0
  0
LINE
  5
1F89
  8
0
 10
26.139554458217962
 20
51.751424160037118
 30
0.0
 11
26.195087436540518
 21
51.746286795412061
 31
0.0
  0
POLYLINE
  5
1F8A
  8
0
 66
     1
 10
0.0
 20
0.0
 30
0.0
  0
VERTEX
  5
309C
  8
0
 10
25.46150550868925
 20
51.814150575810061
 30
0.0
  0
VERTEX
  5
309D
  8
0
 10
25.57684615547862
 20
51.803480394297281
 30
0.0
  0
VERTEX
  5
309E
  8
0
 10
25.804665569337491
 20
51.782404784218102
 30
0.0
  0
VERTEX
  5
309F
  8
0
 10
26.028809470571051
 20
51.761669196394358
 30
0.0
  0
VERTEX
  5
30A0
  8
0
 10
26.139554458217962
 20
51.751424160037153
 30
0.0
  0
SEQEND
  5
30A1
  8
0
  0
LINE
  5
1F8C
  8
0
 10
25.527610593888198
 20
52.600627100007607
 30
0.0
 11
25.582302355915552
 21
52.589713101518782
 31
0.0
  0
POLYLINE
  5
1F8D
  8
0
 66
     1
 10
0.0
 20
0.0
 30
0.0
  0
VERTEX
  5
30A2
  8
0
 10
24.859832763297511
 20
52.73388530862627
 30
0.0
  0
VERTEX
  5
30A3
  8
0
 10
24.973426224279201
 20
52.71121719892303
 30
0.0
  0
VERTEX
  5
30A4
  8
0
 10
25.197794618417898
 20
52.66644343000786
 30
0.0
  0
VERTEX
  5
30A5
  8
0
 10
25.418543176777689
 20
52.622392016357047
 30
0.0
  0
VERTEX
  5
30A6
  8
0
 10
25.527610593888198
 20
52.600627100007642
 30
0.0
  0
SEQEND
  5
30A7
  8
0
  0
LINE
  5
1F8F
  8
0
 10
25.007784900393521
 20
53.509143569163832
 30
0.0
 11
25.06103623173578
 21
53.49257251286258
 31
0.0
  0
POLYLINE
  5
1F90
  8
0
 66
     1
 10
0.0
 20
0.0
 30
0.0
  0
VERTEX
  5
30A8
  8
0
 10
24.357594502394189
 20
53.711473565808483
 30
0.0
  0
VERTEX
  5
30A9
  8
0
 10
24.468196223838731
 20
53.677055884468359
 30
0.0
  0
VERTEX
  5
30AA
  8
0
 10
24.686655371178801
 20
53.60907450749891
 30
0.0
  0
VERTEX
  5
30AB
  8
0
 10
24.901590019264919
 20
53.54218990452739
 30
0.0
  0
VERTEX
  5
30AC
  8
0
 10
25.007784900393521
 20
53.509143569163847
 30
0.0
  0
SEQEND
  5
30AD
  8
0
  0
LINE
  5
1F92
  8
0
 10
24.585772696812281
 20
54.467019670950442
 30
0.0
 11
24.637000164739788
 21
54.444973112797243
 31
0.0
  0
POLYLINE
  5
1F93
  8
0
 66
     1
 10
0.0
 20
0.0
 30
0.0
  0
VERTEX
  5
30AE
  8
0
 10
23.960293353466
 20
54.736204685837571
 30
0.0
  0
VERTEX
  5
30AF
  8
0
 10
24.066691559768291
 20
54.690414520179651
 30
0.0
  0
VERTEX
  5
30B0
  8
0
 10
24.27684797617605
 20
54.599970353347999
 30
0.0
  0
VERTEX
  5
30B1
  8
0
 10
24.483613845006118
 20
54.510985362762369
 30
0.0
  0
VERTEX
  5
30B2
  8
0
 10
24.585772696812281
 20
54.467019670950442
 30
0.0
  0
SEQEND
  5
30B3
  8
0
  0
LINE
  5
1F95
  8
0
 10
24.266197637158712
 20
55.46376071434775
 30
0.0
 11
24.314839982812831
 21
55.436480201047338
 31
0.0
  0
POLYLINE
  5
1F96
  8
0
 66
     1
 10
0.0
 20
0.0
 30
0.0
  0
VERTEX
  5
30B4
  8
0
 10
23.672282231041098
 20
55.796851500123701
 30
0.0
  0
VERTEX
  5
30B5
  8
0
 10
23.7733112011876
 20
55.740190536785121
 30
0.0
  0
VERTEX
  5
30B6
  8
0
 10
23.972862368986849
 20
55.628274505309783
 30
0.0
  0
VERTEX
  5
30B7
  8
0
 10
24.169194088433411
 20
55.518164065288197
 30
0.0
  0
VERTEX
  5
30B8
  8
0
 10
24.266197637158712
 20
55.46376071434775
 30
0.0
  0
SEQEND
  5
30B9
  8
0
  0
LINE
  5
1F98
  8
0
 10
24.052561052661758
 20
56.488446195902839
 30
0.0
 11
24.09808534032436
 21
56.456230618467771
 31
0.0
  0
POLYLINE
  5
1F99
  8
0
 66
     1
 10
0.0
 20
0.0
 30
0.0
  0
VERTEX
  5
30BA
  8
0
 10
23.49671664524698
 20
56.881793340214898
 30
0.0
  0
VERTEX
  5
30BB
  8
0
 10
23.591269484699129
 20
56.81488236856714
 30
0.0
  0
VERTEX
  5
30BC
  8
0
 10
23.77802907953668
 20
56.68272064790883
 30
0.0
  0
VERTEX
  5
30BD
  8
0
 10
23.961775598196422
 20
56.552691151474299
 30
0.0
  0
VERTEX
  5
30BE
  8
0
 10
24.052561052661758
 20
56.488446195902839
 30
0.0
  0
SEQEND
  5
30BF
  8
0
  0
LINE
  5
1F9B
  8
0
 10
23.94720359044743
 20
57.529849447050587
 30
0.0
 11
23.989111046496362
 21
57.493051766088684
 31
0.0
  0
POLYLINE
  5
1F9C
  8
0
 66
     1
 10
0.0
 20
0.0
 30
0.0
  0
VERTEX
  5
30C0
  8
0
 10
23.435520129381128
 20
57.979143356272488
 30
0.0
  0
VERTEX
  5
30C1
  8
0
 10
23.52256089744338
 20
57.902715466922949
 30
0.0
  0
VERTEX
  5
30C2
  8
0
 10
23.694482742116289
 20
57.751756048549787
 30
0.0
  0
VERTEX
  5
30C3
  8
0
 10
23.863630894679378
 20
57.603232126075632
 30
0.0
  0
VERTEX
  5
30C4
  8
0
 10
23.94720359044743
 20
57.529849447050587
 30
0.0
  0
SEQEND
  5
30C5
  8
0
  0
LINE
  5
1F9E
  8
0
 10
23.95127956891929
 20
58.576560635843748
 30
0.0
 11
23.989111046496362
 21
58.535584014448141
 31
0.0
  0
POLYLINE
  5
1F9F
  8
0
 66
     1
 10
0.0
 20
0.0
 30
0.0
  0
VERTEX
  5
30C6
  8
0
 10
23.489363165277489
 20
59.076878751885282
 30
0.0
  0
VERTEX
  5
30C7
  8
0
 10
23.567938225080471
 20
58.991771304783299
 30
0.0
  0
VERTEX
  5
30C8
  8
0
 10
23.72313870788145
 20
58.823668131673401
 30
0.0
  0
VERTEX
  5
30C9
  8
0
 10
23.87583527179186
 20
58.658277042334781
 30
0.0
  0
VERTEX
  5
30CA
  8
0
 10
23.95127956891929
 20
58.576560635843748
 30
0.0
  0
SEQEND
  5
30CB
  8
0
  0
LINE
  5
1FA1
  8
0
 10
24.06474433080416
 20
59.617111775459541
 30
0.0
 11
24.09808534032436
 21
59.572405162069117
 31
0.0
  0
POLYLINE
  5
1FA2
  8
0
 66
     1
 10
0.0
 20
0.0
 30
0.0
  0
VERTEX
  5
30CC
  8
0
 10
23.657655837367429
 20
60.162972508343067
 30
0.0
  0
VERTEX
  5
30CD
  8
0
 10
23.726904304113301
 20
60.070117958488758
 30
0.0
  0
VERTEX
  5
30CE
  8
0
 10
23.863683016074958
 20
59.886712804184498
 30
0.0
  0
VERTEX
  5
30CF
  8
0
 10
23.998255015824551
 20
59.706266607366729
 30
0.0
  0
VERTEX
  5
30D0
  8
0
 10
24.06474433080416
 20
59.617111775459563
 30
0.0
  0
SEQEND
  5
30D1
  8
0
  0
LINE
  5
1FA4
  8
0
 10
24.286354732426901
 20
60.64010236986303
 30
0.0
 11
24.314839982812831
 21
60.592155579489543
 31
0.0
  0
POLYLINE
  5
1FA5
  8
0
 66
     1
 10
0.0
 20
0.0
 30
0.0
  0
VERTEX
  5
30D2
  8
0
 10
23.938554295918038
 20
61.225525155170317
 30
0.0
  0
VERTEX
  5
30D3
  8
0
 10
23.99771746891383
 20
61.125940836443
 30
0.0
  0
VERTEX
  5
30D4
  8
0
 10
24.114575833845151
 20
60.92924312619499
 30
0.0
  0
VERTEX
  5
30D5
  8
0
 10
24.22954887044375
 20
60.735718828191182
 30
0.0
  0
VERTEX
  5
30D6
  8
0
 10
24.286354732426901
 20
60.64010236986303
 30
0.0
  0
SEQEND
  5
30D7
  8
0
  0
LINE
  5
1FA7
  8
0
 10
24.613682763852349
 20
61.634324320027297
 30
0.0
 11
24.637000164739788
 21
61.583662667739638
 31
0.0
  0
POLYLINE
  5
1FA8
  8
0
 66
     1
 10
0.0
 20
0.0
 30
0.0
  0
VERTEX
  5
30D8
  8
0
 10
24.328980958635668
 20
62.252895143215
 30
0.0
  0
VERTEX
  5
30D9
  8
0
 10
24.377410633777231
 20
62.147672122250192
 30
0.0
  0
VERTEX
  5
30DA
  8
0
 10
24.473068326977909
 20
61.939836917333452
 30
0.0
  0
VERTEX
  5
30DB
  8
0
 10
24.567182731776992
 20
61.735354810849863
 30
0.0
  0
VERTEX
  5
30DC
  8
0
 10
24.613682763852349
 20
61.634324320027297
 30
0.0
  0
SEQEND
  5
30DD
  8
0
  0
LINE
  5
1FAA
  8
0
 10
25.043142150670349
 20
62.588884722212129
 30
0.0
 11
25.06103623173578
 21
62.536063267674308
 31
0.0
  0
POLYLINE
  5
1FAB
  8
0
 66
     1
 10
0.0
 20
0.0
 30
0.0
  0
VERTEX
  5
30DE
  8
0
 10
24.824658229301519
 20
63.233826391897082
 30
0.0
  0
VERTEX
  5
30DF
  8
0
 10
24.861823800933621
 20
63.124117514131513
 30
0.0
  0
VERTEX
  5
30E0
  8
0
 10
24.935232776699252
 20
62.907421900543447
 30
0.0
  0
VERTEX
  5
30E1
  8
0
 10
25.00745741258498
 20
62.694222334329652
 30
0.0
  0
VERTEX
  5
30E2
  8
0
 10
25.043142150670349
 20
62.588884722212129
 30
0.0
  0
SEQEND
  5
30E3
  8
0
  0
LINE
  5
1FAD
  8
0
 10
25.570027645968821
 20
63.49332521289648
 30
0.0
 11
25.582302355915552
 21
63.438922679018113
 31
0.0
  0
POLYLINE
  5
1FAE
  8
0
 66
     1
 10
0.0
 20
0.0
 30
0.0
  0
VERTEX
  5
30E4
  8
0
 10
25.432430073957789
 20
64.103169079304536
 30
0.0
  0
VERTEX
  5
30E5
  8
0
 10
25.457924348300079
 20
63.990176338161369
 30
0.0
  0
VERTEX
  5
30E6
  8
0
 10
25.508280322530371
 20
63.766994478390949
 30
0.0
  0
VERTEX
  5
30E7
  8
0
 10
25.557823881278068
 20
63.547413311508961
 30
0.0
  0
VERTEX
  5
30E8
  8
0
 10
25.582302355915552
 20
63.438922679018113
 30
0.0
  0
SEQEND
  5
30E9
  8
0
  0
LINE
  5
1FB0
  8
0
 10
26.188566582003428
 20
64.337736552798162
 30
0.0
 11
26.195087436540518
 21
64.282348985124827
 31
0.0
  0
POLYLINE
  5
1FB1
  8
0
 66
     1
 10
0.0
 20
0.0
 30
0.0
  0
VERTEX
  5
30EA
  8
0
 10
26.108947971540601
 20
65.014010061122065
 30
0.0
  0
VERTEX
  5
30EB
  8
0
 10
26.122491627988499
 20
64.898971428718284
 30
0.0
  0
VERTEX
  5
30EC
  8
0
 10
26.149242890092069
 20
64.671748549924985
 30
0.0
  0
VERTEX
  5
30ED
  8
0
 10
26.1755625621044
 20
64.448191559589759
 30
0.0
  0
VERTEX
  5
30EE
  8
0
 10
26.188566582003428
 20
64.337736552798191
 30
0.0
  0
SEQEND
  5
30EF
  8
0
  0
LINE
  5
1FB3
  8
0
 10
26.891982116753301
 20
65.112867194572743
 30
0.0
 11
26.89267767203393
 21
65.057101430886405
 31
0.0
  0
POLYLINE
  5
1FB4
  8
0
 66
     1
 10
0.0
 20
0.0
 30
0.0
  0
VERTEX
  5
30F0
  8
0
 10
26.883489495942971
 20
65.793758416857514
 30
0.0
  0
VERTEX
  5
30F1
  8
0
 10
26.88493414736212
 20
65.677934280523175
 30
0.0
  0
VERTEX
  5
30F2
  8
0
 10
26.887787604913399
 20
65.449159884116511
 30
0.0
  0
VERTEX
  5
30F3
  8
0
 10
26.890595026356099
 20
65.224076407496369
 30
0.0
  0
VERTEX
  5
30F4
  8
0
 10
26.891982116753301
 20
65.112867194572743
 30
0.0
  0
SEQEND
  5
30F5
  8
0
  0
LINE
  5
1FB6
  8
0
 10
27.672567482420622
 20
65.810224644702416
 30
0.0
 11
27.667430117795561
 21
65.754691666379784
 31
0.0
  0
POLYLINE
  5
1FB7
  8
0
 66
     1
 10
0.0
 20
0.0
 30
0.0
  0
VERTEX
  5
30F6
  8
0
 10
27.735293898193561
 20
66.488273594231131
 30
0.0
  0
VERTEX
  5
30F7
  8
0
 10
27.72462371668075
 20
66.372932947441669
 30
0.0
  0
VERTEX
  5
30F8
  8
0
 10
27.703548106601598
 20
66.145113533582773
 30
0.0
  0
VERTEX
  5
30F9
  8
0
 10
27.68281251877784
 20
65.920969632349269
 30
0.0
  0
VERTEX
  5
30FA
  8
0
 10
27.672567482420622
 20
65.810224644702416
 30
0.0
  0
SEQEND
  5
30FB
  8
0
  0
LINE
  5
1FB9
  8
0
 10
28.521770422391111
 20
66.422168509032176
 30
0.0
 11
28.510856423902279
 21
66.367476747004829
 31
0.0
  0
POLYLINE
  5
1FBA
  8
0
 66
     1
 10
0.0
 20
0.0
 30
0.0
  0
VERTEX
  5
30FC
  8
0
 10
28.65502863100977
 20
67.08994633962287
 30
0.0
  0
VERTEX
  5
30FD
  8
0
 10
28.63236052130657
 20
66.976352878641237
 30
0.0
  0
VERTEX
  5
30FE
  8
0
 10
28.58758675239136
 20
66.751984484502643
 30
0.0
  0
VERTEX
  5
30FF
  8
0
 10
28.543535338740579
 20
66.531235926142742
 30
0.0
  0
VERTEX
  5
3100
  8
0
 10
28.521770422391111
 20
66.422168509032133
 30
0.0
  0
SEQEND
  5
3101
  8
0
  0
LINE
  5
1FBC
  8
0
 10
29.430286891547329
 20
66.941994202526857
 30
0.0
 11
29.41371583524603
 21
66.888742871184533
 31
0.0
  0
POLYLINE
  5
1FBD
  8
0
 66
     1
 10
0.0
 20
0.0
 30
0.0
  0
VERTEX
  5
3102
  8
0
 10
29.63261688819199
 20
67.592184600526124
 30
0.0
  0
VERTEX
  5
3103
  8
0
 10
29.598199206851859
 20
67.481582879081714
 30
0.0
  0
VERTEX
  5
3104
  8
0
 10
29.530217829882361
 20
67.263123731741516
 30
0.0
  0
VERTEX
  5
3105
  8
0
 10
29.463333226910841
 20
67.048189083655274
 30
0.0
  0
VERTEX
  5
3106
  8
0
 10
29.430286891547329
 20
66.941994202526828
 30
0.0
  0
SEQEND
  5
3107
  8
0
  0
LINE
  5
1FBF
  8
0
 10
30.388162993333939
 20
67.364006406108032
 30
0.0
 11
30.366116435180739
 21
67.312778938180514
 31
0.0
  0
POLYLINE
  5
1FC0
  8
0
 66
     1
 10
0.0
 20
0.0
 30
0.0
  0
VERTEX
  5
3108
  8
0
 10
30.657348008221049
 20
67.989485749454374
 30
0.0
  0
VERTEX
  5
3109
  8
0
 10
30.611557842563229
 20
67.883087543152286
 30
0.0
  0
VERTEX
  5
310A
  8
0
 10
30.521113675731499
 20
67.672931126744388
 30
0.0
  0
VERTEX
  5
310B
  8
0
 10
30.43212868514582
 20
67.466165257914142
 30
0.0
  0
VERTEX
  5
310C
  8
0
 10
30.388162993333939
 20
67.364006406108061
 30
0.0
  0
SEQEND
  5
310D
  8
0
  0
LINE
  5
1FC2
  8
0
 10
31.38490403673126
 20
67.683581465761662
 30
0.0
 11
31.357623523430849
 21
67.634939120107546
 31
0.0
  0
POLYLINE
  5
1FC3
  8
0
 66
     1
 10
0.0
 20
0.0
 30
0.0
  0
VERTEX
  5
310E
  8
0
 10
31.71799482250719
 20
68.277496871879251
 30
0.0
  0
VERTEX
  5
310F
  8
0
 10
31.661333859168622
 20
68.17646790173275
 30
0.0
  0
VERTEX
  5
3110
  8
0
 10
31.549417827693279
 20
67.976916733933521
 30
0.0
  0
VERTEX
  5
3111
  8
0
 10
31.439307387671711
 20
67.780585014486988
 30
0.0
  0
VERTEX
  5
3112
  8
0
 10
31.38490403673126
 20
67.683581465761634
 30
0.0
  0
SEQEND
  5
3113
  8
0
  0
LINE
  5
1FC5
  8
0
 10
32.409589518286339
 20
67.897218050258616
 30
0.0
 11
32.377373940851207
 21
67.851693762595957
 31
0.0
  0
POLYLINE
  5
1FC6
  8
0
 66
     1
 10
0.0
 20
0.0
 30
0.0
  0
VERTEX
  5
3114
  8
0
 10
32.80293666259837
 20
68.453062457673369
 30
0.0
  0
VERTEX
  5
3115
  8
0
 10
32.736025690950669
 20
68.358509618221305
 30
0.0
  0
VERTEX
  5
3116
  8
0
 10
32.603863970292309
 20
68.171750023383666
 30
0.0
  0
VERTEX
  5
3117
  8
0
 10
32.473834473857721
 20
67.988003504723835
 30
0.0
  0
VERTEX
  5
3118
  8
0
 10
32.409589518286339
 20
67.897218050258616
 30
0.0
  0
SEQEND
  5
3119
  8
0
  0
LINE
  5
1FC7
  8
0
 10
33.895461212651931
 20
68.514241699515807
 30
0.0
 11
33.895461212651931
 21
68.508763435902594
 31
0.0
  0
POLYLINE
  5
2005
  8
0
 66
     1
 10
0.0
 20
0.0
 30
0.0
  0
VERTEX
  5
311A
  8
0
 10
33.895461212651931
 20
68.508763436886014
 30
0.0
  0
VERTEX
  5
311B
  8
0
 10
33.819871117627599
 20
68.422676800387094
 30
0.0
  0
VERTEX
  5
311C
  8
0
 10
33.670545706559608
 20
68.252615863454395
 30
0.0
  0
VERTEX
  5
311D
  8
0
 10
33.52360330178675
 20
68.08526884025126
 30
0.0
  0
VERTEX
  5
311E
  8
0
 10
33.450992769434038
 20
68.002575512472916
 30
0.0
  0
SEQEND
  5
311F
  8
0
  0
LINE
  5
2006
  8
0
 10
33.450992769434038
 20
68.002575512472944
 30
0.0
 11
33.414195088472191
 21
67.960668056423955
 31
0.0
  0
LINE
  5
2007
  8
0
 10
33.975461212651908
 20
68.508763435902594
 30
0.0
 11
33.975461212651908
 21
68.514241699515807
 31
0.0
  0
POLYLINE
  5
2008
  8
0
 66
     1
 10
0.0
 20
0.0
 30
0.0
  0
VERTEX
  5
3120
  8
0
 10
34.419929655869801
 20
68.002575512472916
 30
0.0
  0
VERTEX
  5
3121
  8
0
 10
34.347319123517032
 20
68.085268840251317
 30
0.0
  0
VERTEX
  5
3122
  8
0
 10
34.200376718744216
 20
68.252615863454395
 30
0.0
  0
VERTEX
  5
3123
  8
0
 10
34.051051307676232
 20
68.422676800387066
 30
0.0
  0
VERTEX
  5
3124
  8
0
 10
33.975461212651908
 20
68.508763436886014
 30
0.0
  0
SEQEND
  5
3125
  8
0
  0
LINE
  5
2009
  8
0
 10
34.456727336831648
 20
67.960668056423955
 30
0.0
 11
34.419929655869801
 21
68.002575512472944
 31
0.0
  0
POLYLINE
  5
200A
  8
0
 66
     1
 10
0.0
 20
0.0
 30
0.0
  0
VERTEX
  5
3126
  8
0
 10
35.46133290701755
 20
67.897218050258616
 30
0.0
  0
VERTEX
  5
3127
  8
0
 10
35.397087951446167
 20
67.988003504723778
 30
0.0
  0
VERTEX
  5
3128
  8
0
 10
35.267058455011579
 20
68.171750023383623
 30
0.0
  0
VERTEX
  5
3129
  8
0
 10
35.134896734353163
 20
68.358509618221305
 30
0.0
  0
VERTEX
  5
312A
  8
0
 10
35.067985762705462
 20
68.453062457673369
 30
0.0
  0
SEQEND
  5
312B
  8
0
  0
LINE
  5
200B
  8
0
 10
35.493548484452617
 20
67.851693762596014
 30
0.0
 11
35.46133290701755
 21
67.897218050258616
 31
0.0
  0
POLYLINE
  5
200C
  8
0
 66
     1
 10
0.0
 20
0.0
 30
0.0
  0
VERTEX
  5
312C
  8
0
 10
36.486018388572631
 20
67.683581465761606
 30
0.0
  0
VERTEX
  5
312D
  8
0
 10
36.431615037632298
 20
67.780585014486732
 30
0.0
  0
VERTEX
  5
312E
  8
0
 10
36.321504597610563
 20
67.97691673393355
 30
0.0
  0
VERTEX
  5
312F
  8
0
 10
36.209588566135103
 20
68.176467901733005
 30
0.0
  0
VERTEX
  5
3130
  8
0
 10
36.152927602796701
 20
68.277496871879251
 30
0.0
  0
SEQEND
  5
3131
  8
0
  0
LINE
  5
200D
  8
0
 10
36.513298901873043
 20
67.634939120107546
 30
0.0
 11
36.486018388572631
 21
67.683581465761606
 31
0.0
  0
POLYLINE
  5
200E
  8
0
 66
     1
 10
0.0
 20
0.0
 30
0.0
  0
VERTEX
  5
3132
  8
0
 10
37.48275943196996
 20
67.364006406108032
 30
0.0
  0
VERTEX
  5
3133
  8
0
 10
37.43879374015814
 20
67.466165257913971
 30
0.0
  0
VERTEX
  5
3134
  8
0
 10
37.349808749572389
 20
67.672931126744217
 30
0.0
  0
VERTEX
  5
3135
  8
0
 10
37.259364582740659
 20
67.883087543152257
 30
0.0
  0
VERTEX
  5
3136
  8
0
 10
37.213574417082782
 20
67.989485749454346
 30
0.0
  0
SEQEND
  5
3137
  8
0
  0
LINE
  5
200F
  8
0
 10
37.504805990123089
 20
67.312778938180585
 30
0.0
 11
37.48275943196996
 21
67.364006406108032
 31
0.0
  0
POLYLINE
  5
2010
  8
0
 66
     1
 10
0.0
 20
0.0
 30
0.0
  0
VERTEX
  5
3138
  8
0
 10
38.440635533756513
 20
66.941994202526828
 30
0.0
  0
VERTEX
  5
3139
  8
0
 10
38.407589198392998
 20
67.048189083655402
 30
0.0
  0
VERTEX
  5
313A
  8
0
 10
38.340704595421471
 20
67.263123731741601
 30
0.0
  0
VERTEX
  5
313B
  8
0
 10
38.272723218451972
 20
67.481582879081699
 30
0.0
  0
VERTEX
  5
313C
  8
0
 10
38.238305537111899
 20
67.592184600526124
 30
0.0
  0
SEQEND
  5
313D
  8
0
  0
LINE
  5
2011
  8
0
 10
38.457206590057808
 20
66.888742871184576
 30
0.0
 11
38.440635533756513
 21
66.941994202526857
 31
0.0
  0
POLYLINE
  5
2012
  8
0
 66
     1
 10
0.0
 20
0.0
 30
0.0
  0
VERTEX
  5
313E
  8
0
 10
39.349152002912767
 20
66.422168509032119
 30
0.0
  0
VERTEX
  5
313F
  8
0
 10
39.327387086563299
 20
66.5312359261426
 30
0.0
  0
VERTEX
  5
3140
  8
0
 10
39.283335672912528
 20
66.751984484502415
 30
0.0
  0
VERTEX
  5
3141
  8
0
 10
39.238561903997322
 20
66.976352878641123
 30
0.0
  0
VERTEX
  5
3142
  8
0
 10
39.215893794294118
 20
67.08994633962287
 30
0.0
  0
SEQEND
  5
3143
  8
0
  0
LINE
  5
2013
  8
0
 10
39.360066001401599
 20
66.367476747004829
 30
0.0
 11
39.349152002912767
 21
66.422168509032119
 31
0.0
  0
POLYLINE
  5
2014
  8
0
 66
     1
 10
0.0
 20
0.0
 30
0.0
  0
VERTEX
  5
3144
  8
0
 10
40.19835494288327
 20
65.810224644702416
 30
0.0
  0
VERTEX
  5
3145
  8
0
 10
40.188109906525987
 20
65.920969632349326
 30
0.0
  0
VERTEX
  5
3146
  8
0
 10
40.167374318702279
 20
66.145113533582801
 30
0.0
  0
VERTEX
  5
3147
  8
0
 10
40.146298708623142
 20
66.37293294744164
 30
0.0
  0
VERTEX
  5
3148
  8
0
 10
40.13562852711032
 20
66.488273594231131
 30
0.0
  0
SEQEND
  5
3149
  8
0
  0
LINE
  5
2015
  8
0
 10
40.203492307508327
 20
65.754691666379856
 30
0.0
 11
40.19835494288327
 21
65.810224644702416
 31
0.0
  0
POLYLINE
  5
2016
  8
0
 66
     1
 10
0.0
 20
0.0
 30
0.0
  0
VERTEX
  5
314A
  8
0
 10
40.978940308550527
 20
65.112867194572715
 30
0.0
  0
VERTEX
  5
314B
  8
0
 10
40.980327398947729
 20
65.224076407496398
 30
0.0
  0
VERTEX
  5
314C
  8
0
 10
40.983134820390482
 20
65.449159884116483
 30
0.0
  0
VERTEX
  5
314D
  8
0
 10
40.985988277941708
 20
65.677934280523104
 30
0.0
  0
VERTEX
  5
314E
  8
0
 10
40.987432929360857
 20
65.793758416857514
 30
0.0
  0
SEQEND
  5
314F
  8
0
  0
LINE
  5
2017
  8
0
 10
40.978244753269898
 20
65.057101430886433
 30
0.0
 11
40.978940308550527
 21
65.112867194572715
 31
0.0
  0
POLYLINE
  5
2018
  8
0
 66
     1
 10
0.0
 20
0.0
 30
0.0
  0
VERTEX
  5
3150
  8
0
 10
41.682355843300449
 20
64.337736552798134
 30
0.0
  0
VERTEX
  5
3151
  8
0
 10
41.695359863199421
 20
64.448191559589731
 30
0.0
  0
VERTEX
  5
3152
  8
0
 10
41.721679535211813
 20
64.671748549924956
 30
0.0
  0
VERTEX
  5
3153
  8
0
 10
41.748430797315393
 20
64.898971428718198
 30
0.0
  0
VERTEX
  5
3154
  8
0
 10
41.76197445376323
 20
65.014010061121994
 30
0.0
  0
SEQEND
  5
3155
  8
0
  0
LINE
  5
2019
  8
0
 10
41.67583498876337
 20
64.282348985124798
 30
0.0
 11
41.682355843300449
 21
64.337736552798134
 31
0.0
  0
POLYLINE
  5
201A
  8
0
 66
     1
 10
0.0
 20
0.0
 30
0.0
  0
VERTEX
  5
3156
  8
0
 10
42.30089477933501
 20
63.493325212896451
 30
0.0
  0
VERTEX
  5
3157
  8
0
 10
42.325373253972479
 20
63.601815845387392
 30
0.0
  0
VERTEX
  5
3158
  8
0
 10
42.37491681272018
 20
63.821397012269223
 30
0.0
  0
VERTEX
  5
3159
  8
0
 10
42.425272786950472
 20
64.04457887203958
 30
0.0
  0
VERTEX
  5
315A
  8
0
 10
42.450767061292758
 20
64.15757161318291
 30
0.0
  0
SEQEND
  5
315B
  8
0
  0
LINE
  5
201B
  8
0
 10
42.288620069388337
 20
63.43892267901807
 30
0.0
 11
42.30089477933501
 21
63.493325212896451
 31
0.0
  0
POLYLINE
  5
201C
  8
0
 66
     1
 10
0.0
 20
0.0
 30
0.0
  0
VERTEX
  5
315C
  8
0
 10
42.827780274633483
 20
62.588884722212072
 30
0.0
  0
VERTEX
  5
315D
  8
0
 10
42.863465012718848
 20
62.694222334329538
 30
0.0
  0
VERTEX
  5
315E
  8
0
 10
42.935689648604637
 20
62.907421900543483
 30
0.0
  0
VERTEX
  5
315F
  8
0
 10
43.00909862437026
 20
63.124117514131619
 30
0.0
  0
VERTEX
  5
3160
  8
0
 10
43.046264196002312
 20
63.233826391897018
 30
0.0
  0
SEQEND
  5
3161
  8
0
  0
LINE
  5
201D
  8
0
 10
42.80988619356804
 20
62.53606326767428
 30
0.0
 11
42.827780274633483
 21
62.5888847222121
 31
0.0
  0
POLYLINE
  5
201E
  8
0
 66
     1
 10
0.0
 20
0.0
 30
0.0
  0
VERTEX
  5
3162
  8
0
 10
43.257239661451543
 20
61.634324320027282
 30
0.0
  0
VERTEX
  5
3163
  8
0
 10
43.303739693526843
 20
61.735354810849771
 30
0.0
  0
VERTEX
  5
3164
  8
0
 10
43.397854098325922
 20
61.939836917333331
 30
0.0
  0
VERTEX
  5
3165
  8
0
 10
43.493511791526601
 20
62.147672122250121
 30
0.0
  0
VERTEX
  5
3166
  8
0
 10
43.541941466668163
 20
62.252895143214943
 30
0.0
  0
SEQEND
  5
3167
  8
0
  0
LINE
  5
201F
  8
0
 10
43.233922260564043
 20
61.583662667739617
 30
0.0
 11
43.257239661451543
 21
61.634324320027282
 31
0.0
  0
POLYLINE
  5
2020
  8
0
 66
     1
 10
0.0
 20
0.0
 30
0.0
  0
VERTEX
  5
3168
  8
0
 10
43.584567692876931
 20
60.640102369862973
 30
0.0
  0
VERTEX
  5
3169
  8
0
 10
43.641373554860081
 20
60.735718828191132
 30
0.0
  0
VERTEX
  5
316A
  8
0
 10
43.75634659145868
 20
60.929243126194933
 30
0.0
  0
VERTEX
  5
316B
  8
0
 10
43.873204956389991
 20
61.125940836442929
 30
0.0
  0
VERTEX
  5
316C
  8
0
 10
43.932368129385793
 20
61.225525155170281
 30
0.0
  0
SEQEND
  5
316D
  8
0
  0
LINE
  5
2021
  8
0
 10
43.556082442491061
 20
60.592155579489507
 30
0.0
 11
43.584567692876931
 21
60.640102369863001
 31
0.0
  0
POLYLINE
  5
2022
  8
0
 66
     1
 10
0.0
 20
0.0
 30
0.0
  0
VERTEX
  5
316E
  8
0
 10
43.806178094499671
 20
59.617111775459499
 30
0.0
  0
VERTEX
  5
316F
  8
0
 10
43.872667409479376
 20
59.706266607366807
 30
0.0
  0
VERTEX
  5
3170
  8
0
 10
44.00723940922893
 20
59.886712804184441
 30
0.0
  0
VERTEX
  5
3171
  8
0
 10
44.14401812119047
 20
60.070117958488567
 30
0.0
  0
VERTEX
  5
3172
  8
0
 10
44.213266587936403
 20
60.162972508343017
 30
0.0
  0
SEQEND
  5
3173
  8
0
  0
LINE
  5
2023
  8
0
 10
43.772837084979471
 20
59.572405162069082
 30
0.0
 11
43.806178094499671
 21
59.617111775459499
 31
0.0
  0
POLYLINE
  5
2024
  8
0
 66
     1
 10
0.0
 20
0.0
 30
0.0
  0
VERTEX
  5
3174
  8
0
 10
43.919642856384527
 20
58.576560635843713
 30
0.0
  0
VERTEX
  5
3175
  8
0
 10
43.995087153512031
 20
58.658277042334781
 30
0.0
  0
VERTEX
  5
3176
  8
0
 10
44.147783717422321
 20
58.823668131673259
 30
0.0
  0
VERTEX
  5
3177
  8
0
 10
44.302984200223243
 20
58.991771304783128
 30
0.0
  0
VERTEX
  5
3178
  8
0
 10
44.381559260026329
 20
59.07687875188526
 30
0.0
  0
SEQEND
  5
3179
  8
0
  0
LINE
  5
2025
  8
0
 10
43.88181137880747
 20
58.535584014448183
 30
0.0
 11
43.919642856384527
 21
58.576560635843713
 31
0.0
  0
POLYLINE
  5
2026
  8
0
 66
     1
 10
0.0
 20
0.0
 30
0.0
  0
VERTEX
  5
317A
  8
0
 10
43.923718834856402
 20
57.529849447050537
 30
0.0
  0
VERTEX
  5
317B
  8
0
 10
44.007291530624506
 20
57.603232126075589
 30
0.0
  0
VERTEX
  5
317C
  8
0
 10
44.176439683187539
 20
57.751756048549758
 30
0.0
  0
VERTEX
  5
317D
  8
0
 10
44.34836152786044
 20
57.902715466922871
 30
0.0
  0
VERTEX
  5
317E
  8
0
 10
44.435402295922749
 20
57.979143356272459
 30
0.0
  0
SEQEND
  5
317F
  8
0
  0
LINE
  5
2027
  8
0
 10
43.88181137880747
 20
57.493051766088712
 30
0.0
 11
43.923718834856402
 21
57.529849447050509
 31
0.0
  0
POLYLINE
  5
2028
  8
0
 66
     1
 10
0.0
 20
0.0
 30
0.0
  0
VERTEX
  5
3180
  8
0
 10
43.818361372642073
 20
56.48844619590281
 30
0.0
  0
VERTEX
  5
3181
  8
0
 10
43.909146827107399
 20
56.552691151474249
 30
0.0
  0
VERTEX
  5
3182
  8
0
 10
44.092893345767209
 20
56.68272064790883
 30
0.0
  0
VERTEX
  5
3183
  8
0
 10
44.279652940604819
 20
56.814882368567169
 30
0.0
  0
VERTEX
  5
3184
  8
0
 10
44.374205780056847
 20
56.88179334021487
 30
0.0
  0
SEQEND
  5
3185
  8
0
  0
LINE
  5
2029
  8
0
 10
43.772837084979471
 20
56.456230618467742
 30
0.0
 11
43.818361372642073
 21
56.48844619590281
 31
0.0
  0
POLYLINE
  5
202A
  8
0
 66
     1
 10
0.0
 20
0.0
 30
0.0
  0
VERTEX
  5
3186
  8
0
 10
43.60472478814512
 20
55.4637607143477
 30
0.0
  0
VERTEX
  5
3187
  8
0
 10
43.701728336870467
 20
55.518164065288197
 30
0.0
  0
VERTEX
  5
3188
  8
0
 10
43.898060056316972
 20
55.62827450530974
 30
0.0
  0
VERTEX
  5
3189
  8
0
 10
44.097611224116179
 20
55.740190536785057
 30
0.0
  0
VERTEX
  5
318A
  8
0
 10
44.19864019426273
 20
55.796851500123658
 30
0.0
  0
SEQEND
  5
318B
  8
0
  0
LINE
  5
202B
  8
0
 10
43.556082442491061
 20
55.436480201047317
 30
0.0
 11
43.60472478814512
 21
55.463760714347671
 31
0.0
  0
POLYLINE
  5
202C
  8
0
 66
     1
 10
0.0
 20
0.0
 30
0.0
  0
VERTEX
  5
318C
  8
0
 10
43.285149728491547
 20
54.467019670950407
 30
0.0
  0
VERTEX
  5
318D
  8
0
 10
43.387308580297649
 20
54.510985362762312
 30
0.0
  0
VERTEX
  5
318E
  8
0
 10
43.594074449127959
 20
54.599970353348027
 30
0.0
  0
VERTEX
  5
318F
  8
0
 10
43.804230865535828
 20
54.690414520179701
 30
0.0
  0
VERTEX
  5
3190
  8
0
 10
43.910629071837832
 20
54.736204685837521
 30
0.0
  0
SEQEND
  5
3191
  8
0
  0
LINE
  5
202D
  8
0
 10
43.233922260564043
 20
54.444973112797221
 30
0.0
 11
43.285149728491547
 21
54.467019670950407
 31
0.0
  0
POLYLINE
  5
202E
  8
0
 66
     1
 10
0.0
 20
0.0
 30
0.0
  0
VERTEX
  5
3192
  8
0
 10
42.863137524910307
 20
53.509143569163832
 30
0.0
  0
VERTEX
  5
3193
  8
0
 10
42.969332406038738
 20
53.542189904527298
 30
0.0
  0
VERTEX
  5
3194
  8
0
 10
43.18426705412503
 20
53.609074507498889
 30
0.0
  0
VERTEX
  5
3195
  8
0
 10
43.402726201465271
 20
53.67705588446838
 30
0.0
  0
VERTEX
  5
3196
  8
0
 10
43.513327922909632
 20
53.711473565808461
 30
0.0
  0
SEQEND
  5
3197
  8
0
  0
LINE
  5
202F
  8
0
 10
42.80988619356804
 20
53.492572512862552
 30
0.0
 11
42.863137524910307
 21
53.509143569163797
 31
0.0
  0
POLYLINE
  5
2030
  8
0
 66
     1
 10
0.0
 20
0.0
 30
0.0
  0
VERTEX
  5
3198
  8
0
 10
42.343311831415633
 20
52.600627100007593
 30
0.0
  0
VERTEX
  5
3199
  8
0
 10
42.452379248526142
 20
52.622392016357018
 30
0.0
  0
VERTEX
  5
319A
  8
0
 10
42.673127806885979
 20
52.666443430007831
 30
0.0
  0
VERTEX
  5
319B
  8
0
 10
42.897496201024687
 20
52.711217198923009
 30
0.0
  0
VERTEX
  5
319C
  8
0
 10
43.011089662006377
 20
52.733885308626242
 30
0.0
  0
SEQEND
  5
319D
  8
0
  0
LINE
  5
2031
  8
0
 10
42.288620069388337
 20
52.589713101518747
 30
0.0
 11
42.343311831415633
 21
52.600627100007593
 31
0.0
  0
POLYLINE
  5
2032
  8
0
 66
     1
 10
0.0
 20
0.0
 30
0.0
  0
VERTEX
  5
319E
  8
0
 10
41.731367967085873
 20
51.751424160037082
 30
0.0
  0
VERTEX
  5
319F
  8
0
 10
41.84211295473272
 20
51.761669196394337
 30
0.0
  0
VERTEX
  5
31A0
  8
0
 10
42.066256855966287
 20
51.782404784218073
 30
0.0
  0
VERTEX
  5
31A1
  8
0
 10
42.294076269825212
 20
51.803480394297218
 30
0.0
  0
VERTEX
  5
31A2
  8
0
 10
42.409416916614639
 20
51.814150575810032
 30
0.0
  0
SEQEND
  5
31A3
  8
0
  0
LINE
  5
2033
  8
0
 10
41.67583498876337
 20
51.746286795412033
 30
0.0
 11
41.731367967085873
 21
51.751424160037082
 31
0.0
  0
POLYLINE
  5
2034
  8
0
 66
     1
 10
0.0
 20
0.0
 30
0.0
  0
VERTEX
  5
31A4
  8
0
 10
41.034010516956243
 20
50.97083879436979
 30
0.0
  0
VERTEX
  5
31A5
  8
0
 10
41.145219729879841
 20
50.969451703972567
 30
0.0
  0
VERTEX
  5
31A6
  8
0
 10
41.370303206499997
 20
50.96664428252987
 30
0.0
  0
VERTEX
  5
31A7
  8
0
 10
41.599077602906668
 20
50.963790824978609
 30
0.0
  0
VERTEX
  5
31A8
  8
0
 10
41.714901739241043
 20
50.96234617355946
 30
0.0
  0
SEQEND
  5
31A9
  8
0
  0
LINE
  5
2035
  8
0
 10
40.978244753269898
 20
50.971534349650398
 30
0.0
 11
41.034010516956243
 21
50.970838794369769
 31
0.0
  0
POLYLINE
  5
2036
  8
0
 66
     1
 10
0.0
 20
0.0
 30
0.0
  0
VERTEX
  5
31AA
  8
0
 10
40.258879875181663
 20
50.267423259619903
 30
0.0
  0
VERTEX
  5
31AB
  8
0
 10
40.369334881973202
 20
50.254419239720932
 30
0.0
  0
VERTEX
  5
31AC
  8
0
 10
40.592891872308421
 20
50.22809956770854
 30
0.0
  0
VERTEX
  5
31AD
  8
0
 10
40.820114751101748
 20
50.201348305604967
 30
0.0
  0
VERTEX
  5
31AE
  8
0
 10
40.935153383505508
 20
50.187804649157101
 30
0.0
  0
SEQEND
  5
31AF
  8
0
  0
LINE
  5
2037
  8
0
 10
40.203492307508263
 20
50.273944114156983
 30
0.0
 11
40.258879875181663
 21
50.267423259619903
 31
0.0
  0
POLYLINE
  5
2038
  8
0
 66
     1
 10
0.0
 20
0.0
 30
0.0
  0
VERTEX
  5
31B0
  8
0
 10
39.41446853527998
 20
49.648884323585321
 30
0.0
  0
VERTEX
  5
31B1
  8
0
 10
39.522959167770871
 20
49.624405848947852
 30
0.0
  0
VERTEX
  5
31B2
  8
0
 10
39.742540334652752
 20
49.574862290200137
 30
0.0
  0
VERTEX
  5
31B3
  8
0
 10
39.965722194423172
 20
49.52450631596988
 30
0.0
  0
VERTEX
  5
31B4
  8
0
 10
40.078714935566367
 20
49.49901204162753
 30
0.0
  0
SEQEND
  5
31B5
  8
0
  0
LINE
  5
2039
  8
0
 10
39.360066001401599
 20
49.661159033532023
 30
0.0
 11
39.41446853527998
 21
49.648884323585293
 31
0.0
  0
POLYLINE
  5
203A
  8
0
 66
     1
 10
0.0
 20
0.0
 30
0.0
  0
VERTEX
  5
31B6
  8
0
 10
38.510028044595572
 20
49.121998828286848
 30
0.0
  0
VERTEX
  5
31B7
  8
0
 10
38.615365656713102
 20
49.086314090201448
 30
0.0
  0
VERTEX
  5
31B8
  8
0
 10
38.828565222927011
 20
49.014089454315688
 30
0.0
  0
VERTEX
  5
31B9
  8
0
 10
39.045260836515133
 20
48.940680478550043
 30
0.0
  0
VERTEX
  5
31BA
  8
0
 10
39.154969714280533
 20
48.903514906918019
 30
0.0
  0
SEQEND
  5
31BB
  8
0
  0
LINE
  5
203B
  8
0
 10
38.457206590057808
 20
49.139892909352263
 30
0.0
 11
38.510028044595572
 21
49.12199882828687
 31
0.0
  0
POLYLINE
  5
203C
  8
0
 66
     1
 10
0.0
 20
0.0
 30
0.0
  0
VERTEX
  5
31BC
  8
0
 10
37.555467642410797
 20
48.692539441468817
 30
0.0
  0
VERTEX
  5
31BD
  8
0
 10
37.656498133233413
 20
48.646039409393438
 30
0.0
  0
VERTEX
  5
31BE
  8
0
 10
37.86098023971681
 20
48.551925004594437
 30
0.0
  0
VERTEX
  5
31BF
  8
0
 10
38.068815444633508
 20
48.456267311393823
 30
0.0
  0
VERTEX
  5
31C0
  8
0
 10
38.174038465598471
 20
48.407837636252168
 30
0.0
  0
SEQEND
  5
31C1
  8
0
  0
LINE
  5
203D
  8
0
 10
37.504805990123089
 20
48.715856842356253
 30
0.0
 11
37.555467642410797
 21
48.692539441468817
 31
0.0
  0
POLYLINE
  5
203E
  8
0
 66
     1
 10
0.0
 20
0.0
 30
0.0
  0
VERTEX
  5
31C2
  8
0
 10
36.56124569224648
 20
48.365211410043401
 30
0.0
  0
VERTEX
  5
31C3
  8
0
 10
36.656862150574568
 20
48.308405548060279
 30
0.0
  0
VERTEX
  5
31C4
  8
0
 10
36.85038644857849
 20
48.193432511461623
 30
0.0
  0
VERTEX
  5
31C5
  8
0
 10
37.047084158826522
 20
48.076574146530277
 30
0.0
  0
VERTEX
  5
31C6
  8
0
 10
37.146668477553817
 20
48.01741097353456
 30
0.0
  0
SEQEND
  5
31C7
  8
0
  0
LINE
  5
203F
  8
0
 10
36.513298901873043
 20
48.393696660429299
 30
0.0
 11
36.56124569224648
 21
48.365211410043429
 31
0.0
  0
POLYLINE
  5
2040
  8
0
 66
     1
 10
0.0
 20
0.0
 30
0.0
  0
VERTEX
  5
31C8
  8
0
 10
35.538255097843027
 20
48.143601008420688
 30
0.0
  0
VERTEX
  5
31C9
  8
0
 10
35.627409929750229
 20
48.077111693441061
 30
0.0
  0
VERTEX
  5
31CA
  8
0
 10
35.80785612656797
 20
47.94253969369143
 30
0.0
  0
VERTEX
  5
31CB
  8
0
 10
35.991261280872209
 20
47.805760981729783
 30
0.0
  0
VERTEX
  5
31CC
  8
0
 10
36.084115830726553
 20
47.736512514983922
 30
0.0
  0
SEQEND
  5
31CD
  8
0
  0
LINE
  5
2041
  8
0
 10
35.493548484452617
 20
48.176942017940831
 30
0.0
 11
35.538255097843027
 21
48.143601008420688
 31
0.0
  0
POLYLINE
  5
2042
  8
0
 66
     1
 10
0.0
 20
0.0
 30
0.0
  0
VERTEX
  5
31CE
  8
0
 10
34.497703958227248
 20
48.030136246535761
 30
0.0
  0
VERTEX
  5
31CF
  8
0
 10
34.57942036471826
 20
47.954691949408328
 30
0.0
  0
VERTEX
  5
31D0
  8
0
 10
34.744811454056787
 20
47.801995385497968
 30
0.0
  0
VERTEX
  5
31D1
  8
0
 10
34.912914627166693
 20
47.646794902697081
 30
0.0
  0
VERTEX
  5
31D2
  8
0
 10
34.998022074268761
 20
47.568219842893967
 30
0.0
  0
SEQEND
  5
31D3
  8
0
  0
LINE
  5
2043
  8
0
 10
34.456727336831648
 20
48.067967724112883
 30
0.0
 11
34.497703958227248
 21
48.030136246535761
 31
0.0
  0
POLYLINE
  5
2044
  8
0
 66
     1
 10
0.0
 20
0.0
 30
0.0
  0
VERTEX
  5
31D4
  8
0
 10
33.450992769434038
 20
48.026060268063958
 30
0.0
  0
VERTEX
  5
31D5
  8
0
 10
33.524375448459239
 20
47.942487572295732
 30
0.0
  0
VERTEX
  5
31D6
  8
0
 10
33.672899370933301
 20
47.773339419732757
 30
0.0
  0
VERTEX
  5
31D7
  8
0
 10
33.823858789306321
 20
47.601417575059969
 30
0.0
  0
VERTEX
  5
31D8
  8
0
 10
33.900286678655959
 20
47.514376806997603
 30
0.0
  0
SEQEND
  5
31D9
  8
0
  0
LINE
  5
2045
  8
0
 10
33.414195088472191
 20
48.067967724112918
 30
0.0
 11
33.450992769434038
 21
48.026060268063929
 31
0.0
  0
POLYLINE
  5
2046
  8
0
 66
     1
 10
0.0
 20
0.0
 30
0.0
  0
VERTEX
  5
31DA
  8
0
 10
32.409589518286339
 20
48.131417730278258
 30
0.0
  0
VERTEX
  5
31DB
  8
0
 10
32.473834473857778
 20
48.040632275812918
 30
0.0
  0
VERTEX
  5
31DC
  8
0
 10
32.603863970292309
 20
47.856885757153179
 30
0.0
  0
VERTEX
  5
31DD
  8
0
 10
32.736025690950612
 20
47.670126162315619
 30
0.0
  0
VERTEX
  5
31DE
  8
0
 10
32.80293666259837
 20
47.575573322863498
 30
0.0
  0
SEQEND
  5
31DF
  8
0
  0
LINE
  5
2047
  8
0
 10
32.377373940851207
 20
48.17694201794086
 30
0.0
 11
32.409589518286339
 21
48.131417730278258
 31
0.0
  0
POLYLINE
  5
2048
  8
0
 66
     1
 10
0.0
 20
0.0
 30
0.0
  0
VERTEX
  5
31E0
  8
0
 10
31.3849040367312
 20
48.345054314775233
 30
0.0
  0
VERTEX
  5
31E1
  8
0
 10
31.439307387671711
 20
48.248050766049879
 30
0.0
  0
VERTEX
  5
31E2
  8
0
 10
31.549417827693279
 20
48.051719046603353
 30
0.0
  0
VERTEX
  5
31E3
  8
0
 10
31.661333859168568
 20
47.852167878804153
 30
0.0
  0
VERTEX
  5
31E4
  8
0
 10
31.717994822507141
 20
47.751138908657587
 30
0.0
  0
SEQEND
  5
31E5
  8
0
  0
LINE
  5
2049
  8
0
 10
31.357623523430849
 20
48.393696660429327
 30
0.0
 11
31.3849040367312
 21
48.345054314775211
 31
0.0
  0
POLYLINE
  5
204A
  8
0
 66
     1
 10
0.0
 20
0.0
 30
0.0
  0
VERTEX
  5
31E6
  8
0
 10
30.388162993333939
 20
48.664629374428813
 30
0.0
  0
VERTEX
  5
31E7
  8
0
 10
30.432128685145869
 20
48.562470522622647
 30
0.0
  0
VERTEX
  5
31E8
  8
0
 10
30.521113675731559
 20
48.355704653792451
 30
0.0
  0
VERTEX
  5
31E9
  8
0
 10
30.611557842563169
 20
48.14554823738461
 30
0.0
  0
VERTEX
  5
31EA
  8
0
 10
30.657348008221049
 20
48.039150031082499
 30
0.0
  0
SEQEND
  5
31EB
  8
0
  0
LINE
  5
204B
  8
0
 10
30.366116435180739
 20
48.715856842356338
 30
0.0
 11
30.388162993333939
 21
48.664629374428841
 31
0.0
  0
POLYLINE
  5
204C
  8
0
 66
     1
 10
0.0
 20
0.0
 30
0.0
  0
VERTEX
  5
31EC
  8
0
 10
29.430286891547329
 20
49.086641578010052
 30
0.0
  0
VERTEX
  5
31ED
  8
0
 10
29.463333226910841
 20
48.980446696881472
 30
0.0
  0
VERTEX
  5
31EE
  8
0
 10
29.530217829882361
 20
48.765512048795358
 30
0.0
  0
VERTEX
  5
31EF
  8
0
 10
29.598199206851799
 20
48.547052901455281
 30
0.0
  0
VERTEX
  5
31F0
  8
0
 10
29.63261688819199
 20
48.436451180010749
 30
0.0
  0
SEQEND
  5
31F1
  8
0
  0
LINE
  5
204D
  8
0
 10
29.41371583524603
 20
49.139892909352277
 30
0.0
 11
29.430286891547329
 21
49.086641578010017
 31
0.0
  0
POLYLINE
  5
204E
  8
0
 66
     1
 10
0.0
 20
0.0
 30
0.0
  0
VERTEX
  5
31F2
  8
0
 10
28.521770422391111
 20
49.606467271504719
 30
0.0
  0
VERTEX
  5
31F3
  8
0
 10
28.543535338740579
 20
49.497399854394132
 30
0.0
  0
VERTEX
  5
31F4
  8
0
 10
28.58758675239136
 20
49.276651296034252
 30
0.0
  0
VERTEX
  5
31F5
  8
0
 10
28.632360521306509
 20
49.052282901895637
 30
0.0
  0
VERTEX
  5
31F6
  8
0
 10
28.65502863100977
 20
48.938689440913997
 30
0.0
  0
SEQEND
  5
31F7
  8
0
  0
LINE
  5
204F
  8
0
 10
28.510856423902279
 20
49.661159033532037
 30
0.0
 11
28.521770422391111
 21
49.606467271504698
 31
0.0
  0
POLYLINE
  5
2050
  8
0
 66
     1
 10
0.0
 20
0.0
 30
0.0
  0
VERTEX
  5
31F8
  8
0
 10
27.672567482420622
 20
50.218411135834451
 30
0.0
  0
VERTEX
  5
31F9
  8
0
 10
27.68281251877784
 20
50.107666148187597
 30
0.0
  0
VERTEX
  5
31FA
  8
0
 10
27.703548106601598
 20
49.883522246954101
 30
0.0
  0
VERTEX
  5
31FB
  8
0
 10
27.72462371668075
 20
49.65570283309517
 30
0.0
  0
VERTEX
  5
31FC
  8
0
 10
27.735293898193561
 20
49.540362186305742
 30
0.0
  0
SEQEND
  5
31FD
  8
0
  0
LINE
  5
2051
  8
0
 10
27.667430117795561
 20
50.273944114157018
 30
0.0
 11
27.672567482420622
 21
50.218411135834451
 31
0.0
  0
POLYLINE
  5
2052
  8
0
 66
     1
 10
0.0
 20
0.0
 30
0.0
  0
VERTEX
  5
31FE
  8
0
 10
26.891982116753301
 20
50.915768585964152
 30
0.0
  0
VERTEX
  5
31FF
  8
0
 10
26.890595026356099
 20
50.80455937304049
 30
0.0
  0
VERTEX
  5
3200
  8
0
 10
26.887787604913338
 20
50.579475896420227
 30
0.0
  0
VERTEX
  5
3201
  8
0
 10
26.88493414736212
 20
50.350701500013542
 30
0.0
  0
VERTEX
  5
3202
  8
0
 10
26.883489495942971
 20
50.234877363679338
 30
0.0
  0
SEQEND
  5
3203
  8
0
  0
LINE
  5
2053
  8
0
 10
26.89267767203393
 20
50.971534349650433
 30
0.0
 11
26.891982116753301
 21
50.915768585964152
 31
0.0
  0
POLYLINE
  5
2054
  8
0
 66
     1
 10
0.0
 20
0.0
 30
0.0
  0
VERTEX
  5
3204
  8
0
 10
26.188566582003428
 20
51.690899227738718
 30
0.0
  0
VERTEX
  5
3205
  8
0
 10
26.1755625621044
 20
51.58044422094715
 30
0.0
  0
VERTEX
  5
3206
  8
0
 10
26.149242890092069
 20
51.356887230611783
 30
0.0
  0
VERTEX
  5
3207
  8
0
 10
26.122491627988438
 20
51.129664351818462
 30
0.0
  0
VERTEX
  5
3208
  8
0
 10
26.108947971540601
 20
51.014625719414823
 30
0.0
  0
SEQEND
  5
3209
  8
0
  0
LINE
  5
2055
  8
0
 10
26.195087436540518
 20
51.746286795412061
 30
0.0
 11
26.188566582003428
 21
51.690899227738718
 31
0.0
  0
POLYLINE
  5
2056
  8
0
 66
     1
 10
0.0
 20
0.0
 30
0.0
  0
VERTEX
  5
320A
  8
0
 10
25.570027645968821
 20
52.53531056764038
 30
0.0
  0
VERTEX
  5
320B
  8
0
 10
25.545549171331349
 20
52.426819935149439
 30
0.0
  0
VERTEX
  5
320C
  8
0
 10
25.496005612583641
 20
52.207238768267644
 30
0.0
  0
VERTEX
  5
320D
  8
0
 10
25.445649638353419
 20
51.984056908497308
 30
0.0
  0
VERTEX
  5
320E
  8
0
 10
25.42015536401107
 20
51.87106416735395
 30
0.0
  0
SEQEND
  5
320F
  8
0
  0
LINE
  5
2057
  8
0
 10
25.582302355915552
 20
52.589713101518782
 30
0.0
 11
25.570027645968821
 21
52.535310567640408
 31
0.0
  0
POLYLINE
  5
2058
  8
0
 66
     1
 10
0.0
 20
0.0
 30
0.0
  0
VERTEX
  5
3210
  8
0
 10
25.043142150670349
 20
53.439751058324759
 30
0.0
  0
VERTEX
  5
3211
  8
0
 10
25.00745741258493
 20
53.334413446207201
 30
0.0
  0
VERTEX
  5
3212
  8
0
 10
24.935232776699198
 20
53.121213879993292
 30
0.0
  0
VERTEX
  5
3213
  8
0
 10
24.861823800933571
 20
52.90451826640524
 30
0.0
  0
VERTEX
  5
3214
  8
0
 10
24.824658229301519
 20
52.794809388639798
 30
0.0
  0
SEQEND
  5
3215
  8
0
  0
LINE
  5
2059
  8
0
 10
25.06103623173578
 20
53.49257251286258
 30
0.0
 11
25.043142150670349
 21
53.439751058324759
 31
0.0
  0
POLYLINE
  5
205A
  8
0
 66
     1
 10
0.0
 20
0.0
 30
0.0
  0
VERTEX
  5
3216
  8
0
 10
24.613682763852349
 20
54.394311460509577
 30
0.0
  0
VERTEX
  5
3217
  8
0
 10
24.567182731776992
 20
54.293280969687032
 30
0.0
  0
VERTEX
  5
3218
  8
0
 10
24.47306832697797
 20
54.088798863203522
 30
0.0
  0
VERTEX
  5
3219
  8
0
 10
24.377410633777291
 20
53.88096365828676
 30
0.0
  0
VERTEX
  5
321A
  8
0
 10
24.328980958635668
 20
53.775740637321888
 30
0.0
  0
SEQEND
  5
321B
  8
0
  0
LINE
  5
205B
  8
0
 10
24.637000164739788
 20
54.444973112797243
 30
0.0
 11
24.613682763852349
 21
54.394311460509577
 31
0.0
  0
POLYLINE
  5
205C
  8
0
 66
     1
 10
0.0
 20
0.0
 30
0.0
  0
VERTEX
  5
321C
  8
0
 10
24.286354732426901
 20
55.388533410673858
 30
0.0
  0
VERTEX
  5
321D
  8
0
 10
24.229548870443871
 20
55.292916952345848
 30
0.0
  0
VERTEX
  5
321E
  8
0
 10
24.114575833845151
 20
55.099392654341898
 30
0.0
  0
VERTEX
  5
321F
  8
0
 10
23.99771746891378
 20
54.902694944093781
 30
0.0
  0
VERTEX
  5
3220
  8
0
 10
23.938554295918038
 20
54.803110625366571
 30
0.0
  0
SEQEND
  5
3221
  8
0
  0
LINE
  5
205D
  8
0
 10
24.314839982812831
 20
55.436480201047338
 30
0.0
 11
24.286354732426901
 21
55.388533410673858
 31
0.0
  0
POLYLINE
  5
205E
  8
0
 66
     1
 10
0.0
 20
0.0
 30
0.0
  0
VERTEX
  5
3222
  8
0
 10
24.06474433080416
 20
56.411524005077318
 30
0.0
  0
VERTEX
  5
3223
  8
0
 10
23.998255015824611
 20
56.322369173170223
 30
0.0
  0
VERTEX
  5
3224
  8
0
 10
23.863683016075019
 20
56.141922976352483
 30
0.0
  0
VERTEX
  5
3225
  8
0
 10
23.726904304113301
 20
55.958517822048172
 30
0.0
  0
VERTEX
  5
3226
  8
0
 10
23.657655837367429
 20
55.865663272193807
 30
0.0
  0
SEQEND
  5
3227
  8
0
  0
LINE
  5
205F
  8
0
 10
24.09808534032436
 20
56.456230618467771
 30
0.0
 11
24.06474433080416
 21
56.411524005077347
 31
0.0
  0
POLYLINE
  5
2060
  8
0
 66
     1
 10
0.0
 20
0.0
 30
0.0
  0
VERTEX
  5
3228
  8
0
 10
23.95127956891929
 20
57.452075144693111
 30
0.0
  0
VERTEX
  5
3229
  8
0
 10
23.875835271791921
 20
57.370358738202128
 30
0.0
  0
VERTEX
  5
322A
  8
0
 10
23.72313870788156
 20
57.204967648863601
 30
0.0
  0
VERTEX
  5
322B
  8
0
 10
23.567938225080582
 20
57.036864475753703
 30
0.0
  0
VERTEX
  5
322C
  8
0
 10
23.489363165277489
 20
56.951757028651599
 30
0.0
  0
SEQEND
  5
322D
  8
0
  0
LINE
  5
2061
  8
0
 10
23.989111046496362
 20
57.493051766088684
 30
0.0
 11
23.95127956891929
 21
57.452075144693133
 31
0.0
  0
POLYLINE
  5
2062
  8
0
 66
     1
 10
0.0
 20
0.0
 30
0.0
  0
VERTEX
  5
322E
  8
0
 10
23.94720359044743
 20
58.498786333486287
 30
0.0
  0
VERTEX
  5
322F
  8
0
 10
23.863630894679321
 20
58.425403654461228
 30
0.0
  0
VERTEX
  5
3230
  8
0
 10
23.694482742116179
 20
58.276879731987009
 30
0.0
  0
VERTEX
  5
3231
  8
0
 10
23.522560897443331
 20
58.125920313613904
 30
0.0
  0
VERTEX
  5
3232
  8
0
 10
23.435520129381128
 20
58.0494924242644
 30
0.0
  0
SEQEND
  5
3233
  8
0
  0
LINE
  5
2063
  8
0
 10
23.989111046496362
 20
58.535584014448141
 30
0.0
 11
23.94720359044743
 21
58.498786333486287
 31
0.0
  0
POLYLINE
  5
2064
  8
0
 66
     1
 10
0.0
 20
0.0
 30
0.0
  0
VERTEX
  5
3234
  8
0
 10
24.052561052661758
 20
59.540189584634049
 30
0.0
  0
VERTEX
  5
3235
  8
0
 10
23.961775598196478
 20
59.47594462906261
 30
0.0
  0
VERTEX
  5
3236
  8
0
 10
23.77802907953668
 20
59.345915132628022
 30
0.0
  0
VERTEX
  5
3237
  8
0
 10
23.591269484699069
 20
59.213753411969691
 30
0.0
  0
VERTEX
  5
3238
  8
0
 10
23.49671664524698
 20
59.14684244032199
 30
0.0
  0
SEQEND
  5
3239
  8
0
  0
LINE
  5
2065
  8
0
 10
24.09808534032436
 20
59.572405162069117
 30
0.0
 11
24.052561052661758
 21
59.540189584634049
 31
0.0
  0
POLYLINE
  5
2066
  8
0
 66
     1
 10
0.0
 20
0.0
 30
0.0
  0
VERTEX
  5
323A
  8
0
 10
24.266197637158712
 20
60.564875066189131
 30
0.0
  0
VERTEX
  5
323B
  8
0
 10
24.169194088433361
 20
60.510471715248627
 30
0.0
  0
VERTEX
  5
323C
  8
0
 10
23.972862368986799
 20
60.400361275227077
 30
0.0
  0
VERTEX
  5
323D
  8
0
 10
23.773311201187539
 20
60.288445243751731
 30
0.0
  0
VERTEX
  5
323E
  8
0
 10
23.672282231041098
 20
60.231784280413187
 30
0.0
  0
SEQEND
  5
323F
  8
0
  0
LINE
  5
2067
  8
0
 10
24.314839982812831
 20
60.592155579489543
 30
0.0
 11
24.266197637158712
 21
60.564875066189131
 31
0.0
  0
POLYLINE
  5
2068
  8
0
 66
     1
 10
0.0
 20
0.0
 30
0.0
  0
VERTEX
  5
3240
  8
0
 10
24.585772696812281
 20
61.561616109586453
 30
0.0
  0
VERTEX
  5
3241
  8
0
 10
24.483613845006239
 20
61.517650417774547
 30
0.0
  0
VERTEX
  5
3242
  8
0
 10
24.27684797617605
 20
61.428665427188889
 30
0.0
  0
VERTEX
  5
3243
  8
0
 10
24.06669155976812
 20
61.338221260357187
 30
0.0
  0
VERTEX
  5
3244
  8
0
 10
23.960293353466
 20
61.29243109469931
 30
0.0
  0
SEQEND
  5
3245
  8
0
  0
LINE
  5
2069
  8
0
 10
24.637000164739788
 20
61.583662667739638
 30
0.0
 11
24.585772696812281
 21
61.561616109586453
 31
0.0
  0
POLYLINE
  5
206A
  8
0
 66
     1
 10
0.0
 20
0.0
 30
0.0
  0
VERTEX
  5
3246
  8
0
 10
25.007784900393521
 20
62.519492211373013
 30
0.0
  0
VERTEX
  5
3247
  8
0
 10
24.901590019265029
 20
62.486445876009547
 30
0.0
  0
VERTEX
  5
3248
  8
0
 10
24.686655371178858
 20
62.419561273037999
 30
0.0
  0
VERTEX
  5
3249
  8
0
 10
24.468196223838682
 20
62.351579896068529
 30
0.0
  0
VERTEX
  5
324A
  8
0
 10
24.357594502394189
 20
62.317162214728398
 30
0.0
  0
SEQEND
  5
324B
  8
0
  0
LINE
  5
206B
  8
0
 10
25.06103623173578
 20
62.536063267674308
 30
0.0
 11
25.007784900393521
 21
62.519492211373013
 31
0.0
  0
POLYLINE
  5
206C
  8
0
 66
     1
 10
0.0
 20
0.0
 30
0.0
  0
VERTEX
  5
324C
  8
0
 10
25.527610593888198
 20
63.428008680529253
 30
0.0
  0
VERTEX
  5
324D
  8
0
 10
25.418543176777689
 20
63.406243764179827
 30
0.0
  0
VERTEX
  5
324E
  8
0
 10
25.197794618417898
 20
63.362192350529028
 30
0.0
  0
VERTEX
  5
324F
  8
0
 10
24.973426224279201
 20
63.31741858161385
 30
0.0
  0
VERTEX
  5
3250
  8
0
 10
24.859832763297511
 20
63.294750471910618
 30
0.0
  0
SEQEND
  5
3251
  8
0
  0
LINE
  5
206D
  8
0
 10
25.582302355915552
 20
63.438922679018113
 30
0.0
 11
25.527610593888198
 21
63.428008680529267
 31
0.0
  0
POLYLINE
  5
206E
  8
0
 66
     1
 10
0.0
 20
0.0
 30
0.0
  0
VERTEX
  5
3252
  8
0
 10
26.139554458217962
 20
64.277211620499742
 30
0.0
  0
VERTEX
  5
3253
  8
0
 10
26.028809470571112
 20
64.266966584142523
 30
0.0
  0
VERTEX
  5
3254
  8
0
 10
25.804665569337601
 20
64.246230996318786
 30
0.0
  0
VERTEX
  5
3255
  8
0
 10
25.57684615547862
 20
64.225155386239607
 30
0.0
  0
VERTEX
  5
3256
  8
0
 10
25.46150550868925
 20
64.214485204726827
 30
0.0
  0
SEQEND
  5
3257
  8
0
  0
LINE
  5
206F
  8
0
 10
26.195087436540518
 20
64.282348985124827
 30
0.0
 11
26.139554458217962
 21
64.27721162049977
 31
0.0
  0
POLYLINE
  5
2070
  8
0
 66
     1
 10
0.0
 20
0.0
 30
0.0
  0
VERTEX
  5
3258
  8
0
 10
26.836911908347592
 20
65.057796986167062
 30
0.0
  0
VERTEX
  5
3259
  8
0
 10
26.725702695424051
 20
65.059184076564264
 30
0.0
  0
VERTEX
  5
325A
  8
0
 10
26.50061921880393
 20
65.061991498006989
 30
0.0
  0
VERTEX
  5
325B
  8
0
 10
26.27184482239722
 20
65.064844955558215
 30
0.0
  0
VERTEX
  5
325C
  8
0
 10
26.156020686062789
 20
65.066289606977392
 30
0.0
  0
SEQEND
  5
325D
  8
0
  0
LINE
  5
2071
  8
0
 10
26.89267767203393
 20
65.057101430886405
 30
0.0
 11
26.836911908347592
 21
65.057796986167091
 31
0.0
  0
POLYLINE
  5
2072
  8
0
 66
     1
 10
0.0
 20
0.0
 30
0.0
  0
VERTEX
  5
325E
  8
0
 10
27.612042550122169
 20
65.761212520916942
 30
0.0
  0
VERTEX
  5
325F
  8
0
 10
27.50158754333069
 20
65.774216540815914
 30
0.0
  0
VERTEX
  5
3260
  8
0
 10
27.278030552995521
 20
65.800536212828277
 30
0.0
  0
VERTEX
  5
3261
  8
0
 10
27.05080767420213
 20
65.827287474931879
 30
0.0
  0
VERTEX
  5
3262
  8
0
 10
26.93576904179832
 20
65.840831131379716
 30
0.0
  0
SEQEND
  5
3263
  8
0
  0
LINE
  5
2073
  8
0
 10
27.667430117795561
 20
65.754691666379784
 30
0.0
 11
27.612042550122169
 21
65.761212520916942
 31
0.0
  0
POLYLINE
  5
2074
  8
0
 66
     1
 10
0.0
 20
0.0
 30
0.0
  0
VERTEX
  5
3264
  8
0
 10
28.456453890023852
 20
66.379751456951496
 30
0.0
  0
VERTEX
  5
3265
  8
0
 10
28.347963257532861
 20
66.404229931589029
 30
0.0
  0
VERTEX
  5
3266
  8
0
 10
28.12838209065109
 20
66.453773490336673
 30
0.0
  0
VERTEX
  5
3267
  8
0
 10
27.90520023088084
 20
66.50412946456693
 30
0.0
  0
VERTEX
  5
3268
  8
0
 10
27.79220748973745
 20
66.529623738909279
 30
0.0
  0
SEQEND
  5
3269
  8
0
  0
LINE
  5
2075
  8
0
 10
28.510856423902279
 20
66.367476747004829
 30
0.0
 11
28.456453890023852
 21
66.379751456951496
 31
0.0
  0
POLYLINE
  5
2076
  8
0
 66
     1
 10
0.0
 20
0.0
 30
0.0
  0
VERTEX
  5
326A
  8
0
 10
29.36089438070826
 20
66.906636952249997
 30
0.0
  0
VERTEX
  5
326B
  8
0
 10
29.2555567685908
 20
66.942321690335362
 30
0.0
  0
VERTEX
  5
326C
  8
0
 10
29.04235720237677
 20
67.014546326221151
 30
0.0
  0
VERTEX
  5
326D
  8
0
 10
28.825661588788648
 20
67.08795530198681
 30
0.0
  0
VERTEX
  5
326E
  8
0
 10
28.715952711023309
 20
67.125120873618826
 30
0.0
  0
SEQEND
  5
326F
  8
0
  0
LINE
  5
2077
  8
0
 10
29.41371583524603
 20
66.888742871184533
 30
0.0
 11
29.36089438070826
 21
66.906636952249968
 31
0.0
  0
POLYLINE
  5
2078
  8
0
 66
     1
 10
0.0
 20
0.0
 30
0.0
  0
VERTEX
  5
3270
  8
0
 10
30.315454782893031
 20
67.336096339068021
 30
0.0
  0
VERTEX
  5
3271
  8
0
 10
30.214424292070479
 20
67.382596371143379
 30
0.0
  0
VERTEX
  5
3272
  8
0
 10
30.009942185587018
 20
67.476710775942394
 30
0.0
  0
VERTEX
  5
3273
  8
0
 10
29.80210698067026
 20
67.572368469143058
 30
0.0
  0
VERTEX
  5
3274
  8
0
 10
29.69688395970536
 20
67.620798144284663
 30
0.0
  0
SEQEND
  5
3275
  8
0
  0
LINE
  5
2079
  8
0
 10
30.366116435180739
 20
67.312778938180514
 30
0.0
 11
30.315454782893031
 21
67.336096339068021
 31
0.0
  0
POLYLINE
  5
207A
  8
0
 66
     1
 10
0.0
 20
0.0
 30
0.0
  0
VERTEX
  5
3276
  8
0
 10
31.309676733057358
 20
67.663424370493416
 30
0.0
  0
VERTEX
  5
3277
  8
0
 10
31.21406027472921
 20
67.720230232476567
 30
0.0
  0
VERTEX
  5
3278
  8
0
 10
31.020535976725402
 20
67.835203269075166
 30
0.0
  0
VERTEX
  5
3279
  8
0
 10
30.82383826647742
 20
67.952061634006483
 30
0.0
  0
VERTEX
  5
327A
  8
0
 10
30.724253947750011
 20
68.011224807002279
 30
0.0
  0
SEQEND
  5
327B
  8
0
  0
LINE
  5
207B
  8
0
 10
31.357623523430849
 20
67.634939120107546
 30
0.0
 11
31.309676733057358
 21
67.663424370493416
 31
0.0
  0
POLYLINE
  5
207C
  8
0
 66
     1
 10
0.0
 20
0.0
 30
0.0
  0
VERTEX
  5
327C
  8
0
 10
32.332667327460797
 20
67.885034772116157
 30
0.0
  0
VERTEX
  5
327D
  8
0
 10
32.243512495553659
 20
67.951524087095734
 30
0.0
  0
VERTEX
  5
327E
  8
0
 10
32.063066298735919
 20
68.086096086845359
 30
0.0
  0
VERTEX
  5
327F
  8
0
 10
31.879661144431619
 20
68.222874798807055
 30
0.0
  0
VERTEX
  5
3280
  8
0
 10
31.786806594577289
 20
68.292123265552917
 30
0.0
  0
SEQEND
  5
3281
  8
0
  0
LINE
  5
207D
  8
0
 10
32.377373940851207
 20
67.851693762595957
 30
0.0
 11
32.332667327460797
 21
67.885034772116157
 31
0.0
  0
POLYLINE
  5
207E
  8
0
 66
     1
 10
0.0
 20
0.0
 30
0.0
  0
VERTEX
  5
3282
  8
0
 10
33.373218467076583
 20
67.998499534001084
 30
0.0
  0
VERTEX
  5
3283
  8
0
 10
33.291502060585458
 20
68.073943831128602
 30
0.0
  0
VERTEX
  5
3284
  8
0
 10
33.126110971246987
 20
68.226640395038899
 30
0.0
  0
VERTEX
  5
3285
  8
0
 10
32.958007798137203
 20
68.381840877839707
 30
0.0
  0
VERTEX
  5
3286
  8
0
 10
32.872900351035071
 20
68.460415937642878
 30
0.0
  0
SEQEND
  5
3287
  8
0
  0
LINE
  5
207F
  8
0
 10
33.414195088472191
 20
67.960668056423955
 30
0.0
 11
33.373218467076583
 21
67.998499534001084
 31
0.0
  0
ARC
  5
2080
  8
0
 10
33.935461212651937
 20
58.014317890268089
 30
0.0
 40
9.9999999999996714
 50
267.2231132960988
 51
272.77688670390131
  0
ARC
  5
2081
  8
0
 10
33.935461212651887
 20
58.014317890268202
 30
0.0
 40
9.9999999999997922
 50
261.22311329609869
 51
266.77688670390131
  0
ARC
  5
2082
  8
0
 10
33.935461212651738
 20
58.014317890270249
 30
0.0
 40
10.000000000001799
 50
273.22311329609948
 51
278.77688670390091
  0
ARC
  5
2083
  8
0
 10
33.935461212651738
 20
58.014317890267471
 30
0.0
 40
9.9999999999990301
 50
255.22311329609849
 51
260.77688670390143
  0
ARC
  5
2084
  8
0
 10
33.935461212652228
 20
58.014317890267122
 30
0.0
 40
9.9999999999986535
 50
279.22311329609852
 51
284.77688670390148
  0
ARC
  5
2085
  8
0
 10
33.935461212652491
 20
58.014317890270078
 30
0.0
 40
10.00000000000173
 50
249.22311329609931
 51
254.7768867039006
  0
ARC
  5
2086
  8
0
 10
33.93546121265237
 20
58.014317890267002
 30
0.0
 40
9.9999999999985043
 50
285.22311329609857
 51
290.7768867039016
  0
ARC
  5
2087
  8
0
 10
33.935461212651937
 20
58.014317890268423
 30
0.0
 40
9.9999999999999751
 50
243.2231132960986
 51
248.776886703901
  0
ARC
  5
2088
  8
0
 10
33.9354612126522
 20
58.014317890267918
 30
0.0
 40
9.9999999999994174
 50
291.22311329609857
 51
296.77688670390143
  0
ARC
  5
2089
  8
0
 10
33.935461212651433
 20
58.014317890267627
 30
0.0
 40
9.9999999999990621
 50
237.22311329609889
 51
242.7768867039016
  0
ARC
  5
208A
  8
0
 10
33.935461212651717
 20
58.014317890268771
 30
0.0
 40
10.00000000000038
 50
297.22311329609931
 51
302.77688670390108
  0
ARC
  5
208B
  8
0
 10
33.935461212653017
 20
58.014317890269908
 30
0.0
 40
10.000000000001821
 50
231.2231132960992
 51
236.77688670390049
  0
ARC
  5
208C
  8
0
 10
33.93546121265237
 20
58.014317890267797
 30
0.0
 40
9.9999999999992362
 50
303.22311329609852
 51
308.77688670390108
  0
ARC
  5
208D
  8
0
 10
33.935461212651717
 20
58.014317890268202
 30
0.0
 40
9.9999999999997087
 50
225.22311329609849
 51
230.7768867039016
  0
ARC
  5
208E
  8
0
 10
33.93546121265291
 20
58.014317890267399
 30
0.0
 40
9.9999999999985718
 50
309.22311329609812
 51
314.7768867039016
  0
ARC
  5
208F
  8
0
 10
33.93546121265274
 20
58.014317890269169
 30
0.0
 40
10.000000000001091
 50
219.223113296099
 51
224.77688670390069
  0
ARC
  5
2090
  8
0
 10
33.935461212652001
 20
58.014317890268373
 30
0.0
 40
9.9999999999999183
 50
315.22311329609909
 51
320.77688670390131
  0
ARC
  5
2091
  8
0
 10
33.93546121265183
 20
58.014317890268323
 30
0.0
 40
9.9999999999998614
 50
213.2231132960986
 51
218.77688670390091
  0
ARC
  5
2092
  8
0
 10
33.935461212651319
 20
58.014317890268892
 30
0.0
 40
10.00000000000073
 50
321.22311329609909
 51
326.77688670390131
  0
ARC
  5
2093
  8
0
 10
33.935461212651632
 20
58.014317890268259
 30
0.0
 40
9.9999999999996447
 50
207.22311329609869
 51
212.7768867039012
  0
ARC
  5
2094
  8
0
 10
33.935461212649948
 20
58.01431789026956
 30
0.0
 40
10.000000000002281
 50
327.2231132960996
 51
332.7768867039004
  0
ARC
  5
2095
  8
0
 10
33.9354612126522
 20
58.014317890268543
 30
0.0
 40
10.00000000000029
 50
201.2231132960988
 51
206.77688670390029
  0
ARC
  5
2096
  8
0
 10
33.935461212652257
 20
58.014317890268323
 30
0.0
 40
9.9999999999996412
 50
333.2231132960988
 51
338.7768867039012
  0
ARC
  5
2097
  8
0
 10
33.935461212650409
 20
58.014317890267918
 30
0.0
 40
9.9999999999984048
 50
195.22311329609869
 51
200.77688670390179
  0
ARC
  5
2098
  8
0
 10
33.935461212651319
 20
58.014317890268657
 30
0.0
 40
10.00000000000065
 50
339.22311329609897
 51
344.7768867039012
  0
ARC
  5
2099
  8
0
 10
33.93546121265183
 20
58.014317890268423
 30
0.0
 40
9.9999999999998987
 50
189.22311329609821
 51
194.7768867039012
  0
ARC
  5
209A
  8
0
 10
33.935461212652847
 20
58.014317890268259
 30
0.0
 40
9.9999999999990781
 50
345.22311329609869
 51
350.77688670390091
  0
ARC
  5
209B
  8
0
 10
33.935461212651148
 20
58.014317890268323
 30
0.0
 40
9.9999999999992095
 50
183.22311329609821
 51
188.776886703901
  0
ARC
  5
209C
  8
0
 10
33.93546121265183
 20
58.014317890268423
 30
0.0
 40
10.00000000000011
 50
351.22311329609897
 51
356.77688670390091
  0
ARC
  5
209D
  8
0
 10
33.935461212651269
 20
58.014317890268423
 30
0.0
 40
9.9999999999993161
 50
177.22311329609869
 51
182.7768867039012
  0
ARC
  5
209E
  8
0
 10
33.935461212652662
 20
58.014317890268423
 30
0.0
 40
9.9999999999992824
 50
357.22311329609869
 51
2.7768867039020488
  0
ARC
  5
209F
  8
0
 10
33.935461212651582
 20
58.014317890268487
 30
0.0
 40
9.9999999999996358
 50
171.22311329609821
 51
176.77688670390091
  0
ARC
  5
20A0
  8
0
 10
33.935461212652768
 20
58.014317890268543
 30
0.0
 40
9.9999999999991598
 50
3.223113296098238
 51
8.7768867039017913
  0
ARC
  5
20A1
  8
0
 10
33.93546121265183
 20
58.014317890268423
 30
0.0
 40
9.9999999999998952
 50
165.2231132960988
 51
170.77688670390179
  0
ARC
  5
20A2
  8
0
 10
33.935461212652172
 20
58.014317890268423
 30
0.0
 40
9.9999999999997726
 50
9.2231132960981963
 51
14.776886703901219
  0
ARC
  5
20A3
  8
0
 10
33.935461212650303
 20
58.014317890268941
 30
0.0
 40
9.9999999999982716
 50
159.22311329609801
 51
164.77688670390211
  0
ARC
  5
20A4
  8
0
 10
33.935461212653543
 20
58.014317890268941
 30
0.0
 40
9.999999999998316
 50
15.223113296097919
 51
20.77688670390188
  0
ARC
  5
20A5
  8
0
 10
33.935461212652342
 20
58.014317890268202
 30
0.0
 40
10.000000000000449
 50
153.2231132960988
 51
158.77688670390029
  0
ARC
  5
20A6
  8
0
 10
33.935461212651461
 20
58.014317890268202
 30
0.0
 40
10.00000000000051
 50
21.22311329609877
 51
26.776886703901159
  0
ARC
  5
20A7
  8
0
 10
33.93546121264967
 20
58.014317890269737
 30
0.0
 40
9.9999999999973834
 50
147.22311329609781
 51
152.7768867039014
  0
ARC
  5
20A8
  8
0
 10
33.93546121265291
 20
58.014317890268991
 30
0.0
 40
9.9999999999988596
 50
27.223113296098671
 51
32.77688670390144
  0
ARC
  5
20A9
  8
0
 10
33.93546121265269
 20
58.014317890267861
 30
0.0
 40
10.00000000000094
 50
141.22311329609909
 51
146.77688670390049
  0
ARC
  5
20AA
  8
0
 10
33.935461212652712
 20
58.014317890268991
 30
0.0
 40
9.9999999999990408
 50
33.223113296098617
 51
38.776886703901759
  0
ARC
  5
20AB
  8
0
 10
33.935461212651632
 20
58.014317890268707
 30
0.0
 40
9.9999999999995808
 50
135.22311329609909
 51
140.77688670390131
  0
ARC
  5
20AC
  8
0
 10
33.935461212650843
 20
58.014317890267399
 30
0.0
 40
10.00000000000149
 50
39.223113296098937
 51
44.77688670390075
  0
ARC
  5
20AD
  8
0
 10
33.935461212651781
 20
58.014317890268657
 30
0.0
 40
9.9999999999997549
 50
129.22311329609889
 51
134.7768867039014
  0
ARC
  5
20AE
  8
0
 10
33.93546121265166
 20
58.014317890268089
 30
0.0
 40
10.00000000000043
 50
45.223113296098511
 51
50.776886703901027
  0
ARC
  5
20AF
  8
0
 10
33.935461212652228
 20
58.014317890268032
 30
0.0
 40
10.00000000000048
 50
123.2231132960993
 51
128.77688670390091
  0
ARC
  5
20B0
  8
0
 10
33.935461212650637
 20
58.014317890266611
 30
0.0
 40
10.000000000002199
 50
51.2231132960991
 51
56.776886703900502
  0
ARC
  5
20B1
  8
0
 10
33.935461212651433
 20
58.014317890269282
 30
0.0
 40
9.9999999999990177
 50
117.2231132960984
 51
122.7768867039013
  0
ARC
  5
20B2
  8
0
 10
33.935461212652491
 20
58.014317890269339
 30
0.0
 40
9.9999999999988987
 50
57.223113296098681
 51
62.776886703901759
  0
ARC
  5
20B3
  8
0
 10
33.935461212652143
 20
58.014317890267918
 30
0.0
 40
10.00000000000056
 50
111.2231132960989
 51
116.7768867039011
  0
ARC
  5
20B4
  8
0
 10
33.935461212652292
 20
58.014317890269282
 30
0.0
 40
9.9999999999990692
 50
63.223113296098362
 51
68.776886703901397
  0
ARC
  5
20B5
  8
0
 10
33.935461212651887
 20
58.014317890268657
 30
0.0
 40
9.9999999999997957
 50
105.223113296099
 51
110.7768867039013
  0
ARC
  5
20B6
  8
0
 10
33.935461212652292
 20
58.01431789026946
 30
0.0
 40
9.9999999999989448
 50
69.223113296098546
 51
74.776886703901781
  0
ARC
  5
20B7
  8
0
 10
33.935461212651887
 20
58.014317890268707
 30
0.0
 40
9.9999999999996927
 50
99.223113296099044
 51
104.7768867039011
  0
ARC
  5
20B8
  8
0
 10
33.935461212652001
 20
58.014317890268657
 30
0.0
 40
9.9999999999997335
 50
75.22311329609883
 51
80.776886703901326
  0
ARC
  5
20B9
  8
0
 10
33.935461212651781
 20
58.014317890269851
 30
0.0
 40
9.9999999999985665
 50
93.223113296098461
 51
98.776886703901454
  0
ARC
  5
20BA
  8
0
 10
33.935461212652029
 20
58.01431789026946
 30
0.0
 40
9.9999999999989662
 50
81.223113296098333
 51
86.776886703901496
  0
ARC
  5
20BC
  8
0
 10
33.935461212651937
 20
58.01431789026968
 30
0.0
 40
9.9999999999987814
 50
87.223113296098319
 51
92.77688670390144
  0
CIRCLE
  5
20DD
  8
0
 10
33.935461212651923
 20
58.014317890268423
 30
0.0
 40
5.0
  0
CIRCLE
  5
20DF
  8
0
 10
33.935461212651923
 20
58.014317890268423
 30
0.0
 40
2.5
  0
LINE
  5
20E0
  8
0
 10
98.315024500239261
 20
90.866063417396475
 30
0.0
 11
93.315024500239247
 21
90.866063417396475
 31
0.0
  0
LINE
  5
20E1
  8
0
 10
98.315024500239261
 20
102.8660634173965
 30
0.0
 11
93.315024500239247
 21
102.8660634173965
 31
0.0
  0
LINE
  5
2743
  8
0
 10
33.935461212651937
 20
64.942521120543901
 30
0.0
 11
39.935461212651923
 21
61.47841950540618
 31
0.0
  0
LINE
  5
2744
  8
0
 10
39.935461212651923
 20
61.47841950540618
 30
0.0
 11
39.935461212651923
 21
54.550216275130651
 31
0.0
  0
LINE
  5
2745
  8
0
 10
39.935461212651923
 20
54.550216275130651
 30
0.0
 11
33.935461212651937
 21
51.086114659992901
 31
0.0
  0
LINE
  5
2746
  8
0
 10
33.935461212651937
 20
51.086114659992901
 30
0.0
 11
27.935461212651919
 21
54.55021627513068
 31
0.0
  0
CIRCLE
  5
2837
  8
3
 10
33.935461212651937
 20
58.014317890268423
 30
0.0
 40
4.3865000000000052
  0
LINE
  5
2838
  8
0
 10
27.935461212651941
 20
61.478419505406258
 30
0.0
 11
27.93546121265183
 21
54.550216275130722
 31
0.0
  0
LINE
  5
2839
  8
0
 10
33.935461212651937
 20
64.942521120543901
 30
0.0
 11
27.935461212651941
 21
61.478419505406258
 31
0.0
  0
ARC
  5
2989
  8
0
 10
158.52016106973039
 20
58.01431789026968
 30
0.0
 40
9.9999999999987814
 50
87.223113296098319
 51
92.77688670390144
  0
ARC
  5
298A
  8
0
 10
158.52016106973051
 20
58.01431789026946
 30
0.0
 40
9.9999999999989662
 50
81.223113296098333
 51
86.776886703901496
  0
ARC
  5
298B
  8
0
 10
158.52016106973019
 20
58.014317890269851
 30
0.0
 40
9.9999999999985665
 50
93.223113296098461
 51
98.776886703901454
  0
ARC
  5
298C
  8
0
 10
158.52016106973039
 20
58.014317890268657
 30
0.0
 40
9.9999999999997335
 50
75.22311329609883
 51
80.776886703901326
  0
ARC
  5
298D
  8
0
 10
158.52016106973031
 20
58.014317890268707
 30
0.0
 40
9.9999999999996927
 50
99.223113296099044
 51
104.7768867039011
  0
ARC
  5
298E
  8
0
 10
158.5201610697307
 20
58.01431789026946
 30
0.0
 40
9.9999999999989448
 50
69.223113296098546
 51
74.776886703901781
  0
ARC
  5
298F
  8
0
 10
158.52016106973031
 20
58.014317890268657
 30
0.0
 40
9.9999999999997957
 50
105.223113296099
 51
110.7768867039013
  0
ARC
  5
2990
  8
0
 10
158.5201610697307
 20
58.014317890269282
 30
0.0
 40
9.9999999999990692
 50
63.223113296098362
 51
68.776886703901397
  0
ARC
  5
2991
  8
0
 10
158.52016106973059
 20
58.014317890267918
 30
0.0
 40
10.00000000000056
 50
111.2231132960989
 51
116.7768867039011
  0
ARC
  5
2992
  8
0
 10
158.5201610697309
 20
58.014317890269339
 30
0.0
 40
9.9999999999988987
 50
57.223113296098681
 51
62.776886703901759
  0
ARC
  5
2993
  8
0
 10
158.52016106972991
 20
58.014317890269282
 30
0.0
 40
9.9999999999990177
 50
117.2231132960984
 51
122.7768867039013
  0
ARC
  5
2994
  8
0
 10
158.52016106972911
 20
58.014317890266611
 30
0.0
 40
10.000000000002199
 50
51.2231132960991
 51
56.776886703900502
  0
ARC
  5
2995
  8
0
 10
158.5201610697307
 20
58.014317890268032
 30
0.0
 40
10.00000000000048
 50
123.2231132960993
 51
128.77688670390091
  0
ARC
  5
2996
  8
0
 10
158.52016106973011
 20
58.014317890268089
 30
0.0
 40
10.00000000000043
 50
45.223113296098511
 51
50.776886703901027
  0
ARC
  5
2997
  8
0
 10
158.52016106973019
 20
58.014317890268657
 30
0.0
 40
9.9999999999997549
 50
129.22311329609889
 51
134.7768867039014
  0
ARC
  5
2998
  8
0
 10
158.52016106972931
 20
58.014317890267399
 30
0.0
 40
10.00000000000149
 50
39.223113296098937
 51
44.77688670390075
  0
ARC
  5
2999
  8
0
 10
158.52016106973011
 20
58.014317890268707
 30
0.0
 40
9.9999999999995808
 50
135.22311329609909
 51
140.77688670390131
  0
ARC
  5
299A
  8
0
 10
158.52016106973119
 20
58.014317890268991
 30
0.0
 40
9.9999999999990408
 50
33.223113296098617
 51
38.776886703901759
  0
ARC
  5
299B
  8
0
 10
158.5201610697311
 20
58.014317890267861
 30
0.0
 40
10.00000000000094
 50
141.22311329609909
 51
146.77688670390049
  0
ARC
  5
299C
  8
0
 10
158.52016106973139
 20
58.014317890268991
 30
0.0
 40
9.9999999999988596
 50
27.223113296098671
 51
32.77688670390144
  0
ARC
  5
299D
  8
0
 10
158.52016106972809
 20
58.014317890269737
 30
0.0
 40
9.9999999999973834
 50
147.22311329609781
 51
152.7768867039014
  0
ARC
  5
299E
  8
0
 10
158.52016106972991
 20
58.014317890268202
 30
0.0
 40
10.00000000000051
 50
21.22311329609877
 51
26.776886703901159
  0
ARC
  5
299F
  8
0
 10
158.52016106973079
 20
58.014317890268202
 30
0.0
 40
10.000000000000449
 50
153.2231132960988
 51
158.77688670390029
  0
ARC
  5
29A0
  8
0
 10
158.52016106973201
 20
58.014317890268941
 30
0.0
 40
9.999999999998316
 50
15.223113296097919
 51
20.77688670390188
  0
ARC
  5
29A1
  8
0
 10
158.52016106972869
 20
58.014317890268941
 30
0.0
 40
9.9999999999982716
 50
159.22311329609801
 51
164.77688670390211
  0
ARC
  5
29A2
  8
0
 10
158.52016106973059
 20
58.014317890268423
 30
0.0
 40
9.9999999999997726
 50
9.2231132960981963
 51
14.776886703901219
  0
ARC
  5
29A3
  8
0
 10
158.52016106973031
 20
58.014317890268423
 30
0.0
 40
9.9999999999998952
 50
165.2231132960988
 51
170.77688670390179
  0
ARC
  5
29A4
  8
0
 10
158.52016106973119
 20
58.014317890268543
 30
0.0
 40
9.9999999999991598
 50
3.223113296098238
 51
8.7768867039017913
  0
ARC
  5
29A5
  8
0
 10
158.52016106972999
 20
58.014317890268487
 30
0.0
 40
9.9999999999996358
 50
171.22311329609821
 51
176.77688670390091
  0
ARC
  5
29A6
  8
0
 10
158.5201610697311
 20
58.014317890268423
 30
0.0
 40
9.9999999999992824
 50
357.22311329609869
 51
2.7768867039020488
  0
ARC
  5
29A7
  8
0
 10
158.52016106972971
 20
58.014317890268423
 30
0.0
 40
9.9999999999993161
 50
177.22311329609869
 51
182.7768867039012
  0
ARC
  5
29A8
  8
0
 10
158.52016106973031
 20
58.014317890268423
 30
0.0
 40
10.00000000000011
 50
351.22311329609897
 51
356.77688670390091
  0
ARC
  5
29A9
  8
0
 10
158.5201610697296
 20
58.014317890268323
 30
0.0
 40
9.9999999999992095
 50
183.22311329609821
 51
188.776886703901
  0
ARC
  5
29AA
  8
0
 10
158.5201610697313
 20
58.014317890268259
 30
0.0
 40
9.9999999999990781
 50
345.22311329609869
 51
350.77688670390091
  0
ARC
  5
29AB
  8
0
 10
158.52016106973031
 20
58.014317890268423
 30
0.0
 40
9.9999999999998987
 50
189.22311329609821
 51
194.7768867039012
  0
ARC
  5
29AC
  8
0
 10
158.5201610697298
 20
58.014317890268657
 30
0.0
 40
10.00000000000065
 50
339.22311329609897
 51
344.7768867039012
  0
ARC
  5
29AD
  8
0
 10
158.5201610697288
 20
58.014317890267918
 30
0.0
 40
9.9999999999984048
 50
195.22311329609869
 51
200.77688670390179
  0
ARC
  5
29AE
  8
0
 10
158.5201610697307
 20
58.014317890268323
 30
0.0
 40
9.9999999999996412
 50
333.2231132960988
 51
338.7768867039012
  0
ARC
  5
29AF
  8
0
 10
158.5201610697307
 20
58.014317890268543
 30
0.0
 40
10.00000000000029
 50
201.2231132960988
 51
206.77688670390029
  0
ARC
  5
29B0
  8
0
 10
158.5201610697284
 20
58.01431789026956
 30
0.0
 40
10.000000000002281
 50
327.2231132960996
 51
332.7768867039004
  0
ARC
  5
29B1
  8
0
 10
158.52016106973011
 20
58.014317890268259
 30
0.0
 40
9.9999999999996447
 50
207.22311329609869
 51
212.7768867039012
  0
ARC
  5
29B2
  8
0
 10
158.5201610697298
 20
58.014317890268892
 30
0.0
 40
10.00000000000073
 50
321.22311329609909
 51
326.77688670390131
  0
ARC
  5
29B3
  8
0
 10
158.52016106973031
 20
58.014317890268323
 30
0.0
 40
9.9999999999998614
 50
213.2231132960986
 51
218.77688670390091
  0
ARC
  5
29B4
  8
0
 10
158.52016106973039
 20
58.014317890268373
 30
0.0
 40
9.9999999999999183
 50
315.22311329609909
 51
320.77688670390131
  0
ARC
  5
29B5
  8
0
 10
158.52016106973119
 20
58.014317890269169
 30
0.0
 40
10.000000000001091
 50
219.223113296099
 51
224.77688670390069
  0
ARC
  5
29B6
  8
0
 10
158.52016106973139
 20
58.014317890267399
 30
0.0
 40
9.9999999999985718
 50
309.22311329609812
 51
314.7768867039016
  0
ARC
  5
29B7
  8
0
 10
158.52016106973019
 20
58.014317890268202
 30
0.0
 40
9.9999999999997087
 50
225.22311329609849
 51
230.7768867039016
  0
ARC
  5
29B8
  8
0
 10
158.52016106973079
 20
58.014317890267797
 30
0.0
 40
9.9999999999992362
 50
303.22311329609852
 51
308.77688670390108
  0
ARC
  5
29B9
  8
0
 10
158.5201610697315
 20
58.014317890269908
 30
0.0
 40
10.000000000001821
 50
231.2231132960992
 51
236.77688670390049
  0
ARC
  5
29BA
  8
0
 10
158.52016106973019
 20
58.014317890268771
 30
0.0
 40
10.00000000000038
 50
297.22311329609931
 51
302.77688670390108
  0
ARC
  5
29BB
  8
0
 10
158.52016106972991
 20
58.014317890267627
 30
0.0
 40
9.9999999999990621
 50
237.22311329609889
 51
242.7768867039016
  0
ARC
  5
29BC
  8
0
 10
158.5201610697307
 20
58.014317890267918
 30
0.0
 40
9.9999999999994174
 50
291.22311329609857
 51
296.77688670390143
  0
ARC
  5
29BD
  8
0
 10
158.52016106973039
 20
58.014317890268423
 30
0.0
 40
9.9999999999999751
 50
243.2231132960986
 51
248.776886703901
  0
ARC
  5
29BE
  8
0
 10
158.52016106973079
 20
58.014317890267002
 30
0.0
 40
9.9999999999985043
 50
285.22311329609857
 51
290.7768867039016
  0
ARC
  5
29BF
  8
0
 10
158.5201610697309
 20
58.014317890270078
 30
0.0
 40
10.00000000000173
 50
249.22311329609931
 51
254.7768867039006
  0
ARC
  5
29C0
  8
0
 10
158.5201610697307
 20
58.014317890267122
 30
0.0
 40
9.9999999999986535
 50
279.22311329609852
 51
284.77688670390148
  0
ARC
  5
29C1
  8
0
 10
158.52016106973019
 20
58.014317890267471
 30
0.0
 40
9.9999999999990301
 50
255.22311329609849
 51
260.77688670390143
  0
ARC
  5
29C2
  8
0
 10
158.52016106973019
 20
58.014317890270249
 30
0.0
 40
10.000000000001799
 50
273.22311329609948
 51
278.77688670390091
  0
ARC
  5
29C3
  8
0
 10
158.52016106973031
 20
58.014317890268202
 30
0.0
 40
9.9999999999997922
 50
261.22311329609869
 51
266.77688670390131
  0
ARC
  5
29C4
  8
0
 10
158.52016106973039
 20
58.014317890268089
 30
0.0
 40
9.9999999999996714
 50
267.2231132960988
 51
272.77688670390131
  0
LINE
  5
29C5
  8
0
 10
157.9988949455506
 20
67.960668056423955
 30
0.0
 11
157.957918324155
 21
67.998499534001084
 31
0.0
  0
POLYLINE
  5
29C6
  8
0
 66
     1
 10
0.0
 20
0.0
 30
0.0
  0
VERTEX
  5
3288
  8
0
 10
157.957918324155
 20
67.998499534001084
 30
0.0
  0
VERTEX
  5
3289
  8
0
 10
157.87620191766391
 20
68.073943831128602
 30
0.0
  0
VERTEX
  5
328A
  8
0
 10
157.71081082832549
 20
68.226640395038899
 30
0.0
  0
VERTEX
  5
328B
  8
0
 10
157.54270765521559
 20
68.381840877839707
 30
0.0
  0
VERTEX
  5
328C
  8
0
 10
157.45760020811349
 20
68.460415937642878
 30
0.0
  0
SEQEND
  5
328D
  8
0
  0
LINE
  5
29C7
  8
0
 10
156.96207379792969
 20
67.851693762595957
 30
0.0
 11
156.91736718453919
 21
67.885034772116157
 31
0.0
  0
POLYLINE
  5
29C8
  8
0
 66
     1
 10
0.0
 20
0.0
 30
0.0
  0
VERTEX
  5
328E
  8
0
 10
156.91736718453919
 20
67.885034772116157
 30
0.0
  0
VERTEX
  5
328F
  8
0
 10
156.82821235263211
 20
67.951524087095734
 30
0.0
  0
VERTEX
  5
3290
  8
0
 10
156.6477661558144
 20
68.086096086845359
 30
0.0
  0
VERTEX
  5
3291
  8
0
 10
156.4643610015101
 20
68.222874798807055
 30
0.0
  0
VERTEX
  5
3292
  8
0
 10
156.3715064516557
 20
68.292123265552917
 30
0.0
  0
SEQEND
  5
3293
  8
0
  0
LINE
  5
29C9
  8
0
 10
155.94232338050929
 20
67.634939120107546
 30
0.0
 11
155.89437659013581
 21
67.663424370493416
 31
0.0
  0
POLYLINE
  5
29CA
  8
0
 66
     1
 10
0.0
 20
0.0
 30
0.0
  0
VERTEX
  5
3294
  8
0
 10
155.89437659013581
 20
67.663424370493416
 30
0.0
  0
VERTEX
  5
3295
  8
0
 10
155.79876013180771
 20
67.720230232476567
 30
0.0
  0
VERTEX
  5
3296
  8
0
 10
155.6052358338039
 20
67.835203269075166
 30
0.0
  0
VERTEX
  5
3297
  8
0
 10
155.4085381235559
 20
67.952061634006483
 30
0.0
  0
VERTEX
  5
3298
  8
0
 10
155.30895380482849
 20
68.011224807002279
 30
0.0
  0
SEQEND
  5
3299
  8
0
  0
LINE
  5
29CB
  8
0
 10
154.95081629225919
 20
67.312778938180514
 30
0.0
 11
154.9001546399715
 21
67.336096339068021
 31
0.0
  0
POLYLINE
  5
29CC
  8
0
 66
     1
 10
0.0
 20
0.0
 30
0.0
  0
VERTEX
  5
329A
  8
0
 10
154.9001546399715
 20
67.336096339068021
 30
0.0
  0
VERTEX
  5
329B
  8
0
 10
154.79912414914889
 20
67.382596371143379
 30
0.0
  0
VERTEX
  5
329C
  8
0
 10
154.5946420426655
 20
67.476710775942394
 30
0.0
  0
VERTEX
  5
329D
  8
0
 10
154.38680683774871
 20
67.572368469143058
 30
0.0
  0
VERTEX
  5
329E
  8
0
 10
154.28158381678381
 20
67.620798144284663
 30
0.0
  0
SEQEND
  5
329F
  8
0
  0
LINE
  5
29CD
  8
0
 10
153.9984156923245
 20
66.888742871184533
 30
0.0
 11
153.94559423778671
 21
66.906636952249968
 31
0.0
  0
POLYLINE
  5
29CE
  8
0
 66
     1
 10
0.0
 20
0.0
 30
0.0
  0
VERTEX
  5
32A0
  8
0
 10
153.94559423778671
 20
66.906636952249997
 30
0.0
  0
VERTEX
  5
32A1
  8
0
 10
153.84025662566921
 20
66.942321690335362
 30
0.0
  0
VERTEX
  5
32A2
  8
0
 10
153.62705705945521
 20
67.014546326221151
 30
0.0
  0
VERTEX
  5
32A3
  8
0
 10
153.4103614458671
 20
67.08795530198681
 30
0.0
  0
VERTEX
  5
32A4
  8
0
 10
153.30065256810181
 20
67.125120873618826
 30
0.0
  0
SEQEND
  5
32A5
  8
0
  0
LINE
  5
29CF
  8
0
 10
153.0955562809807
 20
66.367476747004829
 30
0.0
 11
153.0411537471023
 21
66.379751456951496
 31
0.0
  0
POLYLINE
  5
29D0
  8
0
 66
     1
 10
0.0
 20
0.0
 30
0.0
  0
VERTEX
  5
32A6
  8
0
 10
153.0411537471023
 20
66.379751456951496
 30
0.0
  0
VERTEX
  5
32A7
  8
0
 10
152.9326631146113
 20
66.404229931589029
 30
0.0
  0
VERTEX
  5
32A8
  8
0
 10
152.71308194772951
 20
66.453773490336673
 30
0.0
  0
VERTEX
  5
32A9
  8
0
 10
152.48990008795931
 20
66.50412946456693
 30
0.0
  0
VERTEX
  5
32AA
  8
0
 10
152.3769073468159
 20
66.529623738909279
 30
0.0
  0
SEQEND
  5
32AB
  8
0
  0
LINE
  5
29D1
  8
0
 10
152.25212997487401
 20
65.754691666379784
 30
0.0
 11
152.19674240720059
 21
65.761212520916942
 31
0.0
  0
POLYLINE
  5
29D2
  8
0
 66
     1
 10
0.0
 20
0.0
 30
0.0
  0
VERTEX
  5
32AC
  8
0
 10
152.19674240720059
 20
65.761212520916942
 30
0.0
  0
VERTEX
  5
32AD
  8
0
 10
152.08628740040911
 20
65.774216540815914
 30
0.0
  0
VERTEX
  5
32AE
  8
0
 10
151.86273041007399
 20
65.800536212828277
 30
0.0
  0
VERTEX
  5
32AF
  8
0
 10
151.63550753128061
 20
65.827287474931879
 30
0.0
  0
VERTEX
  5
32B0
  8
0
 10
151.5204688988768
 20
65.840831131379716
 30
0.0
  0
SEQEND
  5
32B1
  8
0
  0
LINE
  5
29D3
  8
0
 10
151.4773775291124
 20
65.057101430886405
 30
0.0
 11
151.42161176542601
 21
65.057796986167091
 31
0.0
  0
POLYLINE
  5
29D4
  8
0
 66
     1
 10
0.0
 20
0.0
 30
0.0
  0
VERTEX
  5
32B2
  8
0
 10
151.42161176542601
 20
65.057796986167062
 30
0.0
  0
VERTEX
  5
32B3
  8
0
 10
151.3104025525025
 20
65.059184076564264
 30
0.0
  0
VERTEX
  5
32B4
  8
0
 10
151.08531907588241
 20
65.061991498006989
 30
0.0
  0
VERTEX
  5
32B5
  8
0
 10
150.85654467947569
 20
65.064844955558215
 30
0.0
  0
VERTEX
  5
32B6
  8
0
 10
150.74072054314121
 20
65.066289606977392
 30
0.0
  0
SEQEND
  5
32B7
  8
0
  0
LINE
  5
29D5
  8
0
 10
150.77978729361899
 20
64.282348985124827
 30
0.0
 11
150.72425431529641
 21
64.27721162049977
 31
0.0
  0
POLYLINE
  5
29D6
  8
0
 66
     1
 10
0.0
 20
0.0
 30
0.0
  0
VERTEX
  5
32B8
  8
0
 10
150.72425431529641
 20
64.277211620499742
 30
0.0
  0
VERTEX
  5
32B9
  8
0
 10
150.61350932764961
 20
64.266966584142523
 30
0.0
  0
VERTEX
  5
32BA
  8
0
 10
150.38936542641599
 20
64.246230996318786
 30
0.0
  0
VERTEX
  5
32BB
  8
0
 10
150.1615460125571
 20
64.225155386239607
 30
0.0
  0
VERTEX
  5
32BC
  8
0
 10
150.04620536576769
 20
64.214485204726827
 30
0.0
  0
SEQEND
  5
32BD
  8
0
  0
LINE
  5
29D7
  8
0
 10
150.16700221299399
 20
63.438922679018113
 30
0.0
 11
150.11231045096659
 21
63.428008680529267
 31
0.0
  0
POLYLINE
  5
29D8
  8
0
 66
     1
 10
0.0
 20
0.0
 30
0.0
  0
VERTEX
  5
32BE
  8
0
 10
150.11231045096659
 20
63.428008680529253
 30
0.0
  0
VERTEX
  5
32BF
  8
0
 10
150.00324303385611
 20
63.406243764179827
 30
0.0
  0
VERTEX
  5
32C0
  8
0
 10
149.78249447549641
 20
63.362192350529028
 30
0.0
  0
VERTEX
  5
32C1
  8
0
 10
149.5581260813577
 20
63.31741858161385
 30
0.0
  0
VERTEX
  5
32C2
  8
0
 10
149.4445326203759
 20
63.294750471910618
 30
0.0
  0
SEQEND
  5
32C3
  8
0
  0
LINE
  5
29D9
  8
0
 10
149.6457360888142
 20
62.536063267674308
 30
0.0
 11
149.59248475747199
 21
62.519492211373013
 31
0.0
  0
POLYLINE
  5
29DA
  8
0
 66
     1
 10
0.0
 20
0.0
 30
0.0
  0
VERTEX
  5
32C4
  8
0
 10
149.59248475747199
 20
62.519492211373013
 30
0.0
  0
VERTEX
  5
32C5
  8
0
 10
149.48628987634351
 20
62.486445876009547
 30
0.0
  0
VERTEX
  5
32C6
  8
0
 10
149.27135522825731
 20
62.419561273037999
 30
0.0
  0
VERTEX
  5
32C7
  8
0
 10
149.05289608091709
 20
62.351579896068529
 30
0.0
  0
VERTEX
  5
32C8
  8
0
 10
148.9422943594727
 20
62.317162214728398
 30
0.0
  0
SEQEND
  5
32C9
  8
0
  0
LINE
  5
29DB
  8
0
 10
149.22170002181821
 20
61.583662667739638
 30
0.0
 11
149.1704725538907
 21
61.561616109586453
 31
0.0
  0
POLYLINE
  5
29DC
  8
0
 66
     1
 10
0.0
 20
0.0
 30
0.0
  0
VERTEX
  5
32CA
  8
0
 10
149.1704725538907
 20
61.561616109586453
 30
0.0
  0
VERTEX
  5
32CB
  8
0
 10
149.06831370208471
 20
61.517650417774547
 30
0.0
  0
VERTEX
  5
32CC
  8
0
 10
148.86154783325449
 20
61.428665427188889
 30
0.0
  0
VERTEX
  5
32CD
  8
0
 10
148.65139141684659
 20
61.338221260357187
 30
0.0
  0
VERTEX
  5
32CE
  8
0
 10
148.5449932105445
 20
61.29243109469931
 30
0.0
  0
SEQEND
  5
32CF
  8
0
  0
LINE
  5
29DD
  8
0
 10
148.8995398398913
 20
60.592155579489543
 30
0.0
 11
148.85089749423719
 21
60.564875066189131
 31
0.0
  0
POLYLINE
  5
29DE
  8
0
 66
     1
 10
0.0
 20
0.0
 30
0.0
  0
VERTEX
  5
32D0
  8
0
 10
148.85089749423719
 20
60.564875066189131
 30
0.0
  0
VERTEX
  5
32D1
  8
0
 10
148.75389394551181
 20
60.510471715248627
 30
0.0
  0
VERTEX
  5
32D2
  8
0
 10
148.55756222606519
 20
60.400361275227077
 30
0.0
  0
VERTEX
  5
32D3
  8
0
 10
148.35801105826599
 20
60.288445243751731
 30
0.0
  0
VERTEX
  5
32D4
  8
0
 10
148.25698208811951
 20
60.231784280413187
 30
0.0
  0
SEQEND
  5
32D5
  8
0
  0
LINE
  5
29DF
  8
0
 10
148.68278519740281
 20
59.572405162069117
 30
0.0
 11
148.63726090974021
 21
59.540189584634049
 31
0.0
  0
POLYLINE
  5
29E0
  8
0
 66
     1
 10
0.0
 20
0.0
 30
0.0
  0
VERTEX
  5
32D6
  8
0
 10
148.63726090974021
 20
59.540189584634049
 30
0.0
  0
VERTEX
  5
32D7
  8
0
 10
148.5464754552749
 20
59.47594462906261
 30
0.0
  0
VERTEX
  5
32D8
  8
0
 10
148.3627289366151
 20
59.345915132628022
 30
0.0
  0
VERTEX
  5
32D9
  8
0
 10
148.17596934177749
 20
59.213753411969691
 30
0.0
  0
VERTEX
  5
32DA
  8
0
 10
148.0814165023254
 20
59.14684244032199
 30
0.0
  0
SEQEND
  5
32DB
  8
0
  0
LINE
  5
29E1
  8
0
 10
148.57381090357481
 20
58.535584014448141
 30
0.0
 11
148.53190344752591
 21
58.498786333486287
 31
0.0
  0
POLYLINE
  5
29E2
  8
0
 66
     1
 10
0.0
 20
0.0
 30
0.0
  0
VERTEX
  5
32DC
  8
0
 10
148.53190344752591
 20
58.498786333486287
 30
0.0
  0
VERTEX
  5
32DD
  8
0
 10
148.44833075175779
 20
58.425403654461228
 30
0.0
  0
VERTEX
  5
32DE
  8
0
 10
148.2791825991946
 20
58.276879731987009
 30
0.0
  0
VERTEX
  5
32DF
  8
0
 10
148.1072607545218
 20
58.125920313613904
 30
0.0
  0
VERTEX
  5
32E0
  8
0
 10
148.02021998645961
 20
58.0494924242644
 30
0.0
  0
SEQEND
  5
32E1
  8
0
  0
LINE
  5
29E3
  8
0
 10
148.57381090357481
 20
57.493051766088684
 30
0.0
 11
148.53597942599771
 21
57.452075144693133
 31
0.0
  0
POLYLINE
  5
29E4
  8
0
 66
     1
 10
0.0
 20
0.0
 30
0.0
  0
VERTEX
  5
32E2
  8
0
 10
148.53597942599771
 20
57.452075144693111
 30
0.0
  0
VERTEX
  5
32E3
  8
0
 10
148.46053512887039
 20
57.370358738202128
 30
0.0
  0
VERTEX
  5
32E4
  8
0
 10
148.30783856496001
 20
57.204967648863601
 30
0.0
  0
VERTEX
  5
32E5
  8
0
 10
148.152638082159
 20
57.036864475753703
 30
0.0
  0
VERTEX
  5
32E6
  8
0
 10
148.07406302235589
 20
56.951757028651599
 30
0.0
  0
SEQEND
  5
32E7
  8
0
  0
LINE
  5
29E5
  8
0
 10
148.68278519740281
 20
56.456230618467771
 30
0.0
 11
148.64944418788261
 21
56.411524005077347
 31
0.0
  0
POLYLINE
  5
29E6
  8
0
 66
     1
 10
0.0
 20
0.0
 30
0.0
  0
VERTEX
  5
32E8
  8
0
 10
148.64944418788261
 20
56.411524005077318
 30
0.0
  0
VERTEX
  5
32E9
  8
0
 10
148.58295487290309
 20
56.322369173170223
 30
0.0
  0
VERTEX
  5
32EA
  8
0
 10
148.44838287315349
 20
56.141922976352483
 30
0.0
  0
VERTEX
  5
32EB
  8
0
 10
148.31160416119181
 20
55.958517822048172
 30
0.0
  0
VERTEX
  5
32EC
  8
0
 10
148.24235569444591
 20
55.865663272193807
 30
0.0
  0
SEQEND
  5
32ED
  8
0
  0
LINE
  5
29E7
  8
0
 10
148.8995398398913
 20
55.436480201047338
 30
0.0
 11
148.87105458950529
 21
55.388533410673858
 31
0.0
  0
POLYLINE
  5
29E8
  8
0
 66
     1
 10
0.0
 20
0.0
 30
0.0
  0
VERTEX
  5
32EE
  8
0
 10
148.87105458950529
 20
55.388533410673858
 30
0.0
  0
VERTEX
  5
32EF
  8
0
 10
148.81424872752231
 20
55.292916952345848
 30
0.0
  0
VERTEX
  5
32F0
  8
0
 10
148.6992756909236
 20
55.099392654341898
 30
0.0
  0
VERTEX
  5
32F1
  8
0
 10
148.5824173259922
 20
54.902694944093781
 30
0.0
  0
VERTEX
  5
32F2
  8
0
 10
148.52325415299649
 20
54.803110625366571
 30
0.0
  0
SEQEND
  5
32F3
  8
0
  0
LINE
  5
29E9
  8
0
 10
149.22170002181821
 20
54.444973112797243
 30
0.0
 11
149.1983826209308
 21
54.394311460509577
 31
0.0
  0
POLYLINE
  5
29EA
  8
0
 66
     1
 10
0.0
 20
0.0
 30
0.0
  0
VERTEX
  5
32F4
  8
0
 10
149.1983826209308
 20
54.394311460509577
 30
0.0
  0
VERTEX
  5
32F5
  8
0
 10
149.15188258885539
 20
54.293280969687032
 30
0.0
  0
VERTEX
  5
32F6
  8
0
 10
149.05776818405641
 20
54.088798863203522
 30
0.0
  0
VERTEX
  5
32F7
  8
0
 10
148.96211049085571
 20
53.88096365828676
 30
0.0
  0
VERTEX
  5
32F8
  8
0
 10
148.91368081571409
 20
53.775740637321888
 30
0.0
  0
SEQEND
  5
32F9
  8
0
  0
LINE
  5
29EB
  8
0
 10
149.6457360888142
 20
53.49257251286258
 30
0.0
 11
149.6278420077488
 21
53.439751058324759
 31
0.0
  0
POLYLINE
  5
29EC
  8
0
 66
     1
 10
0.0
 20
0.0
 30
0.0
  0
VERTEX
  5
32FA
  8
0
 10
149.6278420077488
 20
53.439751058324759
 30
0.0
  0
VERTEX
  5
32FB
  8
0
 10
149.5921572696634
 20
53.334413446207201
 30
0.0
  0
VERTEX
  5
32FC
  8
0
 10
149.51993263377759
 20
53.121213879993292
 30
0.0
  0
VERTEX
  5
32FD
  8
0
 10
149.44652365801201
 20
52.90451826640524
 30
0.0
  0
VERTEX
  5
32FE
  8
0
 10
149.40935808638
 20
52.794809388639798
 30
0.0
  0
SEQEND
  5
32FF
  8
0
  0
LINE
  5
29ED
  8
0
 10
150.16700221299399
 20
52.589713101518782
 30
0.0
 11
150.1547275030473
 21
52.535310567640408
 31
0.0
  0
POLYLINE
  5
29EE
  8
0
 66
     1
 10
0.0
 20
0.0
 30
0.0
  0
VERTEX
  5
3300
  8
0
 10
150.1547275030473
 20
52.53531056764038
 30
0.0
  0
VERTEX
  5
3301
  8
0
 10
150.13024902840979
 20
52.426819935149439
 30
0.0
  0
VERTEX
  5
3302
  8
0
 10
150.08070546966209
 20
52.207238768267644
 30
0.0
  0
VERTEX
  5
3303
  8
0
 10
150.03034949543189
 20
51.984056908497308
 30
0.0
  0
VERTEX
  5
3304
  8
0
 10
150.00485522108951
 20
51.87106416735395
 30
0.0
  0
SEQEND
  5
3305
  8
0
  0
LINE
  5
29EF
  8
0
 10
150.77978729361899
 20
51.746286795412061
 30
0.0
 11
150.77326643908191
 21
51.690899227738718
 31
0.0
  0
POLYLINE
  5
29F0
  8
0
 66
     1
 10
0.0
 20
0.0
 30
0.0
  0
VERTEX
  5
3306
  8
0
 10
150.77326643908191
 20
51.690899227738718
 30
0.0
  0
VERTEX
  5
3307
  8
0
 10
150.76026241918291
 20
51.58044422094715
 30
0.0
  0
VERTEX
  5
3308
  8
0
 10
150.73394274717049
 20
51.356887230611783
 30
0.0
  0
VERTEX
  5
3309
  8
0
 10
150.70719148506689
 20
51.129664351818462
 30
0.0
  0
VERTEX
  5
330A
  8
0
 10
150.69364782861899
 20
51.014625719414823
 30
0.0
  0
SEQEND
  5
330B
  8
0
  0
LINE
  5
29F1
  8
0
 10
151.4773775291124
 20
50.971534349650433
 30
0.0
 11
151.47668197383169
 21
50.915768585964152
 31
0.0
  0
POLYLINE
  5
29F2
  8
0
 66
     1
 10
0.0
 20
0.0
 30
0.0
  0
VERTEX
  5
330C
  8
0
 10
151.47668197383169
 20
50.915768585964152
 30
0.0
  0
VERTEX
  5
330D
  8
0
 10
151.4752948834346
 20
50.80455937304049
 30
0.0
  0
VERTEX
  5
330E
  8
0
 10
151.47248746199179
 20
50.579475896420227
 30
0.0
  0
VERTEX
  5
330F
  8
0
 10
151.46963400444059
 20
50.350701500013542
 30
0.0
  0
VERTEX
  5
3310
  8
0
 10
151.46818935302139
 20
50.234877363679338
 30
0.0
  0
SEQEND
  5
3311
  8
0
  0
LINE
  5
29F3
  8
0
 10
152.25212997487401
 20
50.273944114157018
 30
0.0
 11
152.25726733949909
 21
50.218411135834451
 31
0.0
  0
POLYLINE
  5
29F4
  8
0
 66
     1
 10
0.0
 20
0.0
 30
0.0
  0
VERTEX
  5
3312
  8
0
 10
152.25726733949909
 20
50.218411135834451
 30
0.0
  0
VERTEX
  5
3313
  8
0
 10
152.26751237585631
 20
50.107666148187597
 30
0.0
  0
VERTEX
  5
3314
  8
0
 10
152.28824796368011
 20
49.883522246954101
 30
0.0
  0
VERTEX
  5
3315
  8
0
 10
152.3093235737592
 20
49.65570283309517
 30
0.0
  0
VERTEX
  5
3316
  8
0
 10
152.31999375527201
 20
49.540362186305742
 30
0.0
  0
SEQEND
  5
3317
  8
0
  0
LINE
  5
29F5
  8
0
 10
153.0955562809807
 20
49.661159033532037
 30
0.0
 11
153.10647027946959
 21
49.606467271504698
 31
0.0
  0
POLYLINE
  5
29F6
  8
0
 66
     1
 10
0.0
 20
0.0
 30
0.0
  0
VERTEX
  5
3318
  8
0
 10
153.10647027946959
 20
49.606467271504719
 30
0.0
  0
VERTEX
  5
3319
  8
0
 10
153.128235195819
 20
49.497399854394132
 30
0.0
  0
VERTEX
  5
331A
  8
0
 10
153.17228660946981
 20
49.276651296034252
 30
0.0
  0
VERTEX
  5
331B
  8
0
 10
153.21706037838501
 20
49.052282901895637
 30
0.0
  0
VERTEX
  5
331C
  8
0
 10
153.23972848808819
 20
48.938689440913997
 30
0.0
  0
SEQEND
  5
331D
  8
0
  0
LINE
  5
29F7
  8
0
 10
153.9984156923245
 20
49.139892909352277
 30
0.0
 11
154.0149867486258
 21
49.086641578010017
 31
0.0
  0
POLYLINE
  5
29F8
  8
0
 66
     1
 10
0.0
 20
0.0
 30
0.0
  0
VERTEX
  5
331E
  8
0
 10
154.0149867486258
 20
49.086641578010052
 30
0.0
  0
VERTEX
  5
331F
  8
0
 10
154.04803308398931
 20
48.980446696881472
 30
0.0
  0
VERTEX
  5
3320
  8
0
 10
154.11491768696081
 20
48.765512048795358
 30
0.0
  0
VERTEX
  5
3321
  8
0
 10
154.18289906393019
 20
48.547052901455281
 30
0.0
  0
VERTEX
  5
3322
  8
0
 10
154.21731674527041
 20
48.436451180010749
 30
0.0
  0
SEQEND
  5
3323
  8
0
  0
LINE
  5
29F9
  8
0
 10
154.95081629225919
 20
48.715856842356338
 30
0.0
 11
154.97286285041241
 21
48.664629374428841
 31
0.0
  0
POLYLINE
  5
29FA
  8
0
 66
     1
 10
0.0
 20
0.0
 30
0.0
  0
VERTEX
  5
3324
  8
0
 10
154.97286285041241
 20
48.664629374428813
 30
0.0
  0
VERTEX
  5
3325
  8
0
 10
155.01682854222429
 20
48.562470522622647
 30
0.0
  0
VERTEX
  5
3326
  8
0
 10
155.10581353281
 20
48.355704653792451
 30
0.0
  0
VERTEX
  5
3327
  8
0
 10
155.19625769964159
 20
48.14554823738461
 30
0.0
  0
VERTEX
  5
3328
  8
0
 10
155.2420478652995
 20
48.039150031082499
 30
0.0
  0
SEQEND
  5
3329
  8
0
  0
LINE
  5
29FB
  8
0
 10
155.94232338050929
 20
48.393696660429327
 30
0.0
 11
155.96960389380959
 21
48.345054314775211
 31
0.0
  0
POLYLINE
  5
29FC
  8
0
 66
     1
 10
0.0
 20
0.0
 30
0.0
  0
VERTEX
  5
332A
  8
0
 10
155.96960389380959
 20
48.345054314775233
 30
0.0
  0
VERTEX
  5
332B
  8
0
 10
156.02400724475021
 20
48.248050766049879
 30
0.0
  0
VERTEX
  5
332C
  8
0
 10
156.1341176847717
 20
48.051719046603353
 30
0.0
  0
VERTEX
  5
332D
  8
0
 10
156.24603371624701
 20
47.852167878804153
 30
0.0
  0
VERTEX
  5
332E
  8
0
 10
156.30269467958561
 20
47.751138908657587
 30
0.0
  0
SEQEND
  5
332F
  8
0
  0
LINE
  5
29FD
  8
0
 10
156.96207379792969
 20
48.17694201794086
 30
0.0
 11
156.99428937536479
 21
48.131417730278258
 31
0.0
  0
POLYLINE
  5
29FE
  8
0
 66
     1
 10
0.0
 20
0.0
 30
0.0
  0
VERTEX
  5
3330
  8
0
 10
156.99428937536479
 20
48.131417730278258
 30
0.0
  0
VERTEX
  5
3331
  8
0
 10
157.0585343309362
 20
48.040632275812918
 30
0.0
  0
VERTEX
  5
3332
  8
0
 10
157.18856382737081
 20
47.856885757153179
 30
0.0
  0
VERTEX
  5
3333
  8
0
 10
157.32072554802909
 20
47.670126162315619
 30
0.0
  0
VERTEX
  5
3334
  8
0
 10
157.38763651967679
 20
47.575573322863498
 30
0.0
  0
SEQEND
  5
3335
  8
0
  0
LINE
  5
29FF
  8
0
 10
157.9988949455506
 20
48.067967724112918
 30
0.0
 11
158.03569262651251
 21
48.026060268063929
 31
0.0
  0
POLYLINE
  5
2A00
  8
0
 66
     1
 10
0.0
 20
0.0
 30
0.0
  0
VERTEX
  5
3336
  8
0
 10
158.03569262651251
 20
48.026060268063958
 30
0.0
  0
VERTEX
  5
3337
  8
0
 10
158.10907530553769
 20
47.942487572295732
 30
0.0
  0
VERTEX
  5
3338
  8
0
 10
158.25759922801171
 20
47.773339419732757
 30
0.0
  0
VERTEX
  5
3339
  8
0
 10
158.40855864638479
 20
47.601417575059969
 30
0.0
  0
VERTEX
  5
333A
  8
0
 10
158.48498653573441
 20
47.514376806997603
 30
0.0
  0
SEQEND
  5
333B
  8
0
  0
LINE
  5
2A01
  8
0
 10
159.0414271939101
 20
48.067967724112883
 30
0.0
 11
159.0824038153057
 21
48.030136246535761
 31
0.0
  0
POLYLINE
  5
2A02
  8
0
 66
     1
 10
0.0
 20
0.0
 30
0.0
  0
VERTEX
  5
333C
  8
0
 10
159.0824038153057
 20
48.030136246535761
 30
0.0
  0
VERTEX
  5
333D
  8
0
 10
159.16412022179671
 20
47.954691949408328
 30
0.0
  0
VERTEX
  5
333E
  8
0
 10
159.32951131113521
 20
47.801995385497968
 30
0.0
  0
VERTEX
  5
333F
  8
0
 10
159.4976144842451
 20
47.646794902697081
 30
0.0
  0
VERTEX
  5
3340
  8
0
 10
159.58272193134721
 20
47.568219842893967
 30
0.0
  0
SEQEND
  5
3341
  8
0
  0
LINE
  5
2A03
  8
0
 10
160.07824834153109
 20
48.176942017940831
 30
0.0
 11
160.12295495492151
 21
48.143601008420688
 31
0.0
  0
POLYLINE
  5
2A04
  8
0
 66
     1
 10
0.0
 20
0.0
 30
0.0
  0
VERTEX
  5
3342
  8
0
 10
160.12295495492151
 20
48.143601008420688
 30
0.0
  0
VERTEX
  5
3343
  8
0
 10
160.21210978682871
 20
48.077111693441061
 30
0.0
  0
VERTEX
  5
3344
  8
0
 10
160.39255598364639
 20
47.94253969369143
 30
0.0
  0
VERTEX
  5
3345
  8
0
 10
160.57596113795071
 20
47.805760981729783
 30
0.0
  0
VERTEX
  5
3346
  8
0
 10
160.66881568780499
 20
47.736512514983922
 30
0.0
  0
SEQEND
  5
3347
  8
0
  0
LINE
  5
2A05
  8
0
 10
161.09799875895149
 20
48.393696660429299
 30
0.0
 11
161.14594554932489
 21
48.365211410043429
 31
0.0
  0
POLYLINE
  5
2A06
  8
0
 66
     1
 10
0.0
 20
0.0
 30
0.0
  0
VERTEX
  5
3348
  8
0
 10
161.14594554932489
 20
48.365211410043401
 30
0.0
  0
VERTEX
  5
3349
  8
0
 10
161.24156200765299
 20
48.308405548060279
 30
0.0
  0
VERTEX
  5
334A
  8
0
 10
161.43508630565691
 20
48.193432511461623
 30
0.0
  0
VERTEX
  5
334B
  8
0
 10
161.631784015905
 20
48.076574146530277
 30
0.0
  0
VERTEX
  5
334C
  8
0
 10
161.73136833463229
 20
48.01741097353456
 30
0.0
  0
SEQEND
  5
334D
  8
0
  0
LINE
  5
2A07
  8
0
 10
162.08950584720151
 20
48.715856842356253
 30
0.0
 11
162.14016749948919
 21
48.692539441468817
 31
0.0
  0
POLYLINE
  5
2A08
  8
0
 66
     1
 10
0.0
 20
0.0
 30
0.0
  0
VERTEX
  5
334E
  8
0
 10
162.14016749948919
 20
48.692539441468817
 30
0.0
  0
VERTEX
  5
334F
  8
0
 10
162.24119799031189
 20
48.646039409393438
 30
0.0
  0
VERTEX
  5
3350
  8
0
 10
162.44568009679529
 20
48.551925004594437
 30
0.0
  0
VERTEX
  5
3351
  8
0
 10
162.65351530171199
 20
48.456267311393823
 30
0.0
  0
VERTEX
  5
3352
  8
0
 10
162.75873832267689
 20
48.407837636252168
 30
0.0
  0
SEQEND
  5
3353
  8
0
  0
LINE
  5
2A09
  8
0
 10
163.04190644713631
 20
49.139892909352263
 30
0.0
 11
163.09472790167399
 21
49.12199882828687
 31
0.0
  0
POLYLINE
  5
2A0A
  8
0
 66
     1
 10
0.0
 20
0.0
 30
0.0
  0
VERTEX
  5
3354
  8
0
 10
163.09472790167399
 20
49.121998828286848
 30
0.0
  0
VERTEX
  5
3355
  8
0
 10
163.2000655137916
 20
49.086314090201448
 30
0.0
  0
VERTEX
  5
3356
  8
0
 10
163.41326508000549
 20
49.014089454315688
 30
0.0
  0
VERTEX
  5
3357
  8
0
 10
163.6299606935936
 20
48.940680478550043
 30
0.0
  0
VERTEX
  5
3358
  8
0
 10
163.739669571359
 20
48.903514906918019
 30
0.0
  0
SEQEND
  5
3359
  8
0
  0
LINE
  5
2A0B
  8
0
 10
163.94476585848011
 20
49.661159033532023
 30
0.0
 11
163.9991683923584
 21
49.648884323585293
 31
0.0
  0
POLYLINE
  5
2A0C
  8
0
 66
     1
 10
0.0
 20
0.0
 30
0.0
  0
VERTEX
  5
335A
  8
0
 10
163.9991683923584
 20
49.648884323585321
 30
0.0
  0
VERTEX
  5
335B
  8
0
 10
164.10765902484931
 20
49.624405848947852
 30
0.0
  0
VERTEX
  5
335C
  8
0
 10
164.32724019173119
 20
49.574862290200137
 30
0.0
  0
VERTEX
  5
335D
  8
0
 10
164.55042205150161
 20
49.52450631596988
 30
0.0
  0
VERTEX
  5
335E
  8
0
 10
164.6634147926448
 20
49.49901204162753
 30
0.0
  0
SEQEND
  5
335F
  8
0
  0
LINE
  5
2A0D
  8
0
 10
164.78819216458669
 20
50.273944114156983
 30
0.0
 11
164.84357973226011
 21
50.267423259619903
 31
0.0
  0
POLYLINE
  5
2A0E
  8
0
 66
     1
 10
0.0
 20
0.0
 30
0.0
  0
VERTEX
  5
3360
  8
0
 10
164.84357973226011
 20
50.267423259619903
 30
0.0
  0
VERTEX
  5
3361
  8
0
 10
164.95403473905171
 20
50.254419239720932
 30
0.0
  0
VERTEX
  5
3362
  8
0
 10
165.1775917293869
 20
50.22809956770854
 30
0.0
  0
VERTEX
  5
3363
  8
0
 10
165.4048146081802
 20
50.201348305604967
 30
0.0
  0
VERTEX
  5
3364
  8
0
 10
165.5198532405839
 20
50.187804649157101
 30
0.0
  0
SEQEND
  5
3365
  8
0
  0
LINE
  5
2A0F
  8
0
 10
165.56294461034841
 20
50.971534349650398
 30
0.0
 11
165.61871037403469
 21
50.970838794369769
 31
0.0
  0
POLYLINE
  5
2A10
  8
0
 66
     1
 10
0.0
 20
0.0
 30
0.0
  0
VERTEX
  5
3366
  8
0
 10
165.61871037403469
 20
50.97083879436979
 30
0.0
  0
VERTEX
  5
3367
  8
0
 10
165.72991958695829
 20
50.969451703972567
 30
0.0
  0
VERTEX
  5
3368
  8
0
 10
165.95500306357849
 20
50.96664428252987
 30
0.0
  0
VERTEX
  5
3369
  8
0
 10
166.18377745998509
 20
50.963790824978609
 30
0.0
  0
VERTEX
  5
336A
  8
0
 10
166.29960159631949
 20
50.96234617355946
 30
0.0
  0
SEQEND
  5
336B
  8
0
  0
LINE
  5
2A11
  8
0
 10
166.26053484584179
 20
51.746286795412033
 30
0.0
 11
166.31606782416429
 21
51.751424160037082
 31
0.0
  0
POLYLINE
  5
2A12
  8
0
 66
     1
 10
0.0
 20
0.0
 30
0.0
  0
VERTEX
  5
336C
  8
0
 10
166.31606782416429
 20
51.751424160037082
 30
0.0
  0
VERTEX
  5
336D
  8
0
 10
166.4268128118112
 20
51.761669196394337
 30
0.0
  0
VERTEX
  5
336E
  8
0
 10
166.65095671304471
 20
51.782404784218073
 30
0.0
  0
VERTEX
  5
336F
  8
0
 10
166.87877612690369
 20
51.803480394297218
 30
0.0
  0
VERTEX
  5
3370
  8
0
 10
166.99411677369309
 20
51.814150575810032
 30
0.0
  0
SEQEND
  5
3371
  8
0
  0
LINE
  5
2A13
  8
0
 10
166.87331992646679
 20
52.589713101518747
 30
0.0
 11
166.92801168849411
 21
52.600627100007593
 31
0.0
  0
POLYLINE
  5
2A14
  8
0
 66
     1
 10
0.0
 20
0.0
 30
0.0
  0
VERTEX
  5
3372
  8
0
 10
166.92801168849411
 20
52.600627100007593
 30
0.0
  0
VERTEX
  5
3373
  8
0
 10
167.03707910560459
 20
52.622392016357018
 30
0.0
  0
VERTEX
  5
3374
  8
0
 10
167.25782766396441
 20
52.666443430007831
 30
0.0
  0
VERTEX
  5
3375
  8
0
 10
167.48219605810311
 20
52.711217198923009
 30
0.0
  0
VERTEX
  5
3376
  8
0
 10
167.5957895190848
 20
52.733885308626242
 30
0.0
  0
SEQEND
  5
3377
  8
0
  0
LINE
  5
2A15
  8
0
 10
167.3945860506465
 20
53.492572512862552
 30
0.0
 11
167.44783738198879
 21
53.509143569163797
 31
0.0
  0
POLYLINE
  5
2A16
  8
0
 66
     1
 10
0.0
 20
0.0
 30
0.0
  0
VERTEX
  5
3378
  8
0
 10
167.44783738198879
 20
53.509143569163832
 30
0.0
  0
VERTEX
  5
3379
  8
0
 10
167.55403226311719
 20
53.542189904527298
 30
0.0
  0
VERTEX
  5
337A
  8
0
 10
167.76896691120351
 20
53.609074507498889
 30
0.0
  0
VERTEX
  5
337B
  8
0
 10
167.98742605854369
 20
53.67705588446838
 30
0.0
  0
VERTEX
  5
337C
  8
0
 10
168.09802777998809
 20
53.711473565808461
 30
0.0
  0
SEQEND
  5
337D
  8
0
  0
LINE
  5
2A17
  8
0
 10
167.81862211764249
 20
54.444973112797221
 30
0.0
 11
167.86984958556999
 21
54.467019670950407
 31
0.0
  0
POLYLINE
  5
2A18
  8
0
 66
     1
 10
0.0
 20
0.0
 30
0.0
  0
VERTEX
  5
337E
  8
0
 10
167.86984958556999
 20
54.467019670950407
 30
0.0
  0
VERTEX
  5
337F
  8
0
 10
167.9720084373761
 20
54.510985362762312
 30
0.0
  0
VERTEX
  5
3380
  8
0
 10
168.17877430620641
 20
54.599970353348027
 30
0.0
  0
VERTEX
  5
3381
  8
0
 10
168.3889307226143
 20
54.690414520179701
 30
0.0
  0
VERTEX
  5
3382
  8
0
 10
168.49532892891631
 20
54.736204685837521
 30
0.0
  0
SEQEND
  5
3383
  8
0
  0
LINE
  5
2A19
  8
0
 10
168.14078229956951
 20
55.436480201047317
 30
0.0
 11
168.1894246452236
 21
55.463760714347671
 31
0.0
  0
POLYLINE
  5
2A1A
  8
0
 66
     1
 10
0.0
 20
0.0
 30
0.0
  0
VERTEX
  5
3384
  8
0
 10
168.1894246452236
 20
55.4637607143477
 30
0.0
  0
VERTEX
  5
3385
  8
0
 10
168.28642819394889
 20
55.518164065288197
 30
0.0
  0
VERTEX
  5
3386
  8
0
 10
168.4827599133954
 20
55.62827450530974
 30
0.0
  0
VERTEX
  5
3387
  8
0
 10
168.6823110811946
 20
55.740190536785057
 30
0.0
  0
VERTEX
  5
3388
  8
0
 10
168.78334005134121
 20
55.796851500123658
 30
0.0
  0
SEQEND
  5
3389
  8
0
  0
LINE
  5
2A1B
  8
0
 10
168.35753694205789
 20
56.456230618467742
 30
0.0
 11
168.40306122972049
 21
56.48844619590281
 31
0.0
  0
POLYLINE
  5
2A1C
  8
0
 66
     1
 10
0.0
 20
0.0
 30
0.0
  0
VERTEX
  5
338A
  8
0
 10
168.40306122972049
 20
56.48844619590281
 30
0.0
  0
VERTEX
  5
338B
  8
0
 10
168.49384668418591
 20
56.552691151474249
 30
0.0
  0
VERTEX
  5
338C
  8
0
 10
168.67759320284571
 20
56.68272064790883
 30
0.0
  0
VERTEX
  5
338D
  8
0
 10
168.8643527976833
 20
56.814882368567169
 30
0.0
  0
VERTEX
  5
338E
  8
0
 10
168.9589056371353
 20
56.88179334021487
 30
0.0
  0
SEQEND
  5
338F
  8
0
  0
LINE
  5
2A1D
  8
0
 10
168.46651123588589
 20
57.493051766088712
 30
0.0
 11
168.50841869193491
 21
57.529849447050509
 31
0.0
  0
POLYLINE
  5
2A1E
  8
0
 66
     1
 10
0.0
 20
0.0
 30
0.0
  0
VERTEX
  5
3390
  8
0
 10
168.50841869193491
 20
57.529849447050537
 30
0.0
  0
VERTEX
  5
3391
  8
0
 10
168.59199138770299
 20
57.603232126075589
 30
0.0
  0
VERTEX
  5
3392
  8
0
 10
168.76113954026599
 20
57.751756048549758
 30
0.0
  0
VERTEX
  5
3393
  8
0
 10
168.9330613849389
 20
57.902715466922871
 30
0.0
  0
VERTEX
  5
3394
  8
0
 10
169.0201021530012
 20
57.979143356272459
 30
0.0
  0
SEQEND
  5
3395
  8
0
  0
LINE
  5
2A1F
  8
0
 10
168.46651123588589
 20
58.535584014448183
 30
0.0
 11
168.50434271346299
 21
58.576560635843713
 31
0.0
  0
POLYLINE
  5
2A20
  8
0
 66
     1
 10
0.0
 20
0.0
 30
0.0
  0
VERTEX
  5
3396
  8
0
 10
168.50434271346299
 20
58.576560635843713
 30
0.0
  0
VERTEX
  5
3397
  8
0
 10
168.57978701059051
 20
58.658277042334781
 30
0.0
  0
VERTEX
  5
3398
  8
0
 10
168.7324835745008
 20
58.823668131673259
 30
0.0
  0
VERTEX
  5
3399
  8
0
 10
168.8876840573017
 20
58.991771304783128
 30
0.0
  0
VERTEX
  5
339A
  8
0
 10
168.96625911710481
 20
59.07687875188526
 30
0.0
  0
SEQEND
  5
339B
  8
0
  0
LINE
  5
2A21
  8
0
 10
168.35753694205789
 20
59.572405162069082
 30
0.0
 11
168.39087795157809
 21
59.617111775459499
 31
0.0
  0
POLYLINE
  5
2A22
  8
0
 66
     1
 10
0.0
 20
0.0
 30
0.0
  0
VERTEX
  5
339C
  8
0
 10
168.39087795157809
 20
59.617111775459499
 30
0.0
  0
VERTEX
  5
339D
  8
0
 10
168.45736726655781
 20
59.706266607366807
 30
0.0
  0
VERTEX
  5
339E
  8
0
 10
168.59193926630741
 20
59.886712804184441
 30
0.0
  0
VERTEX
  5
339F
  8
0
 10
168.72871797826889
 20
60.070117958488567
 30
0.0
  0
VERTEX
  5
33A0
  8
0
 10
168.79796644501491
 20
60.162972508343017
 30
0.0
  0
SEQEND
  5
33A1
  8
0
  0
LINE
  5
2A23
  8
0
 10
168.14078229956951
 20
60.592155579489507
 30
0.0
 11
168.16926754995541
 21
60.640102369863001
 31
0.0
  0
POLYLINE
  5
2A24
  8
0
 66
     1
 10
0.0
 20
0.0
 30
0.0
  0
VERTEX
  5
33A2
  8
0
 10
168.16926754995541
 20
60.640102369862973
 30
0.0
  0
VERTEX
  5
33A3
  8
0
 10
168.2260734119385
 20
60.735718828191132
 30
0.0
  0
VERTEX
  5
33A4
  8
0
 10
168.3410464485371
 20
60.929243126194933
 30
0.0
  0
VERTEX
  5
33A5
  8
0
 10
168.45790481346839
 20
61.125940836442929
 30
0.0
  0
VERTEX
  5
33A6
  8
0
 10
168.51706798646421
 20
61.225525155170281
 30
0.0
  0
SEQEND
  5
33A7
  8
0
  0
LINE
  5
2A25
  8
0
 10
167.81862211764249
 20
61.583662667739617
 30
0.0
 11
167.84193951853001
 21
61.634324320027282
 31
0.0
  0
POLYLINE
  5
2A26
  8
0
 66
     1
 10
0.0
 20
0.0
 30
0.0
  0
VERTEX
  5
33A8
  8
0
 10
167.84193951853001
 20
61.634324320027282
 30
0.0
  0
VERTEX
  5
33A9
  8
0
 10
167.88843955060531
 20
61.735354810849771
 30
0.0
  0
VERTEX
  5
33AA
  8
0
 10
167.9825539554044
 20
61.939836917333331
 30
0.0
  0
VERTEX
  5
33AB
  8
0
 10
168.07821164860499
 20
62.147672122250121
 30
0.0
  0
VERTEX
  5
33AC
  8
0
 10
168.12664132374661
 20
62.252895143214943
 30
0.0
  0
SEQEND
  5
33AD
  8
0
  0
LINE
  5
2A27
  8
0
 10
167.3945860506465
 20
62.53606326767428
 30
0.0
 11
167.4124801317119
 21
62.5888847222121
 31
0.0
  0
POLYLINE
  5
2A28
  8
0
 66
     1
 10
0.0
 20
0.0
 30
0.0
  0
VERTEX
  5
33AE
  8
0
 10
167.4124801317119
 20
62.588884722212072
 30
0.0
  0
VERTEX
  5
33AF
  8
0
 10
167.4481648697973
 20
62.694222334329538
 30
0.0
  0
VERTEX
  5
33B0
  8
0
 10
167.52038950568311
 20
62.907421900543483
 30
0.0
  0
VERTEX
  5
33B1
  8
0
 10
167.59379848144869
 20
63.124117514131619
 30
0.0
  0
VERTEX
  5
33B2
  8
0
 10
167.63096405308079
 20
63.233826391897018
 30
0.0
  0
SEQEND
  5
33B3
  8
0
  0
LINE
  5
2A29
  8
0
 10
166.87331992646679
 20
63.43892267901807
 30
0.0
 11
166.88559463641349
 21
63.493325212896451
 31
0.0
  0
POLYLINE
  5
2A2A
  8
0
 66
     1
 10
0.0
 20
0.0
 30
0.0
  0
VERTEX
  5
33B4
  8
0
 10
166.88559463641349
 20
63.493325212896451
 30
0.0
  0
VERTEX
  5
33B5
  8
0
 10
166.91007311105091
 20
63.601815845387392
 30
0.0
  0
VERTEX
  5
33B6
  8
0
 10
166.95961666979861
 20
63.821397012269223
 30
0.0
  0
VERTEX
  5
33B7
  8
0
 10
167.00997264402889
 20
64.04457887203958
 30
0.0
  0
VERTEX
  5
33B8
  8
0
 10
167.03546691837121
 20
64.15757161318291
 30
0.0
  0
SEQEND
  5
33B9
  8
0
  0
LINE
  5
2A2B
  8
0
 10
166.26053484584179
 20
64.282348985124798
 30
0.0
 11
166.2670557003789
 21
64.337736552798134
 31
0.0
  0
POLYLINE
  5
2A2C
  8
0
 66
     1
 10
0.0
 20
0.0
 30
0.0
  0
VERTEX
  5
33BA
  8
0
 10
166.2670557003789
 20
64.337736552798134
 30
0.0
  0
VERTEX
  5
33BB
  8
0
 10
166.2800597202779
 20
64.448191559589731
 30
0.0
  0
VERTEX
  5
33BC
  8
0
 10
166.3063793922903
 20
64.671748549924956
 30
0.0
  0
VERTEX
  5
33BD
  8
0
 10
166.3331306543939
 20
64.898971428718198
 30
0.0
  0
VERTEX
  5
33BE
  8
0
 10
166.34667431084171
 20
65.014010061121994
 30
0.0
  0
SEQEND
  5
33BF
  8
0
  0
LINE
  5
2A2D
  8
0
 10
165.56294461034841
 20
65.057101430886433
 30
0.0
 11
165.56364016562901
 21
65.112867194572715
 31
0.0
  0
POLYLINE
  5
2A2E
  8
0
 66
     1
 10
0.0
 20
0.0
 30
0.0
  0
VERTEX
  5
33C0
  8
0
 10
165.56364016562901
 20
65.112867194572715
 30
0.0
  0
VERTEX
  5
33C1
  8
0
 10
165.56502725602621
 20
65.224076407496398
 30
0.0
  0
VERTEX
  5
33C2
  8
0
 10
165.56783467746891
 20
65.449159884116483
 30
0.0
  0
VERTEX
  5
33C3
  8
0
 10
165.57068813502019
 20
65.677934280523104
 30
0.0
  0
VERTEX
  5
33C4
  8
0
 10
165.57213278643931
 20
65.793758416857514
 30
0.0
  0
SEQEND
  5
33C5
  8
0
  0
LINE
  5
2A2F
  8
0
 10
164.7881921645868
 20
65.754691666379856
 30
0.0
 11
164.78305479996169
 21
65.810224644702416
 31
0.0
  0
POLYLINE
  5
2A30
  8
0
 66
     1
 10
0.0
 20
0.0
 30
0.0
  0
VERTEX
  5
33C6
  8
0
 10
164.78305479996169
 20
65.810224644702416
 30
0.0
  0
VERTEX
  5
33C7
  8
0
 10
164.77280976360441
 20
65.920969632349326
 30
0.0
  0
VERTEX
  5
33C8
  8
0
 10
164.75207417578071
 20
66.145113533582801
 30
0.0
  0
VERTEX
  5
33C9
  8
0
 10
164.73099856570161
 20
66.37293294744164
 30
0.0
  0
VERTEX
  5
33CA
  8
0
 10
164.7203283841888
 20
66.488273594231131
 30
0.0
  0
SEQEND
  5
33CB
  8
0
  0
LINE
  5
2A31
  8
0
 10
163.94476585848011
 20
66.367476747004829
 30
0.0
 11
163.93385185999119
 21
66.422168509032119
 31
0.0
  0
POLYLINE
  5
2A32
  8
0
 66
     1
 10
0.0
 20
0.0
 30
0.0
  0
VERTEX
  5
33CC
  8
0
 10
163.93385185999119
 20
66.422168509032119
 30
0.0
  0
VERTEX
  5
33CD
  8
0
 10
163.91208694364181
 20
66.5312359261426
 30
0.0
  0
VERTEX
  5
33CE
  8
0
 10
163.868035529991
 20
66.751984484502415
 30
0.0
  0
VERTEX
  5
33CF
  8
0
 10
163.8232617610758
 20
66.976352878641123
 30
0.0
  0
VERTEX
  5
33D0
  8
0
 10
163.80059365137259
 20
67.08994633962287
 30
0.0
  0
SEQEND
  5
33D1
  8
0
  0
LINE
  5
2A33
  8
0
 10
163.04190644713631
 20
66.888742871184576
 30
0.0
 11
163.02533539083501
 21
66.941994202526857
 31
0.0
  0
POLYLINE
  5
2A34
  8
0
 66
     1
 10
0.0
 20
0.0
 30
0.0
  0
VERTEX
  5
33D2
  8
0
 10
163.02533539083501
 20
66.941994202526828
 30
0.0
  0
VERTEX
  5
33D3
  8
0
 10
162.99228905547139
 20
67.048189083655402
 30
0.0
  0
VERTEX
  5
33D4
  8
0
 10
162.92540445249989
 20
67.263123731741601
 30
0.0
  0
VERTEX
  5
33D5
  8
0
 10
162.85742307553039
 20
67.481582879081699
 30
0.0
  0
VERTEX
  5
33D6
  8
0
 10
162.82300539419029
 20
67.592184600526124
 30
0.0
  0
SEQEND
  5
33D7
  8
0
  0
LINE
  5
2A35
  8
0
 10
162.08950584720151
 20
67.312778938180585
 30
0.0
 11
162.0674592890484
 21
67.364006406108032
 31
0.0
  0
POLYLINE
  5
2A36
  8
0
 66
     1
 10
0.0
 20
0.0
 30
0.0
  0
VERTEX
  5
33D8
  8
0
 10
162.0674592890484
 20
67.364006406108032
 30
0.0
  0
VERTEX
  5
33D9
  8
0
 10
162.02349359723661
 20
67.466165257913971
 30
0.0
  0
VERTEX
  5
33DA
  8
0
 10
161.93450860665081
 20
67.672931126744217
 30
0.0
  0
VERTEX
  5
33DB
  8
0
 10
161.84406443981911
 20
67.883087543152257
 30
0.0
  0
VERTEX
  5
33DC
  8
0
 10
161.7982742741612
 20
67.989485749454346
 30
0.0
  0
SEQEND
  5
33DD
  8
0
  0
LINE
  5
2A37
  8
0
 10
161.09799875895149
 20
67.634939120107546
 30
0.0
 11
161.07071824565111
 21
67.683581465761606
 31
0.0
  0
POLYLINE
  5
2A38
  8
0
 66
     1
 10
0.0
 20
0.0
 30
0.0
  0
VERTEX
  5
33DE
  8
0
 10
161.07071824565111
 20
67.683581465761606
 30
0.0
  0
VERTEX
  5
33DF
  8
0
 10
161.01631489471069
 20
67.780585014486732
 30
0.0
  0
VERTEX
  5
33E0
  8
0
 10
160.906204454689
 20
67.97691673393355
 30
0.0
  0
VERTEX
  5
33E1
  8
0
 10
160.79428842321349
 20
68.176467901733005
 30
0.0
  0
VERTEX
  5
33E2
  8
0
 10
160.73762745987511
 20
68.277496871879251
 30
0.0
  0
SEQEND
  5
33E3
  8
0
  0
LINE
  5
2A39
  8
0
 10
160.07824834153109
 20
67.851693762596014
 30
0.0
 11
160.046032764096
 21
67.897218050258616
 31
0.0
  0
POLYLINE
  5
2A3A
  8
0
 66
     1
 10
0.0
 20
0.0
 30
0.0
  0
VERTEX
  5
33E4
  8
0
 10
160.046032764096
 20
67.897218050258616
 30
0.0
  0
VERTEX
  5
33E5
  8
0
 10
159.98178780852459
 20
67.988003504723778
 30
0.0
  0
VERTEX
  5
33E6
  8
0
 10
159.85175831209
 20
68.171750023383623
 30
0.0
  0
VERTEX
  5
33E7
  8
0
 10
159.71959659143161
 20
68.358509618221305
 30
0.0
  0
VERTEX
  5
33E8
  8
0
 10
159.65268561978391
 20
68.453062457673369
 30
0.0
  0
SEQEND
  5
33E9
  8
0
  0
LINE
  5
2A3B
  8
0
 10
159.0414271939101
 20
67.960668056423955
 30
0.0
 11
159.00462951294821
 21
68.002575512472944
 31
0.0
  0
POLYLINE
  5
2A3C
  8
0
 66
     1
 10
0.0
 20
0.0
 30
0.0
  0
VERTEX
  5
33EA
  8
0
 10
159.00462951294821
 20
68.002575512472916
 30
0.0
  0
VERTEX
  5
33EB
  8
0
 10
158.9320189805955
 20
68.085268840251317
 30
0.0
  0
VERTEX
  5
33EC
  8
0
 10
158.7850765758227
 20
68.252615863454395
 30
0.0
  0
VERTEX
  5
33ED
  8
0
 10
158.63575116475471
 20
68.422676800387066
 30
0.0
  0
VERTEX
  5
33EE
  8
0
 10
158.56016106973041
 20
68.508763436886014
 30
0.0
  0
SEQEND
  5
33EF
  8
0
  0
LINE
  5
2A3D
  8
0
 10
158.56016106973041
 20
68.508763435902594
 30
0.0
 11
158.56016106973041
 21
68.514241699515807
 31
0.0
  0
LINE
  5
2A3E
  8
0
 10
158.03569262651251
 20
68.002575512472944
 30
0.0
 11
157.9988949455506
 21
67.960668056423955
 31
0.0
  0
POLYLINE
  5
2A3F
  8
0
 66
     1
 10
0.0
 20
0.0
 30
0.0
  0
VERTEX
  5
33F0
  8
0
 10
158.4801610697304
 20
68.508763436886014
 30
0.0
  0
VERTEX
  5
33F1
  8
0
 10
158.4045709747061
 20
68.422676800387094
 30
0.0
  0
VERTEX
  5
33F2
  8
0
 10
158.255245563638
 20
68.252615863454395
 30
0.0
  0
VERTEX
  5
33F3
  8
0
 10
158.1083031588652
 20
68.08526884025126
 30
0.0
  0
VERTEX
  5
33F4
  8
0
 10
158.03569262651251
 20
68.002575512472916
 30
0.0
  0
SEQEND
  5
33F5
  8
0
  0
LINE
  5
2A40
  8
0
 10
158.4801610697304
 20
68.514241699515807
 30
0.0
 11
158.4801610697304
 21
68.508763435902594
 31
0.0
  0
POLYLINE
  5
2A41
  8
0
 66
     1
 10
0.0
 20
0.0
 30
0.0
  0
VERTEX
  5
33F6
  8
0
 10
157.38763651967679
 20
68.453062457673369
 30
0.0
  0
VERTEX
  5
33F7
  8
0
 10
157.32072554802909
 20
68.358509618221305
 30
0.0
  0
VERTEX
  5
33F8
  8
0
 10
157.18856382737081
 20
68.171750023383666
 30
0.0
  0
VERTEX
  5
33F9
  8
0
 10
157.0585343309362
 20
67.988003504723835
 30
0.0
  0
VERTEX
  5
33FA
  8
0
 10
156.99428937536479
 20
67.897218050258616
 30
0.0
  0
SEQEND
  5
33FB
  8
0
  0
LINE
  5
2A42
  8
0
 10
156.99428937536479
 20
67.897218050258616
 30
0.0
 11
156.96207379792969
 21
67.851693762595957
 31
0.0
  0
POLYLINE
  5
2A43
  8
0
 66
     1
 10
0.0
 20
0.0
 30
0.0
  0
VERTEX
  5
33FC
  8
0
 10
156.30269467958561
 20
68.277496871879251
 30
0.0
  0
VERTEX
  5
33FD
  8
0
 10
156.2460337162471
 20
68.17646790173275
 30
0.0
  0
VERTEX
  5
33FE
  8
0
 10
156.1341176847717
 20
67.976916733933521
 30
0.0
  0
VERTEX
  5
33FF
  8
0
 10
156.02400724475021
 20
67.780585014486988
 30
0.0
  0
VERTEX
  5
3400
  8
0
 10
155.9696038938097
 20
67.683581465761634
 30
0.0
  0
SEQEND
  5
3401
  8
0
  0
LINE
  5
2A44
  8
0
 10
155.9696038938097
 20
67.683581465761662
 30
0.0
 11
155.94232338050929
 21
67.634939120107546
 31
0.0
  0
POLYLINE
  5
2A45
  8
0
 66
     1
 10
0.0
 20
0.0
 30
0.0
  0
VERTEX
  5
3402
  8
0
 10
155.2420478652995
 20
67.989485749454374
 30
0.0
  0
VERTEX
  5
3403
  8
0
 10
155.19625769964171
 20
67.883087543152286
 30
0.0
  0
VERTEX
  5
3404
  8
0
 10
155.10581353281
 20
67.672931126744388
 30
0.0
  0
VERTEX
  5
3405
  8
0
 10
155.01682854222429
 20
67.466165257914142
 30
0.0
  0
VERTEX
  5
3406
  8
0
 10
154.97286285041241
 20
67.364006406108061
 30
0.0
  0
SEQEND
  5
3407
  8
0
  0
LINE
  5
2A46
  8
0
 10
154.97286285041241
 20
67.364006406108032
 30
0.0
 11
154.95081629225919
 21
67.312778938180514
 31
0.0
  0
POLYLINE
  5
2A47
  8
0
 66
     1
 10
0.0
 20
0.0
 30
0.0
  0
VERTEX
  5
3408
  8
0
 10
154.21731674527041
 20
67.592184600526124
 30
0.0
  0
VERTEX
  5
3409
  8
0
 10
154.18289906393031
 20
67.481582879081714
 30
0.0
  0
VERTEX
  5
340A
  8
0
 10
154.11491768696081
 20
67.263123731741516
 30
0.0
  0
VERTEX
  5
340B
  8
0
 10
154.04803308398931
 20
67.048189083655274
 30
0.0
  0
VERTEX
  5
340C
  8
0
 10
154.0149867486258
 20
66.941994202526828
 30
0.0
  0
SEQEND
  5
340D
  8
0
  0
LINE
  5
2A48
  8
0
 10
154.0149867486258
 20
66.941994202526857
 30
0.0
 11
153.9984156923245
 21
66.888742871184533
 31
0.0
  0
POLYLINE
  5
2A49
  8
0
 66
     1
 10
0.0
 20
0.0
 30
0.0
  0
VERTEX
  5
340E
  8
0
 10
153.23972848808819
 20
67.08994633962287
 30
0.0
  0
VERTEX
  5
340F
  8
0
 10
153.21706037838501
 20
66.976352878641237
 30
0.0
  0
VERTEX
  5
3410
  8
0
 10
153.17228660946981
 20
66.751984484502643
 30
0.0
  0
VERTEX
  5
3411
  8
0
 10
153.128235195819
 20
66.531235926142742
 30
0.0
  0
VERTEX
  5
3412
  8
0
 10
153.10647027946959
 20
66.422168509032133
 30
0.0
  0
SEQEND
  5
3413
  8
0
  0
LINE
  5
2A4A
  8
0
 10
153.10647027946959
 20
66.422168509032176
 30
0.0
 11
153.0955562809807
 21
66.367476747004829
 31
0.0
  0
POLYLINE
  5
2A4B
  8
0
 66
     1
 10
0.0
 20
0.0
 30
0.0
  0
VERTEX
  5
3414
  8
0
 10
152.31999375527201
 20
66.488273594231131
 30
0.0
  0
VERTEX
  5
3415
  8
0
 10
152.3093235737592
 20
66.372932947441669
 30
0.0
  0
VERTEX
  5
3416
  8
0
 10
152.28824796368011
 20
66.145113533582773
 30
0.0
  0
VERTEX
  5
3417
  8
0
 10
152.26751237585631
 20
65.920969632349269
 30
0.0
  0
VERTEX
  5
3418
  8
0
 10
152.25726733949909
 20
65.810224644702416
 30
0.0
  0
SEQEND
  5
3419
  8
0
  0
LINE
  5
2A4C
  8
0
 10
152.25726733949909
 20
65.810224644702416
 30
0.0
 11
152.25212997487401
 21
65.754691666379784
 31
0.0
  0
POLYLINE
  5
2A4D
  8
0
 66
     1
 10
0.0
 20
0.0
 30
0.0
  0
VERTEX
  5
341A
  8
0
 10
151.46818935302139
 20
65.793758416857514
 30
0.0
  0
VERTEX
  5
341B
  8
0
 10
151.46963400444059
 20
65.677934280523175
 30
0.0
  0
VERTEX
  5
341C
  8
0
 10
151.4724874619919
 20
65.449159884116511
 30
0.0
  0
VERTEX
  5
341D
  8
0
 10
151.4752948834346
 20
65.224076407496369
 30
0.0
  0
VERTEX
  5
341E
  8
0
 10
151.47668197383169
 20
65.112867194572743
 30
0.0
  0
SEQEND
  5
341F
  8
0
  0
LINE
  5
2A4E
  8
0
 10
151.47668197383169
 20
65.112867194572743
 30
0.0
 11
151.4773775291124
 21
65.057101430886405
 31
0.0
  0
POLYLINE
  5
2A4F
  8
0
 66
     1
 10
0.0
 20
0.0
 30
0.0
  0
VERTEX
  5
3420
  8
0
 10
150.69364782861899
 20
65.014010061122065
 30
0.0
  0
VERTEX
  5
3421
  8
0
 10
150.70719148506689
 20
64.898971428718284
 30
0.0
  0
VERTEX
  5
3422
  8
0
 10
150.73394274717049
 20
64.671748549924985
 30
0.0
  0
VERTEX
  5
3423
  8
0
 10
150.76026241918291
 20
64.448191559589759
 30
0.0
  0
VERTEX
  5
3424
  8
0
 10
150.77326643908191
 20
64.337736552798191
 30
0.0
  0
SEQEND
  5
3425
  8
0
  0
LINE
  5
2A50
  8
0
 10
150.77326643908191
 20
64.337736552798162
 30
0.0
 11
150.77978729361899
 21
64.282348985124827
 31
0.0
  0
POLYLINE
  5
2A51
  8
0
 66
     1
 10
0.0
 20
0.0
 30
0.0
  0
VERTEX
  5
3426
  8
0
 10
150.01712993103621
 20
64.103169079304536
 30
0.0
  0
VERTEX
  5
3427
  8
0
 10
150.0426242053785
 20
63.990176338161369
 30
0.0
  0
VERTEX
  5
3428
  8
0
 10
150.09298017960879
 20
63.766994478390949
 30
0.0
  0
VERTEX
  5
3429
  8
0
 10
150.14252373835649
 20
63.547413311508961
 30
0.0
  0
VERTEX
  5
342A
  8
0
 10
150.16700221299399
 20
63.438922679018113
 30
0.0
  0
SEQEND
  5
342B
  8
0
  0
LINE
  5
2A52
  8
0
 10
150.1547275030473
 20
63.49332521289648
 30
0.0
 11
150.16700221299399
 21
63.438922679018113
 31
0.0
  0
POLYLINE
  5
2A53
  8
0
 66
     1
 10
0.0
 20
0.0
 30
0.0
  0
VERTEX
  5
342C
  8
0
 10
149.40935808638
 20
63.233826391897082
 30
0.0
  0
VERTEX
  5
342D
  8
0
 10
149.4465236580121
 20
63.124117514131513
 30
0.0
  0
VERTEX
  5
342E
  8
0
 10
149.5199326337777
 20
62.907421900543447
 30
0.0
  0
VERTEX
  5
342F
  8
0
 10
149.5921572696634
 20
62.694222334329652
 30
0.0
  0
VERTEX
  5
3430
  8
0
 10
149.6278420077488
 20
62.588884722212129
 30
0.0
  0
SEQEND
  5
3431
  8
0
  0
LINE
  5
2A54
  8
0
 10
149.6278420077488
 20
62.588884722212129
 30
0.0
 11
149.6457360888142
 21
62.536063267674308
 31
0.0
  0
POLYLINE
  5
2A55
  8
0
 66
     1
 10
0.0
 20
0.0
 30
0.0
  0
VERTEX
  5
3432
  8
0
 10
148.91368081571409
 20
62.252895143215
 30
0.0
  0
VERTEX
  5
3433
  8
0
 10
148.96211049085571
 20
62.147672122250192
 30
0.0
  0
VERTEX
  5
3434
  8
0
 10
149.05776818405641
 20
61.939836917333452
 30
0.0
  0
VERTEX
  5
3435
  8
0
 10
149.15188258885539
 20
61.735354810849863
 30
0.0
  0
VERTEX
  5
3436
  8
0
 10
149.1983826209308
 20
61.634324320027297
 30
0.0
  0
SEQEND
  5
3437
  8
0
  0
LINE
  5
2A56
  8
0
 10
149.1983826209308
 20
61.634324320027297
 30
0.0
 11
149.22170002181821
 21
61.583662667739638
 31
0.0
  0
POLYLINE
  5
2A57
  8
0
 66
     1
 10
0.0
 20
0.0
 30
0.0
  0
VERTEX
  5
3438
  8
0
 10
148.52325415299649
 20
61.225525155170317
 30
0.0
  0
VERTEX
  5
3439
  8
0
 10
148.58241732599231
 20
61.125940836443
 30
0.0
  0
VERTEX
  5
343A
  8
0
 10
148.6992756909236
 20
60.92924312619499
 30
0.0
  0
VERTEX
  5
343B
  8
0
 10
148.8142487275222
 20
60.735718828191182
 30
0.0
  0
VERTEX
  5
343C
  8
0
 10
148.87105458950529
 20
60.64010236986303
 30
0.0
  0
SEQEND
  5
343D
  8
0
  0
LINE
  5
2A58
  8
0
 10
148.87105458950529
 20
60.64010236986303
 30
0.0
 11
148.8995398398913
 21
60.592155579489543
 31
0.0
  0
POLYLINE
  5
2A59
  8
0
 66
     1
 10
0.0
 20
0.0
 30
0.0
  0
VERTEX
  5
343E
  8
0
 10
148.24235569444591
 20
60.162972508343067
 30
0.0
  0
VERTEX
  5
343F
  8
0
 10
148.31160416119181
 20
60.070117958488758
 30
0.0
  0
VERTEX
  5
3440
  8
0
 10
148.44838287315341
 20
59.886712804184498
 30
0.0
  0
VERTEX
  5
3441
  8
0
 10
148.582954872903
 20
59.706266607366729
 30
0.0
  0
VERTEX
  5
3442
  8
0
 10
148.64944418788261
 20
59.617111775459563
 30
0.0
  0
SEQEND
  5
3443
  8
0
  0
LINE
  5
2A5A
  8
0
 10
148.64944418788261
 20
59.617111775459541
 30
0.0
 11
148.68278519740281
 21
59.572405162069117
 31
0.0
  0
POLYLINE
  5
2A5B
  8
0
 66
     1
 10
0.0
 20
0.0
 30
0.0
  0
VERTEX
  5
3444
  8
0
 10
148.07406302235589
 20
59.076878751885282
 30
0.0
  0
VERTEX
  5
3445
  8
0
 10
148.15263808215889
 20
58.991771304783299
 30
0.0
  0
VERTEX
  5
3446
  8
0
 10
148.30783856495989
 20
58.823668131673401
 30
0.0
  0
VERTEX
  5
3447
  8
0
 10
148.4605351288703
 20
58.658277042334781
 30
0.0
  0
VERTEX
  5
3448
  8
0
 10
148.53597942599771
 20
58.576560635843748
 30
0.0
  0
SEQEND
  5
3449
  8
0
  0
LINE
  5
2A5C
  8
0
 10
148.53597942599771
 20
58.576560635843748
 30
0.0
 11
148.57381090357481
 21
58.535584014448141
 31
0.0
  0
POLYLINE
  5
2A5D
  8
0
 66
     1
 10
0.0
 20
0.0
 30
0.0
  0
VERTEX
  5
344A
  8
0
 10
148.02021998645961
 20
57.979143356272488
 30
0.0
  0
VERTEX
  5
344B
  8
0
 10
148.1072607545218
 20
57.902715466922949
 30
0.0
  0
VERTEX
  5
344C
  8
0
 10
148.27918259919471
 20
57.751756048549787
 30
0.0
  0
VERTEX
  5
344D
  8
0
 10
148.44833075175779
 20
57.603232126075632
 30
0.0
  0
VERTEX
  5
344E
  8
0
 10
148.53190344752591
 20
57.529849447050587
 30
0.0
  0
SEQEND
  5
344F
  8
0
  0
LINE
  5
2A5E
  8
0
 10
148.53190344752591
 20
57.529849447050587
 30
0.0
 11
148.57381090357481
 21
57.493051766088684
 31
0.0
  0
POLYLINE
  5
2A5F
  8
0
 66
     1
 10
0.0
 20
0.0
 30
0.0
  0
VERTEX
  5
3450
  8
0
 10
148.0814165023254
 20
56.881793340214898
 30
0.0
  0
VERTEX
  5
3451
  8
0
 10
148.1759693417776
 20
56.81488236856714
 30
0.0
  0
VERTEX
  5
3452
  8
0
 10
148.3627289366151
 20
56.68272064790883
 30
0.0
  0
VERTEX
  5
3453
  8
0
 10
148.5464754552749
 20
56.552691151474299
 30
0.0
  0
VERTEX
  5
3454
  8
0
 10
148.63726090974021
 20
56.488446195902839
 30
0.0
  0
SEQEND
  5
3455
  8
0
  0
LINE
  5
2A60
  8
0
 10
148.63726090974021
 20
56.488446195902839
 30
0.0
 11
148.68278519740281
 21
56.456230618467771
 31
0.0
  0
POLYLINE
  5
2A61
  8
0
 66
     1
 10
0.0
 20
0.0
 30
0.0
  0
VERTEX
  5
3456
  8
0
 10
148.25698208811951
 20
55.796851500123701
 30
0.0
  0
VERTEX
  5
3457
  8
0
 10
148.35801105826599
 20
55.740190536785121
 30
0.0
  0
VERTEX
  5
3458
  8
0
 10
148.5575622260653
 20
55.628274505309783
 30
0.0
  0
VERTEX
  5
3459
  8
0
 10
148.75389394551189
 20
55.518164065288197
 30
0.0
  0
VERTEX
  5
345A
  8
0
 10
148.85089749423719
 20
55.46376071434775
 30
0.0
  0
SEQEND
  5
345B
  8
0
  0
LINE
  5
2A62
  8
0
 10
148.85089749423719
 20
55.46376071434775
 30
0.0
 11
148.8995398398913
 21
55.436480201047338
 31
0.0
  0
POLYLINE
  5
2A63
  8
0
 66
     1
 10
0.0
 20
0.0
 30
0.0
  0
VERTEX
  5
345C
  8
0
 10
148.5449932105445
 20
54.736204685837571
 30
0.0
  0
VERTEX
  5
345D
  8
0
 10
148.65139141684671
 20
54.690414520179651
 30
0.0
  0
VERTEX
  5
345E
  8
0
 10
148.86154783325449
 20
54.599970353347999
 30
0.0
  0
VERTEX
  5
345F
  8
0
 10
149.06831370208459
 20
54.510985362762369
 30
0.0
  0
VERTEX
  5
3460
  8
0
 10
149.1704725538907
 20
54.467019670950442
 30
0.0
  0
SEQEND
  5
3461
  8
0
  0
LINE
  5
2A64
  8
0
 10
149.1704725538907
 20
54.467019670950442
 30
0.0
 11
149.22170002181821
 21
54.444973112797243
 31
0.0
  0
POLYLINE
  5
2A65
  8
0
 66
     1
 10
0.0
 20
0.0
 30
0.0
  0
VERTEX
  5
3462
  8
0
 10
148.9422943594727
 20
53.711473565808483
 30
0.0
  0
VERTEX
  5
3463
  8
0
 10
149.05289608091721
 20
53.677055884468359
 30
0.0
  0
VERTEX
  5
3464
  8
0
 10
149.27135522825719
 20
53.60907450749891
 30
0.0
  0
VERTEX
  5
3465
  8
0
 10
149.48628987634339
 20
53.54218990452739
 30
0.0
  0
VERTEX
  5
3466
  8
0
 10
149.59248475747199
 20
53.509143569163847
 30
0.0
  0
SEQEND
  5
3467
  8
0
  0
LINE
  5
2A66
  8
0
 10
149.59248475747199
 20
53.509143569163832
 30
0.0
 11
149.6457360888142
 21
53.49257251286258
 31
0.0
  0
POLYLINE
  5
2A67
  8
0
 66
     1
 10
0.0
 20
0.0
 30
0.0
  0
VERTEX
  5
3468
  8
0
 10
149.4445326203759
 20
52.73388530862627
 30
0.0
  0
VERTEX
  5
3469
  8
0
 10
149.5581260813577
 20
52.71121719892303
 30
0.0
  0
VERTEX
  5
346A
  8
0
 10
149.78249447549641
 20
52.66644343000786
 30
0.0
  0
VERTEX
  5
346B
  8
0
 10
150.00324303385611
 20
52.622392016357047
 30
0.0
  0
VERTEX
  5
346C
  8
0
 10
150.11231045096659
 20
52.600627100007642
 30
0.0
  0
SEQEND
  5
346D
  8
0
  0
LINE
  5
2A68
  8
0
 10
150.11231045096659
 20
52.600627100007607
 30
0.0
 11
150.16700221299399
 21
52.589713101518782
 31
0.0
  0
POLYLINE
  5
2A69
  8
0
 66
     1
 10
0.0
 20
0.0
 30
0.0
  0
VERTEX
  5
346E
  8
0
 10
150.04620536576769
 20
51.814150575810061
 30
0.0
  0
VERTEX
  5
346F
  8
0
 10
150.1615460125571
 20
51.803480394297281
 30
0.0
  0
VERTEX
  5
3470
  8
0
 10
150.38936542641591
 20
51.782404784218102
 30
0.0
  0
VERTEX
  5
3471
  8
0
 10
150.6135093276495
 20
51.761669196394358
 30
0.0
  0
VERTEX
  5
3472
  8
0
 10
150.72425431529641
 20
51.751424160037153
 30
0.0
  0
SEQEND
  5
3473
  8
0
  0
LINE
  5
2A6A
  8
0
 10
150.72425431529641
 20
51.751424160037118
 30
0.0
 11
150.77978729361899
 21
51.746286795412061
 31
0.0
  0
POLYLINE
  5
2A6B
  8
0
 66
     1
 10
0.0
 20
0.0
 30
0.0
  0
VERTEX
  5
3474
  8
0
 10
150.74072054314129
 20
50.962346173559503
 30
0.0
  0
VERTEX
  5
3475
  8
0
 10
150.8565446794756
 20
50.963790824978673
 30
0.0
  0
VERTEX
  5
3476
  8
0
 10
151.08531907588221
 20
50.966644282529899
 30
0.0
  0
VERTEX
  5
3477
  8
0
 10
151.31040255250241
 20
50.969451703972588
 30
0.0
  0
VERTEX
  5
3478
  8
0
 10
151.42161176542609
 20
50.970838794369833
 30
0.0
  0
SEQEND
  5
3479
  8
0
  0
LINE
  5
2A6C
  8
0
 10
151.42161176542609
 20
50.97083879436979
 30
0.0
 11
151.4773775291124
 21
50.971534349650433
 31
0.0
  0
POLYLINE
  5
2A6D
  8
0
 66
     1
 10
0.0
 20
0.0
 30
0.0
  0
VERTEX
  5
347A
  8
0
 10
151.5204688988768
 20
50.18780464915713
 30
0.0
  0
VERTEX
  5
347B
  8
0
 10
151.63550753128061
 20
50.201348305605002
 30
0.0
  0
VERTEX
  5
347C
  8
0
 10
151.86273041007391
 20
50.228099567708561
 30
0.0
  0
VERTEX
  5
347D
  8
0
 10
152.08628740040911
 20
50.254419239720953
 30
0.0
  0
VERTEX
  5
347E
  8
0
 10
152.19674240720059
 20
50.267423259619932
 30
0.0
  0
SEQEND
  5
347F
  8
0
  0
LINE
  5
2A6E
  8
0
 10
152.19674240720059
 20
50.267423259619932
 30
0.0
 11
152.25212997487401
 21
50.273944114157018
 31
0.0
  0
POLYLINE
  5
2A6F
  8
0
 66
     1
 10
0.0
 20
0.0
 30
0.0
  0
VERTEX
  5
3480
  8
0
 10
152.3769073468159
 20
49.499012041627559
 30
0.0
  0
VERTEX
  5
3481
  8
0
 10
152.48990008795909
 20
49.52450631596988
 30
0.0
  0
VERTEX
  5
3482
  8
0
 10
152.71308194772951
 20
49.574862290200137
 30
0.0
  0
VERTEX
  5
3483
  8
0
 10
152.93266311461139
 20
49.624405848947873
 30
0.0
  0
VERTEX
  5
3484
  8
0
 10
153.0411537471023
 20
49.648884323585342
 30
0.0
  0
SEQEND
  5
3485
  8
0
  0
LINE
  5
2A70
  8
0
 10
153.0411537471023
 20
49.648884323585321
 30
0.0
 11
153.0955562809807
 21
49.661159033532037
 31
0.0
  0
POLYLINE
  5
2A71
  8
0
 66
     1
 10
0.0
 20
0.0
 30
0.0
  0
VERTEX
  5
3486
  8
0
 10
153.30065256810181
 20
48.903514906918048
 30
0.0
  0
VERTEX
  5
3487
  8
0
 10
153.4103614458671
 20
48.940680478550057
 30
0.0
  0
VERTEX
  5
3488
  8
0
 10
153.62705705945521
 20
49.014089454315688
 30
0.0
  0
VERTEX
  5
3489
  8
0
 10
153.84025662566921
 20
49.086314090201491
 30
0.0
  0
VERTEX
  5
348A
  8
0
 10
153.94559423778671
 20
49.12199882828687
 30
0.0
  0
SEQEND
  5
348B
  8
0
  0
LINE
  5
2A72
  8
0
 10
153.94559423778671
 20
49.121998828286912
 30
0.0
 11
153.9984156923245
 21
49.139892909352277
 31
0.0
  0
POLYLINE
  5
2A73
  8
0
 66
     1
 10
0.0
 20
0.0
 30
0.0
  0
VERTEX
  5
348C
  8
0
 10
154.28158381678381
 20
48.407837636252196
 30
0.0
  0
VERTEX
  5
348D
  8
0
 10
154.38680683774859
 20
48.456267311393752
 30
0.0
  0
VERTEX
  5
348E
  8
0
 10
154.59464204266561
 20
48.551925004594523
 30
0.0
  0
VERTEX
  5
348F
  8
0
 10
154.79912414914921
 20
48.646039409393602
 30
0.0
  0
VERTEX
  5
3490
  8
0
 10
154.9001546399715
 20
48.692539441468853
 30
0.0
  0
SEQEND
  5
3491
  8
0
  0
LINE
  5
2A74
  8
0
 10
154.9001546399715
 20
48.692539441468853
 30
0.0
 11
154.95081629225919
 21
48.715856842356338
 31
0.0
  0
POLYLINE
  5
2A75
  8
0
 66
     1
 10
0.0
 20
0.0
 30
0.0
  0
VERTEX
  5
3492
  8
0
 10
155.30895380482849
 20
48.017410973534602
 30
0.0
  0
VERTEX
  5
3493
  8
0
 10
155.40853812355579
 20
48.076574146530277
 30
0.0
  0
VERTEX
  5
3494
  8
0
 10
155.60523583380379
 20
48.193432511461651
 30
0.0
  0
VERTEX
  5
3495
  8
0
 10
155.79876013180771
 20
48.3084055480603
 30
0.0
  0
VERTEX
  5
3496
  8
0
 10
155.89437659013581
 20
48.365211410043429
 30
0.0
  0
SEQEND
  5
3497
  8
0
  0
LINE
  5
2A76
  8
0
 10
155.89437659013581
 20
48.365211410043457
 30
0.0
 11
155.94232338050929
 21
48.393696660429327
 31
0.0
  0
POLYLINE
  5
2A77
  8
0
 66
     1
 10
0.0
 20
0.0
 30
0.0
  0
VERTEX
  5
3498
  8
0
 10
156.3715064516557
 20
47.73651251498395
 30
0.0
  0
VERTEX
  5
3499
  8
0
 10
156.4643610015101
 20
47.805760981729797
 30
0.0
  0
VERTEX
  5
349A
  8
0
 10
156.6477661558144
 20
47.942539693691508
 30
0.0
  0
VERTEX
  5
349B
  8
0
 10
156.82821235263219
 20
48.07711169344114
 30
0.0
  0
VERTEX
  5
349C
  8
0
 10
156.91736718453919
 20
48.143601008420717
 30
0.0
  0
SEQEND
  5
349D
  8
0
  0
LINE
  5
2A78
  8
0
 10
156.91736718453919
 20
48.143601008420717
 30
0.0
 11
156.96207379792969
 21
48.17694201794086
 31
0.0
  0
POLYLINE
  5
2A79
  8
0
 66
     1
 10
0.0
 20
0.0
 30
0.0
  0
VERTEX
  5
349E
  8
0
 10
157.45760020811349
 20
47.568219842893988
 30
0.0
  0
VERTEX
  5
349F
  8
0
 10
157.54270765521559
 20
47.646794902697081
 30
0.0
  0
VERTEX
  5
34A0
  8
0
 10
157.71081082832549
 20
47.801995385498003
 30
0.0
  0
VERTEX
  5
34A1
  8
0
 10
157.8762019176641
 20
47.954691949408407
 30
0.0
  0
VERTEX
  5
34A2
  8
0
 10
157.957918324155
 20
48.03013624653579
 30
0.0
  0
SEQEND
  5
34A3
  8
0
  0
LINE
  5
2A7A
  8
0
 10
157.95791832415509
 20
48.03013624653579
 30
0.0
 11
157.9988949455506
 21
48.067967724112918
 31
0.0
  0
POLYLINE
  5
2A7B
  8
0
 66
     1
 10
0.0
 20
0.0
 30
0.0
  0
VERTEX
  5
34A4
  8
0
 10
158.55533560372629
 20
47.514376806997603
 30
0.0
  0
VERTEX
  5
34A5
  8
0
 10
158.63176349307591
 20
47.601417575059877
 30
0.0
  0
VERTEX
  5
34A6
  8
0
 10
158.7827229114489
 20
47.773339419732586
 30
0.0
  0
VERTEX
  5
34A7
  8
0
 10
158.9312468339231
 20
47.942487572295668
 30
0.0
  0
VERTEX
  5
34A8
  8
0
 10
159.00462951294821
 20
48.026060268063929
 30
0.0
  0
SEQEND
  5
34A9
  8
0
  0
LINE
  5
2A7C
  8
0
 10
159.00462951294821
 20
48.026060268063901
 30
0.0
 11
159.0414271939101
 21
48.067967724112883
 31
0.0
  0
POLYLINE
  5
2A7D
  8
0
 66
     1
 10
0.0
 20
0.0
 30
0.0
  0
VERTEX
  5
34AA
  8
0
 10
159.65268561978391
 20
47.575573322863477
 30
0.0
  0
VERTEX
  5
34AB
  8
0
 10
159.7195965914317
 20
47.670126162315619
 30
0.0
  0
VERTEX
  5
34AC
  8
0
 10
159.85175831209
 20
47.856885757153137
 30
0.0
  0
VERTEX
  5
34AD
  8
0
 10
159.9817878085245
 20
48.040632275812897
 30
0.0
  0
VERTEX
  5
34AE
  8
0
 10
160.046032764096
 20
48.131417730278223
 30
0.0
  0
SEQEND
  5
34AF
  8
0
  0
LINE
  5
2A7E
  8
0
 10
160.046032764096
 20
48.131417730278223
 30
0.0
 11
160.07824834153109
 21
48.176942017940831
 31
0.0
  0
POLYLINE
  5
2A7F
  8
0
 66
     1
 10
0.0
 20
0.0
 30
0.0
  0
VERTEX
  5
34B0
  8
0
 10
160.73762745987511
 20
47.751138908657559
 30
0.0
  0
VERTEX
  5
34B1
  8
0
 10
160.7942884232136
 20
47.852167878803947
 30
0.0
  0
VERTEX
  5
34B2
  8
0
 10
160.906204454689
 20
48.051719046603239
 30
0.0
  0
VERTEX
  5
34B3
  8
0
 10
161.0163148947106
 20
48.248050766049943
 30
0.0
  0
VERTEX
  5
34B4
  8
0
 10
161.07071824565111
 20
48.345054314775233
 30
0.0
  0
SEQEND
  5
34B5
  8
0
  0
LINE
  5
2A80
  8
0
 10
161.07071824565111
 20
48.345054314775183
 30
0.0
 11
161.09799875895149
 21
48.393696660429299
 31
0.0
  0
POLYLINE
  5
2A81
  8
0
 66
     1
 10
0.0
 20
0.0
 30
0.0
  0
VERTEX
  5
34B6
  8
0
 10
161.7982742741612
 20
48.039150031082499
 30
0.0
  0
VERTEX
  5
34B7
  8
0
 10
161.84406443981919
 20
48.14554823738473
 30
0.0
  0
VERTEX
  5
34B8
  8
0
 10
161.93450860665081
 20
48.3557046537926
 30
0.0
  0
VERTEX
  5
34B9
  8
0
 10
162.0234935972365
 20
48.562470522622696
 30
0.0
  0
VERTEX
  5
34BA
  8
0
 10
162.0674592890484
 20
48.664629374428813
 30
0.0
  0
SEQEND
  5
34BB
  8
0
  0
LINE
  5
2A82
  8
0
 10
162.0674592890484
 20
48.664629374428813
 30
0.0
 11
162.08950584720151
 21
48.715856842356253
 31
0.0
  0
POLYLINE
  5
2A83
  8
0
 66
     1
 10
0.0
 20
0.0
 30
0.0
  0
VERTEX
  5
34BC
  8
0
 10
162.82300539419029
 20
48.436451180010721
 30
0.0
  0
VERTEX
  5
34BD
  8
0
 10
162.85742307553051
 20
48.54705290145526
 30
0.0
  0
VERTEX
  5
34BE
  8
0
 10
162.92540445249989
 20
48.765512048795358
 30
0.0
  0
VERTEX
  5
34BF
  8
0
 10
162.99228905547139
 20
48.980446696881472
 30
0.0
  0
VERTEX
  5
34C0
  8
0
 10
163.02533539083501
 20
49.086641578010017
 30
0.0
  0
SEQEND
  5
34C1
  8
0
  0
LINE
  5
2A84
  8
0
 10
163.02533539083501
 20
49.086641578009981
 30
0.0
 11
163.04190644713631
 21
49.139892909352263
 31
0.0
  0
POLYLINE
  5
2A85
  8
0
 66
     1
 10
0.0
 20
0.0
 30
0.0
  0
VERTEX
  5
34C2
  8
0
 10
163.80059365137259
 20
48.938689440913983
 30
0.0
  0
VERTEX
  5
34C3
  8
0
 10
163.8232617610758
 20
49.052282901895637
 30
0.0
  0
VERTEX
  5
34C4
  8
0
 10
163.868035529991
 20
49.276651296034323
 30
0.0
  0
VERTEX
  5
34C5
  8
0
 10
163.91208694364181
 20
49.497399854394189
 30
0.0
  0
VERTEX
  5
34C6
  8
0
 10
163.93385185999119
 20
49.606467271504719
 30
0.0
  0
SEQEND
  5
34C7
  8
0
  0
LINE
  5
2A86
  8
0
 10
163.93385185999119
 20
49.606467271504719
 30
0.0
 11
163.94476585848011
 21
49.661159033532023
 31
0.0
  0
POLYLINE
  5
2A87
  8
0
 66
     1
 10
0.0
 20
0.0
 30
0.0
  0
VERTEX
  5
34C8
  8
0
 10
164.7203283841888
 20
49.540362186305707
 30
0.0
  0
VERTEX
  5
34C9
  8
0
 10
164.7309985657015
 20
49.655702833095091
 30
0.0
  0
VERTEX
  5
34CA
  8
0
 10
164.75207417578071
 20
49.883522246954101
 30
0.0
  0
VERTEX
  5
34CB
  8
0
 10
164.77280976360441
 20
50.10766614818769
 30
0.0
  0
VERTEX
  5
34CC
  8
0
 10
164.78305479996169
 20
50.21841113583443
 30
0.0
  0
SEQEND
  5
34CD
  8
0
  0
LINE
  5
2A88
  8
0
 10
164.78305479996169
 20
50.21841113583443
 30
0.0
 11
164.78819216458669
 21
50.273944114156983
 31
0.0
  0
POLYLINE
  5
2A89
  8
0
 66
     1
 10
0.0
 20
0.0
 30
0.0
  0
VERTEX
  5
34CE
  8
0
 10
165.57213278643931
 20
50.234877363679317
 30
0.0
  0
VERTEX
  5
34CF
  8
0
 10
165.57068813502019
 20
50.350701500013493
 30
0.0
  0
VERTEX
  5
34D0
  8
0
 10
165.56783467746891
 20
50.579475896420291
 30
0.0
  0
VERTEX
  5
34D1
  8
0
 10
165.56502725602621
 20
50.804559373040597
 30
0.0
  0
VERTEX
  5
34D2
  8
0
 10
165.56364016562901
 20
50.915768585964109
 30
0.0
  0
SEQEND
  5
34D3
  8
0
  0
LINE
  5
2A8A
  8
0
 10
165.56364016562901
 20
50.915768585964109
 30
0.0
 11
165.56294461034841
 21
50.971534349650398
 31
0.0
  0
POLYLINE
  5
2A8B
  8
0
 66
     1
 10
0.0
 20
0.0
 30
0.0
  0
VERTEX
  5
34D4
  8
0
 10
166.34667431084171
 20
51.014625719414788
 30
0.0
  0
VERTEX
  5
34D5
  8
0
 10
166.33313065439381
 20
51.129664351818739
 30
0.0
  0
VERTEX
  5
34D6
  8
0
 10
166.3063793922903
 20
51.356887230611868
 30
0.0
  0
VERTEX
  5
34D7
  8
0
 10
166.2800597202779
 20
51.580444220946987
 30
0.0
  0
VERTEX
  5
34D8
  8
0
 10
166.2670557003789
 20
51.690899227738697
 30
0.0
  0
SEQEND
  5
34D9
  8
0
  0
LINE
  5
2A8C
  8
0
 10
166.2670557003789
 20
51.690899227738697
 30
0.0
 11
166.26053484584179
 21
51.746286795412033
 31
0.0
  0
POLYLINE
  5
2A8D
  8
0
 66
     1
 10
0.0
 20
0.0
 30
0.0
  0
VERTEX
  5
34DA
  8
0
 10
167.03546691837121
 20
51.871064167353921
 30
0.0
  0
VERTEX
  5
34DB
  8
0
 10
167.00997264402889
 20
51.98405690849728
 30
0.0
  0
VERTEX
  5
34DC
  8
0
 10
166.95961666979861
 20
52.207238768267608
 30
0.0
  0
VERTEX
  5
34DD
  8
0
 10
166.91007311105091
 20
52.42681993514941
 30
0.0
  0
VERTEX
  5
34DE
  8
0
 10
166.88559463641349
 20
52.53531056764038
 30
0.0
  0
SEQEND
  5
34DF
  8
0
  0
LINE
  5
2A8E
  8
0
 10
166.88559463641349
 20
52.53531056764038
 30
0.0
 11
166.87331992646679
 21
52.589713101518747
 31
0.0
  0
POLYLINE
  5
2A8F
  8
0
 66
     1
 10
0.0
 20
0.0
 30
0.0
  0
VERTEX
  5
34E0
  8
0
 10
167.63096405308079
 20
52.794809388639777
 30
0.0
  0
VERTEX
  5
34E1
  8
0
 10
167.59379848144869
 20
52.904518266405397
 30
0.0
  0
VERTEX
  5
34E2
  8
0
 10
167.52038950568311
 20
53.121213879993348
 30
0.0
  0
VERTEX
  5
34E3
  8
0
 10
167.44816486979741
 20
53.334413446207087
 30
0.0
  0
VERTEX
  5
34E4
  8
0
 10
167.4124801317119
 20
53.439751058324759
 30
0.0
  0
SEQEND
  5
34E5
  8
0
  0
LINE
  5
2A90
  8
0
 10
167.4124801317119
 20
53.439751058324731
 30
0.0
 11
167.3945860506465
 21
53.492572512862552
 31
0.0
  0
POLYLINE
  5
2A91
  8
0
 66
     1
 10
0.0
 20
0.0
 30
0.0
  0
VERTEX
  5
34E6
  8
0
 10
168.12664132374661
 20
53.775740637321888
 30
0.0
  0
VERTEX
  5
34E7
  8
0
 10
168.07821164860499
 20
53.880963658286817
 30
0.0
  0
VERTEX
  5
34E8
  8
0
 10
167.98255395540431
 20
54.088798863203628
 30
0.0
  0
VERTEX
  5
34E9
  8
0
 10
167.88843955060531
 20
54.293280969687117
 30
0.0
  0
VERTEX
  5
34EA
  8
0
 10
167.84193951853001
 20
54.394311460509563
 30
0.0
  0
SEQEND
  5
34EB
  8
0
  0
LINE
  5
2A92
  8
0
 10
167.84193951853001
 20
54.394311460509563
 30
0.0
 11
167.81862211764249
 21
54.444973112797221
 31
0.0
  0
POLYLINE
  5
2A93
  8
0
 66
     1
 10
0.0
 20
0.0
 30
0.0
  0
VERTEX
  5
34EC
  8
0
 10
168.51706798646421
 20
54.803110625366543
 30
0.0
  0
VERTEX
  5
34ED
  8
0
 10
168.45790481346839
 20
54.902694944093888
 30
0.0
  0
VERTEX
  5
34EE
  8
0
 10
168.3410464485371
 20
55.099392654341898
 30
0.0
  0
VERTEX
  5
34EF
  8
0
 10
168.2260734119385
 20
55.292916952345699
 30
0.0
  0
VERTEX
  5
34F0
  8
0
 10
168.16926754995541
 20
55.388533410673858
 30
0.0
  0
SEQEND
  5
34F1
  8
0
  0
LINE
  5
2A94
  8
0
 10
168.16926754995541
 20
55.38853341067383
 30
0.0
 11
168.14078229956951
 21
55.436480201047317
 31
0.0
  0
POLYLINE
  5
2A95
  8
0
 66
     1
 10
0.0
 20
0.0
 30
0.0
  0
VERTEX
  5
34F2
  8
0
 10
168.79796644501491
 20
55.865663272193807
 30
0.0
  0
VERTEX
  5
34F3
  8
0
 10
168.728717978269
 20
55.958517822048172
 30
0.0
  0
VERTEX
  5
34F4
  8
0
 10
168.59193926630741
 20
56.14192297635239
 30
0.0
  0
VERTEX
  5
34F5
  8
0
 10
168.4573672665577
 20
56.322369173170131
 30
0.0
  0
VERTEX
  5
34F6
  8
0
 10
168.39087795157809
 20
56.411524005077318
 30
0.0
  0
SEQEND
  5
34F7
  8
0
  0
LINE
  5
2A96
  8
0
 10
168.39087795157809
 20
56.411524005077318
 30
0.0
 11
168.35753694205789
 21
56.456230618467742
 31
0.0
  0
POLYLINE
  5
2A97
  8
0
 66
     1
 10
0.0
 20
0.0
 30
0.0
  0
VERTEX
  5
34F8
  8
0
 10
168.96625911710481
 20
56.951757028651571
 30
0.0
  0
VERTEX
  5
34F9
  8
0
 10
168.88768405730181
 20
57.036864475753561
 30
0.0
  0
VERTEX
  5
34FA
  8
0
 10
168.73248357450089
 20
57.204967648863459
 30
0.0
  0
VERTEX
  5
34FB
  8
0
 10
168.57978701059039
 20
57.3703587382021
 30
0.0
  0
VERTEX
  5
34FC
  8
0
 10
168.50434271346299
 20
57.452075144693111
 30
0.0
  0
SEQEND
  5
34FD
  8
0
  0
LINE
  5
2A98
  8
0
 10
168.50434271346299
 20
57.452075144693111
 30
0.0
 11
168.46651123588589
 21
57.493051766088712
 31
0.0
  0
POLYLINE
  5
2A99
  8
0
 66
     1
 10
0.0
 20
0.0
 30
0.0
  0
VERTEX
  5
34FE
  8
0
 10
169.0201021530012
 20
58.0494924242644
 30
0.0
  0
VERTEX
  5
34FF
  8
0
 10
168.93306138493881
 20
58.12592031361401
 30
0.0
  0
VERTEX
  5
3500
  8
0
 10
168.7611395402661
 20
58.276879731987009
 30
0.0
  0
VERTEX
  5
3501
  8
0
 10
168.5919913877031
 20
58.425403654461093
 30
0.0
  0
VERTEX
  5
3502
  8
0
 10
168.50841869193491
 20
58.498786333486287
 30
0.0
  0
SEQEND
  5
3503
  8
0
  0
LINE
  5
2A9A
  8
0
 10
168.50841869193491
 20
58.498786333486322
 30
0.0
 11
168.46651123588589
 21
58.535584014448183
 31
0.0
  0
POLYLINE
  5
2A9B
  8
0
 66
     1
 10
0.0
 20
0.0
 30
0.0
  0
VERTEX
  5
3504
  8
0
 10
168.9589056371353
 20
59.14684244032199
 30
0.0
  0
VERTEX
  5
3505
  8
0
 10
168.8643527976831
 20
59.213753411969812
 30
0.0
  0
VERTEX
  5
3506
  8
0
 10
168.67759320284549
 20
59.345915132628079
 30
0.0
  0
VERTEX
  5
3507
  8
0
 10
168.49384668418591
 20
59.47594462906256
 30
0.0
  0
VERTEX
  5
3508
  8
0
 10
168.40306122972049
 20
59.540189584634021
 30
0.0
  0
SEQEND
  5
3509
  8
0
  0
LINE
  5
2A9C
  8
0
 10
168.40306122972049
 20
59.540189584634021
 30
0.0
 11
168.35753694205789
 21
59.572405162069082
 31
0.0
  0
POLYLINE
  5
2A9D
  8
0
 66
     1
 10
0.0
 20
0.0
 30
0.0
  0
VERTEX
  5
350A
  8
0
 10
168.78334005134121
 20
60.231784280413187
 30
0.0
  0
VERTEX
  5
350B
  8
0
 10
168.6823110811948
 20
60.288445243751731
 30
0.0
  0
VERTEX
  5
350C
  8
0
 10
168.4827599133954
 20
60.400361275227112
 30
0.0
  0
VERTEX
  5
350D
  8
0
 10
168.28642819394881
 20
60.510471715248677
 30
0.0
  0
VERTEX
  5
350E
  8
0
 10
168.1894246452236
 20
60.564875066189131
 30
0.0
  0
SEQEND
  5
350F
  8
0
  0
LINE
  5
2A9E
  8
0
 10
168.1894246452236
 20
60.56487506618916
 30
0.0
 11
168.14078229956951
 21
60.592155579489507
 31
0.0
  0
POLYLINE
  5
2A9F
  8
0
 66
     1
 10
0.0
 20
0.0
 30
0.0
  0
VERTEX
  5
3510
  8
0
 10
168.49532892891631
 20
61.29243109469931
 30
0.0
  0
VERTEX
  5
3511
  8
0
 10
168.38893072261411
 20
61.338221260357187
 30
0.0
  0
VERTEX
  5
3512
  8
0
 10
168.17877430620629
 20
61.428665427188832
 30
0.0
  0
VERTEX
  5
3513
  8
0
 10
167.97200843737619
 20
61.51765041777449
 30
0.0
  0
VERTEX
  5
3514
  8
0
 10
167.86984958556999
 20
61.561616109586417
 30
0.0
  0
SEQEND
  5
3515
  8
0
  0
LINE
  5
2AA0
  8
0
 10
167.86984958556999
 20
61.561616109586417
 30
0.0
 11
167.81862211764249
 21
61.583662667739617
 31
0.0
  0
POLYLINE
  5
2AA1
  8
0
 66
     1
 10
0.0
 20
0.0
 30
0.0
  0
VERTEX
  5
3516
  8
0
 10
168.09802777998809
 20
62.317162214728363
 30
0.0
  0
VERTEX
  5
3517
  8
0
 10
167.98742605854349
 20
62.351579896068529
 30
0.0
  0
VERTEX
  5
3518
  8
0
 10
167.76896691120339
 20
62.419561273037999
 30
0.0
  0
VERTEX
  5
3519
  8
0
 10
167.55403226311731
 20
62.486445876009533
 30
0.0
  0
VERTEX
  5
351A
  8
0
 10
167.44783738198879
 20
62.519492211373013
 30
0.0
  0
SEQEND
  5
351B
  8
0
  0
LINE
  5
2AA2
  8
0
 10
167.44783738198879
 20
62.519492211373027
 30
0.0
 11
167.3945860506465
 21
62.53606326767428
 31
0.0
  0
POLYLINE
  5
2AA3
  8
0
 66
     1
 10
0.0
 20
0.0
 30
0.0
  0
VERTEX
  5
351C
  8
0
 10
167.5957895190848
 20
63.294750471910618
 30
0.0
  0
VERTEX
  5
351D
  8
0
 10
167.48219605810311
 20
63.317418581613822
 30
0.0
  0
VERTEX
  5
351E
  8
0
 10
167.25782766396449
 20
63.362192350529
 30
0.0
  0
VERTEX
  5
351F
  8
0
 10
167.0370791056047
 20
63.406243764179813
 30
0.0
  0
VERTEX
  5
3520
  8
0
 10
166.92801168849411
 20
63.428008680529253
 30
0.0
  0
SEQEND
  5
3521
  8
0
  0
LINE
  5
2AA4
  8
0
 10
166.92801168849411
 20
63.428008680529253
 30
0.0
 11
166.87331992646679
 21
63.43892267901807
 31
0.0
  0
POLYLINE
  5
2AA5
  8
0
 66
     1
 10
0.0
 20
0.0
 30
0.0
  0
VERTEX
  5
3522
  8
0
 10
166.99411677369301
 20
64.214485204726785
 30
0.0
  0
VERTEX
  5
3523
  8
0
 10
166.8787761269038
 20
64.225155386239607
 30
0.0
  0
VERTEX
  5
3524
  8
0
 10
166.65095671304491
 20
64.246230996318758
 30
0.0
  0
VERTEX
  5
3525
  8
0
 10
166.4268128118112
 20
64.266966584142494
 30
0.0
  0
VERTEX
  5
3526
  8
0
 10
166.31606782416429
 20
64.277211620499742
 30
0.0
  0
SEQEND
  5
3527
  8
0
  0
LINE
  5
2AA6
  8
0
 10
166.31606782416429
 20
64.277211620499742
 30
0.0
 11
166.26053484584179
 21
64.282348985124798
 31
0.0
  0
POLYLINE
  5
2AA7
  8
0
 66
     1
 10
0.0
 20
0.0
 30
0.0
  0
VERTEX
  5
3528
  8
0
 10
166.29960159631949
 20
65.066289606977392
 30
0.0
  0
VERTEX
  5
3529
  8
0
 10
166.18377745998521
 20
65.064844955558215
 30
0.0
  0
VERTEX
  5
352A
  8
0
 10
165.9550030635784
 20
65.061991498006989
 30
0.0
  0
VERTEX
  5
352B
  8
0
 10
165.7299195869582
 20
65.059184076564264
 30
0.0
  0
VERTEX
  5
352C
  8
0
 10
165.61871037403469
 20
65.057796986167062
 30
0.0
  0
SEQEND
  5
352D
  8
0
  0
LINE
  5
2AA8
  8
0
 10
165.61871037403461
 20
65.057796986167062
 30
0.0
 11
165.56294461034841
 21
65.057101430886433
 31
0.0
  0
POLYLINE
  5
2AA9
  8
0
 66
     1
 10
0.0
 20
0.0
 30
0.0
  0
VERTEX
  5
352E
  8
0
 10
165.5198532405839
 20
65.840831131379744
 30
0.0
  0
VERTEX
  5
352F
  8
0
 10
165.40481460818009
 20
65.827287474931879
 30
0.0
  0
VERTEX
  5
3530
  8
0
 10
165.17759172938679
 20
65.800536212828305
 30
0.0
  0
VERTEX
  5
3531
  8
0
 10
164.95403473905159
 20
65.774216540815914
 30
0.0
  0
VERTEX
  5
3532
  8
0
 10
164.84357973226011
 20
65.761212520916942
 30
0.0
  0
SEQEND
  5
3533
  8
0
  0
LINE
  5
2AAA
  8
0
 10
164.84357973226011
 20
65.761212520916942
 30
0.0
 11
164.7881921645868
 21
65.754691666379856
 31
0.0
  0
POLYLINE
  5
2AAB
  8
0
 66
     1
 10
0.0
 20
0.0
 30
0.0
  0
VERTEX
  5
3534
  8
0
 10
164.6634147926448
 20
66.529623738909308
 30
0.0
  0
VERTEX
  5
3535
  8
0
 10
164.55042205150161
 20
66.504129464566958
 30
0.0
  0
VERTEX
  5
3536
  8
0
 10
164.32724019173119
 20
66.453773490336715
 30
0.0
  0
VERTEX
  5
3537
  8
0
 10
164.10765902484931
 20
66.404229931589029
 30
0.0
  0
VERTEX
  5
3538
  8
0
 10
163.9991683923584
 20
66.379751456951524
 30
0.0
  0
SEQEND
  5
3539
  8
0
  0
LINE
  5
2AAC
  8
0
 10
163.9991683923584
 20
66.379751456951553
 30
0.0
 11
163.94476585848011
 21
66.367476747004829
 31
0.0
  0
POLYLINE
  5
2AAD
  8
0
 66
     1
 10
0.0
 20
0.0
 30
0.0
  0
VERTEX
  5
353A
  8
0
 10
163.739669571359
 20
67.125120873618826
 30
0.0
  0
VERTEX
  5
353B
  8
0
 10
163.62996069359329
 20
67.087955301986696
 30
0.0
  0
VERTEX
  5
353C
  8
0
 10
163.4132650800054
 20
67.014546326221151
 30
0.0
  0
VERTEX
  5
353D
  8
0
 10
163.2000655137918
 20
66.942321690335476
 30
0.0
  0
VERTEX
  5
353E
  8
0
 10
163.09472790167399
 20
66.906636952250025
 30
0.0
  0
SEQEND
  5
353F
  8
0
  0
LINE
  5
2AAE
  8
0
 10
163.09472790167399
 20
66.906636952249968
 30
0.0
 11
163.04190644713631
 21
66.888742871184576
 31
0.0
  0
POLYLINE
  5
2AAF
  8
0
 66
     1
 10
0.0
 20
0.0
 30
0.0
  0
VERTEX
  5
3540
  8
0
 10
162.75873832267689
 20
67.620798144284663
 30
0.0
  0
VERTEX
  5
3541
  8
0
 10
162.65351530171199
 20
67.572368469143086
 30
0.0
  0
VERTEX
  5
3542
  8
0
 10
162.4456800967954
 20
67.476710775942465
 30
0.0
  0
VERTEX
  5
3543
  8
0
 10
162.24119799031189
 20
67.382596371143435
 30
0.0
  0
VERTEX
  5
3544
  8
0
 10
162.14016749948919
 20
67.336096339068021
 30
0.0
  0
SEQEND
  5
3545
  8
0
  0
LINE
  5
2AB0
  8
0
 10
162.14016749948919
 20
67.336096339068021
 30
0.0
 11
162.08950584720151
 21
67.312778938180585
 31
0.0
  0
POLYLINE
  5
2AB1
  8
0
 66
     1
 10
0.0
 20
0.0
 30
0.0
  0
VERTEX
  5
3546
  8
0
 10
161.73136833463221
 20
68.011224807002307
 30
0.0
  0
VERTEX
  5
3547
  8
0
 10
161.63178401590491
 20
67.95206163400654
 30
0.0
  0
VERTEX
  5
3548
  8
0
 10
161.4350863056568
 20
67.835203269075194
 30
0.0
  0
VERTEX
  5
3549
  8
0
 10
161.24156200765299
 20
67.720230232476567
 30
0.0
  0
VERTEX
  5
354A
  8
0
 10
161.14594554932489
 20
67.663424370493445
 30
0.0
  0
SEQEND
  5
354B
  8
0
  0
LINE
  5
2AB2
  8
0
 10
161.14594554932489
 20
67.663424370493416
 30
0.0
 11
161.09799875895149
 21
67.634939120107546
 31
0.0
  0
POLYLINE
  5
2AB3
  8
0
 66
     1
 10
0.0
 20
0.0
 30
0.0
  0
VERTEX
  5
354C
  8
0
 10
160.66881568780499
 20
68.292123265552917
 30
0.0
  0
VERTEX
  5
354D
  8
0
 10
160.5759611379506
 20
68.222874798807013
 30
0.0
  0
VERTEX
  5
354E
  8
0
 10
160.39255598364639
 20
68.086096086845416
 30
0.0
  0
VERTEX
  5
354F
  8
0
 10
160.21210978682871
 20
67.951524087095848
 30
0.0
  0
VERTEX
  5
3550
  8
0
 10
160.12295495492151
 20
67.885034772116157
 30
0.0
  0
SEQEND
  5
3551
  8
0
  0
LINE
  5
2AB4
  8
0
 10
160.12295495492151
 20
67.885034772116157
 30
0.0
 11
160.07824834153109
 21
67.851693762596014
 31
0.0
  0
POLYLINE
  5
2AB5
  8
0
 66
     1
 10
0.0
 20
0.0
 30
0.0
  0
VERTEX
  5
3552
  8
0
 10
159.58272193134721
 20
68.460415937642878
 30
0.0
  0
VERTEX
  5
3553
  8
0
 10
159.4976144842451
 20
68.381840877839792
 30
0.0
  0
VERTEX
  5
3554
  8
0
 10
159.32951131113509
 20
68.226640395038757
 30
0.0
  0
VERTEX
  5
3555
  8
0
 10
159.16412022179659
 20
68.073943831128375
 30
0.0
  0
VERTEX
  5
3556
  8
0
 10
159.0824038153057
 20
67.998499534001084
 30
0.0
  0
SEQEND
  5
3557
  8
0
  0
LINE
  5
2AB6
  8
0
 10
159.0824038153057
 20
67.998499534001084
 30
0.0
 11
159.0414271939101
 21
67.960668056423955
 31
0.0
  0
LINE
  5
2AB8
  8
1
 10
158.52016106973039
 20
71.04392772182166
 30
0.0
 11
158.52016106973039
 21
44.984708058715192
 31
0.0
  0
LINE
  5
2AB9
  8
1
 10
145.4905512381772
 20
58.014317890268437
 30
0.0
 11
171.54977090128361
 21
58.014317890268423
 31
0.0
  0
CIRCLE
  5
2ABA
  8
0
 10
158.52016106974509
 20
58.014317890409629
 30
0.0
 40
10.49999999985805
  0
LINE
  5
2ADF
  8
0
 10
109.41281652750639
 20
105.9389702128247
 30
0.0
 11
108.9661284866057
 21
103.82961001968231
 31
0.0
  0
LINE
  5
2AE0
  8
0
 10
108.9661284866057
 20
89.902516815110587
 30
0.0
 11
109.41281652750639
 21
87.793156621968194
 31
0.0
  0
ARC
  5
2AE1
  8
0
 10
111.1737652836954
 20
88.166063417396487
 30
0.0
 40
1.800000000000004
 50
191.95658424314891
 51
270.0
  0
ARC
  5
2AE2
  8
0
 10
111.1737652836954
 20
105.56606341739641
 30
0.0
 40
1.800000000000004
 50
89.999999999999986
 51
168.04341575685021
  0
LINE
  5
2AE3
  8
0
 10
116.3150245002392
 20
106.8660634173964
 30
0.0
 11
115.8150245002393
 21
107.3660634173964
 31
0.0
  0
ARC
  5
2AE4
  8
2
 10
135.01502450023921
 20
96.866063417396475
 30
0.0
 40
20.500000000000011
 50
155.81048584597511
 51
204.18951415402401
  0
LINE
  5
2AE5
  8
0
 10
115.8150245002393
 20
86.366063417396461
 30
0.0
 11
116.3150245002392
 21
86.866063417396447
 31
0.0
  0
LINE
  5
2AE6
  8
0
 10
115.8150245002393
 20
107.3660634173964
 30
0.0
 11
111.1737652836954
 21
107.3660634173964
 31
0.0
  0
LINE
  5
2AE7
  8
0
 10
111.1737652836954
 20
86.366063417396461
 30
0.0
 11
115.8150245002393
 21
86.366063417396461
 31
0.0
  0
LINE
  5
2AE8
  8
0
 10
108.9661284866057
 20
103.82961001968231
 30
0.0
 11
108.9661284866057
 21
89.902516815110587
 31
0.0
  0
LINE
  5
2AE9
  8
0
 10
109.41281652750639
 20
105.9389702128247
 30
0.0
 11
109.41281652750639
 21
87.793156621968194
 31
0.0
  0
LINE
  5
2AEA
  8
0
 10
116.3150245002392
 20
106.8660634173964
 30
0.0
 11
116.3150245002392
 21
86.866063417396447
 31
0.0
  0
LINE
  5
2AEB
  8
0
 10
115.8150245002393
 20
107.3048079848013
 30
0.0
 11
115.8150245002393
 21
107.3121614647709
 31
0.0
  0
LINE
  5
2AEC
  8
0
 10
115.8150245002393
 20
107.1292423990073
 30
0.0
 11
115.8150245002393
 21
107.143868792681
 31
0.0
  0
LINE
  5
2AED
  8
0
 10
115.8150245002393
 20
106.84123127658241
 30
0.0
 11
115.8150245002393
 21
106.8629703341303
 31
0.0
  0
LINE
  5
2AEE
  8
0
 10
115.8150245002393
 20
106.4439301276541
 30
0.0
 11
115.8150245002393
 21
106.47254367141269
 31
0.0
  0
LINE
  5
2AEF
  8
0
 10
115.8150245002393
 20
105.9416918667509
 30
0.0
 11
115.8150245002393
 21
105.9768664007468
 31
0.0
  0
LINE
  5
2AF0
  8
0
 10
115.8150245002393
 20
105.34001912135911
 30
0.0
 11
115.8150245002393
 21
105.3813692660373
 31
0.0
  0
LINE
  5
2AF1
  8
0
 10
115.8150245002393
 20
104.6455039439855
 30
0.0
 11
115.8150245002393
 21
104.6925766585077
 31
0.0
  0
LINE
  5
2AF2
  8
0
 10
115.8150245002393
 20
103.8657555882501
 30
0.0
 11
115.8150245002393
 21
103.91803513410539
 31
0.0
  0
LINE
  5
2AF3
  8
0
 10
115.8150245002393
 20
103.0093171403109
 30
0.0
 11
115.8150245002393
 21
103.0662307318548
 31
0.0
  0
LINE
  5
2AF4
  8
0
 10
115.8150245002393
 20
102.0855719190251
 30
0.0
 11
115.8150245002393
 21
102.14649599903861
 31
0.0
  0
LINE
  5
2AF5
  8
0
 10
115.8150245002393
 20
101.104640670343
 30
0.0
 11
115.8150245002393
 21
101.1689077418564
 31
0.0
  0
LINE
  5
2AF6
  8
0
 10
115.8150245002393
 20
100.07727068229831
 30
0.0
 11
115.8150245002393
 21
100.1441766218273
 31
0.0
  0
LINE
  5
2AF7
  8
0
 10
115.8150245002393
 20
99.014718035471063
 30
0.0
 11
115.8150245002393
 21
99.083529807541225
 31
0.0
  0
LINE
  5
2AF8
  8
0
 10
115.8150245002393
 20
97.928624279013277
 30
0.0
 11
115.8150245002393
 21
97.998587967449993
 31
0.0
  0
LINE
  5
2AF9
  8
0
 10
115.8150245002393
 20
96.830888883400533
 30
0.0
 11
115.8150245002393
 21
96.901237951392389
 31
0.0
  0
LINE
  5
2AFA
  8
0
 10
115.8150245002393
 20
95.733538867342929
 30
0.0
 11
115.8150245002393
 21
95.803502555779644
 31
0.0
  0
LINE
  5
2AFB
  8
0
 10
115.8150245002393
 20
94.648597027251711
 30
0.0
 11
115.8150245002393
 21
94.717408799321859
 31
0.0
  0
LINE
  5
2AFC
  8
0
 10
115.8150245002393
 20
93.587950212965623
 30
0.0
 11
115.8150245002393
 21
93.654856152494588
 31
0.0
  0
LINE
  5
2AFD
  8
0
 10
115.8150245002393
 20
92.563219092936507
 30
0.0
 11
115.8150245002393
 21
92.627486164449877
 31
0.0
  0
LINE
  5
2AFE
  8
0
 10
115.8150245002393
 20
91.585630835754273
 30
0.0
 11
115.8150245002393
 21
91.646554915767823
 31
0.0
  0
LINE
  5
2AFF
  8
0
 10
115.8150245002393
 20
90.665896102938078
 30
0.0
 11
115.8150245002393
 21
90.722809694481967
 31
0.0
  0
LINE
  5
2B00
  8
0
 10
115.8150245002393
 20
89.814091700687484
 30
0.0
 11
115.8150245002393
 21
89.866371246542855
 31
0.0
  0
LINE
  5
2B01
  8
0
 10
115.8150245002393
 20
89.039550176285104
 30
0.0
 11
115.8150245002393
 21
89.086622890807348
 31
0.0
  0
LINE
  5
2B02
  8
0
 10
115.8150245002393
 20
88.350757568755597
 30
0.0
 11
115.8150245002393
 21
88.392107713433759
 31
0.0
  0
LINE
  5
2B03
  8
0
 10
115.8150245002393
 20
87.755260434046079
 30
0.0
 11
115.8150245002393
 21
87.790434968042021
 31
0.0
  0
LINE
  5
2B04
  8
0
 10
115.8150245002393
 20
87.259583163380242
 30
0.0
 11
115.8150245002393
 21
87.288196707138766
 31
0.0
  0
LINE
  5
2B05
  8
0
 10
115.8150245002393
 20
86.869156500662555
 30
0.0
 11
115.8150245002393
 21
86.890895558210516
 31
0.0
  0
LINE
  5
2B06
  8
0
 10
115.8150245002393
 20
86.588258042111946
 30
0.0
 11
115.8150245002393
 21
86.602884435785612
 31
0.0
  0
LINE
  5
2B07
  8
0
 10
115.8150245002393
 20
86.419965370022013
 30
0.0
 11
115.8150245002393
 21
86.427318849991565
 31
0.0
  0
LINE
  5
2B08
  8
0
 10
111.1737652836954
 20
107.3660634173964
 30
0.0
 11
111.1737652836954
 21
86.366063417396461
 31
0.0
  0
LINE
  5
2B09
  8
0
 10
115.8150245002393
 20
107.3121614647709
 30
0.0
 11
113.62502450023931
 21
107.3121614647709
 31
0.0
  0
LINE
  5
2B0A
  8
0
 10
115.8150245002393
 20
107.143868792681
 30
0.0
 11
113.62502450023931
 21
107.143868792681
 31
0.0
  0
LINE
  5
2B0B
  8
0
 10
115.8150245002393
 20
106.8629703341303
 30
0.0
 11
113.62502450023931
 21
106.8629703341303
 31
0.0
  0
LINE
  5
2B0C
  8
0
 10
115.8150245002393
 20
106.47254367141269
 30
0.0
 11
113.62502450023931
 21
106.47254367141269
 31
0.0
  0
LINE
  5
2B0D
  8
0
 10
115.8150245002393
 20
105.9768664007468
 30
0.0
 11
113.62502450023931
 21
105.9768664007468
 31
0.0
  0
LINE
  5
2B0E
  8
0
 10
115.8150245002393
 20
105.3813692660373
 30
0.0
 11
113.62502450023931
 21
105.3813692660373
 31
0.0
  0
LINE
  5
2B0F
  8
0
 10
115.8150245002393
 20
104.6925766585077
 30
0.0
 11
113.62502450023931
 21
104.6925766585077
 31
0.0
  0
LINE
  5
2B10
  8
0
 10
115.8150245002393
 20
103.91803513410539
 30
0.0
 11
113.62502450023931
 21
103.91803513410539
 31
0.0
  0
LINE
  5
2B11
  8
0
 10
115.8150245002393
 20
103.0662307318548
 30
0.0
 11
113.62502450023931
 21
103.0662307318548
 31
0.0
  0
LINE
  5
2B12
  8
0
 10
115.8150245002393
 20
102.14649599903861
 30
0.0
 11
113.62502450023931
 21
102.14649599903861
 31
0.0
  0
LINE
  5
2B13
  8
0
 10
115.8150245002393
 20
101.1689077418564
 30
0.0
 11
113.62502450023931
 21
101.1689077418564
 31
0.0
  0
LINE
  5
2B14
  8
0
 10
115.8150245002393
 20
100.1441766218273
 30
0.0
 11
113.62502450023931
 21
100.1441766218273
 31
0.0
  0
LINE
  5
2B15
  8
0
 10
115.8150245002393
 20
99.083529807541225
 30
0.0
 11
113.62502450023931
 21
99.083529807541225
 31
0.0
  0
LINE
  5
2B16
  8
0
 10
115.8150245002393
 20
97.998587967449993
 30
0.0
 11
113.62502450023931
 21
97.998587967449993
 31
0.0
  0
LINE
  5
2B17
  8
0
 10
115.8150245002393
 20
96.901237951392389
 30
0.0
 11
113.62502450023931
 21
96.901237951392389
 31
0.0
  0
LINE
  5
2B18
  8
0
 10
115.8150245002393
 20
95.803502555779588
 30
0.0
 11
113.62502450023931
 21
95.803502555779588
 31
0.0
  0
LINE
  5
2B19
  8
0
 10
115.8150245002393
 20
94.717408799321859
 30
0.0
 11
113.62502450023931
 21
94.717408799321859
 31
0.0
  0
LINE
  5
2B1A
  8
0
 10
115.8150245002393
 20
93.654856152494588
 30
0.0
 11
113.62502450023931
 21
93.654856152494588
 31
0.0
  0
LINE
  5
2B1B
  8
0
 10
115.8150245002393
 20
92.627486164449877
 30
0.0
 11
113.62502450023931
 21
92.627486164449877
 31
0.0
  0
LINE
  5
2B1C
  8
0
 10
115.8150245002393
 20
91.646554915767823
 30
0.0
 11
113.62502450023931
 21
91.646554915767823
 31
0.0
  0
LINE
  5
2B1D
  8
0
 10
115.8150245002393
 20
90.722809694481967
 30
0.0
 11
113.62502450023931
 21
90.722809694481967
 31
0.0
  0
POLYLINE
  5
2B1E
  8
0
 66
     1
 10
0.0
 20
0.0
 30
0.0
  0
VERTEX
  5
3558
  8
0
 10
116.3150245002392
 20
90.542644754866728
 30
0.0
  0
VERTEX
  5
3559
  8
0
 10
116.2348083587295
 20
90.432189748075174
 30
0.0
  0
VERTEX
  5
355A
  8
0
 10
116.070680755777
 20
90.208632757739807
 30
0.0
  0
VERTEX
  5
355B
  8
0
 10
115.9015261411205
 20
89.981409878946494
 30
0.0
  0
VERTEX
  5
355C
  8
0
 10
115.8150245002393
 20
89.866371246542855
 30
0.0
  0
SEQEND
  5
355D
  8
0
  0
LINE
  5
2B1F
  8
0
 10
115.8150245002393
 20
89.866371246542855
 30
0.0
 11
113.62502450023931
 21
89.866371246542855
 31
0.0
  0
LINE
  5
2B20
  8
0
 10
115.8150245002393
 20
89.086622890807348
 30
0.0
 11
113.62502450023931
 21
89.086622890807348
 31
0.0
  0
LINE
  5
2B21
  8
0
 10
115.8150245002393
 20
88.392107713433759
 30
0.0
 11
113.62502450023931
 21
88.392107713433759
 31
0.0
  0
LINE
  5
2B22
  8
0
 10
115.8150245002393
 20
87.790434968042021
 30
0.0
 11
113.62502450023931
 21
87.790434968042021
 31
0.0
  0
LINE
  5
2B23
  8
0
 10
115.8150245002393
 20
87.288196707138766
 30
0.0
 11
113.62502450023931
 21
87.288196707138766
 31
0.0
  0
LINE
  5
2B24
  8
0
 10
115.8150245002393
 20
86.890895558210516
 30
0.0
 11
113.62502450023931
 21
86.890895558210516
 31
0.0
  0
LINE
  5
2B25
  8
0
 10
115.8150245002393
 20
86.602884435785612
 30
0.0
 11
113.62502450023931
 21
86.602884435785612
 31
0.0
  0
LINE
  5
2B26
  8
0
 10
115.8150245002393
 20
86.427318849991565
 30
0.0
 11
113.62502450023931
 21
86.427318849991565
 31
0.0
  0
POLYLINE
  5
2B27
  8
0
 66
     1
 10
0.0
 20
0.0
 30
0.0
  0
VERTEX
  5
355E
  8
0
 10
116.3150245002392
 20
90.603169687165149
 30
0.0
  0
VERTEX
  5
355F
  8
0
 10
116.2348083587294
 20
90.613414723522368
 30
0.0
  0
VERTEX
  5
3560
  8
0
 10
116.070680755777
 20
90.634150311346104
 30
0.0
  0
VERTEX
  5
3561
  8
0
 10
115.9015261411206
 20
90.655225921425284
 30
0.0
  0
VERTEX
  5
3562
  8
0
 10
115.8150245002393
 20
90.665896102938078
 30
0.0
  0
SEQEND
  5
3563
  8
0
  0
POLYLINE
  5
2B28
  8
0
 66
     1
 10
0.0
 20
0.0
 30
0.0
  0
VERTEX
  5
3564
  8
0
 10
115.8205027230966
 20
107.360508964014
 30
0.0
  0
VERTEX
  5
3565
  8
0
 10
115.90602376664749
 20
107.2744223275151
 30
0.0
  0
VERTEX
  5
3566
  8
0
 10
116.0732997620366
 20
107.1043613905824
 30
0.0
  0
VERTEX
  5
3567
  8
0
 10
116.2356554735738
 20
106.93701436737931
 30
0.0
  0
VERTEX
  5
3568
  8
0
 10
116.3150245002392
 20
106.8543210396009
 30
0.0
  0
SEQEND
  5
3569
  8
0
  0
LINE
  5
2B29
  8
0
 10
113.62502450023931
 20
107.3121614647709
 30
0.0
 11
113.62502450023931
 21
107.3659872266438
 31
0.0
  0
LINE
  5
2B2A
  8
0
 10
113.62502450023931
 20
107.143868792681
 30
0.0
 11
113.62502450023931
 21
107.3048079848013
 31
0.0
  0
LINE
  5
2B2B
  8
0
 10
113.62502450023931
 20
106.8629703341303
 30
0.0
 11
113.62502450023931
 21
107.1292423990073
 31
0.0
  0
LINE
  5
2B2C
  8
0
 10
113.62502450023931
 20
106.47254367141269
 30
0.0
 11
113.62502450023931
 21
106.84123127658241
 31
0.0
  0
LINE
  5
2B2D
  8
0
 10
113.62502450023931
 20
105.9768664007468
 30
0.0
 11
113.62502450023931
 21
106.4439301276541
 31
0.0
  0
LINE
  5
2B2E
  8
0
 10
113.62502450023931
 20
105.3813692660373
 30
0.0
 11
113.62502450023931
 21
105.9416918667509
 31
0.0
  0
LINE
  5
2B2F
  8
0
 10
113.62502450023931
 20
104.6925766585077
 30
0.0
 11
113.62502450023931
 21
105.34001912135911
 31
0.0
  0
LINE
  5
2B30
  8
0
 10
113.62502450023931
 20
103.91803513410539
 30
0.0
 11
113.62502450023931
 21
104.6455039439855
 31
0.0
  0
LINE
  5
2B31
  8
0
 10
113.62502450023931
 20
103.0662307318548
 30
0.0
 11
113.62502450023931
 21
103.8657555882501
 31
0.0
  0
LINE
  5
2B32
  8
0
 10
113.62502450023931
 20
102.14649599903861
 30
0.0
 11
113.62502450023931
 21
103.0093171403109
 31
0.0
  0
LINE
  5
2B33
  8
0
 10
113.62502450023931
 20
101.1689077418564
 30
0.0
 11
113.62502450023931
 21
102.0855719190251
 31
0.0
  0
LINE
  5
2B34
  8
0
 10
113.62502450023931
 20
100.1441766218273
 30
0.0
 11
113.62502450023931
 21
101.104640670343
 31
0.0
  0
LINE
  5
2B35
  8
0
 10
113.62502450023931
 20
99.083529807541225
 30
0.0
 11
113.62502450023931
 21
100.07727068229831
 31
0.0
  0
LINE
  5
2B36
  8
0
 10
113.62502450023931
 20
97.998587967449993
 30
0.0
 11
113.62502450023931
 21
99.014718035471063
 31
0.0
  0
LINE
  5
2B37
  8
0
 10
113.62502450023931
 20
96.901237951392389
 30
0.0
 11
113.62502450023931
 21
97.928624279013334
 31
0.0
  0
LINE
  5
2B38
  8
0
 10
113.62502450023931
 20
95.803502555779588
 30
0.0
 11
113.62502450023931
 21
96.830888883400533
 31
0.0
  0
LINE
  5
2B39
  8
0
 10
113.62502450023931
 20
94.717408799321859
 30
0.0
 11
113.62502450023931
 21
95.733538867342929
 31
0.0
  0
LINE
  5
2B3A
  8
0
 10
113.62502450023931
 20
93.654856152494588
 30
0.0
 11
113.62502450023931
 21
94.648597027251711
 31
0.0
  0
LINE
  5
2B3B
  8
0
 10
113.62502450023931
 20
92.627486164449877
 30
0.0
 11
113.62502450023931
 21
93.587950212965623
 31
0.0
  0
LINE
  5
2B3C
  8
0
 10
113.62502450023931
 20
91.646554915767823
 30
0.0
 11
113.62502450023931
 21
92.563219092936507
 31
0.0
  0
LINE
  5
2B3D
  8
0
 10
113.62502450023931
 20
90.722809694481967
 30
0.0
 11
113.62502450023931
 21
91.585630835754273
 31
0.0
  0
LINE
  5
2B3E
  8
0
 10
113.62502450023931
 20
89.866371246542855
 30
0.0
 11
113.62502450023931
 21
90.665896102938078
 31
0.0
  0
LINE
  5
2B3F
  8
0
 10
113.62502450023931
 20
89.086622890807348
 30
0.0
 11
113.62502450023931
 21
89.814091700687484
 31
0.0
  0
LINE
  5
2B40
  8
0
 10
113.62502450023931
 20
86.366122334125649
 30
0.0
 11
113.62502450023931
 21
89.823279876778443
 31
0.0
  0
LINE
  5
2B41
  8
0
 10
113.62502450023931
 20
86.366122334125649
 30
0.0
 11
113.62502450023931
 21
86.419965370022013
 31
0.0
  0
LINE
  5
2B42
  8
0
 10
115.8150245002393
 20
107.3659872266438
 30
0.0
 11
115.8205027221131
 21
107.3605089630306
 31
0.0
  0
LINE
  5
2B43
  8
0
 10
115.8205027230966
 20
107.3605089640141
 30
0.0
 11
113.62502450023931
 21
107.3605089640141
 31
0.0
  0
POLYLINE
  5
2B44
  8
0
 66
     1
 10
0.0
 20
0.0
 30
0.0
  0
VERTEX
  5
356A
  8
0
 10
115.8150245002393
 20
107.3048079848014
 30
0.0
  0
VERTEX
  5
356B
  8
0
 10
115.9015261411205
 20
107.21025514534929
 30
0.0
  0
VERTEX
  5
356C
  8
0
 10
116.070680755777
 20
107.0234955505117
 30
0.0
  0
VERTEX
  5
356D
  8
0
 10
116.2348083587295
 20
106.8397490318518
 30
0.0
  0
VERTEX
  5
356E
  8
0
 10
116.3150245002392
 20
106.7489635773866
 30
0.0
  0
SEQEND
  5
356F
  8
0
  0
LINE
  5
2B45
  8
0
 10
113.62502450023931
 20
107.3048079848013
 30
0.0
 11
115.8150245002393
 21
107.3048079848013
 31
0.0
  0
POLYLINE
  5
2B46
  8
0
 66
     1
 10
0.0
 20
0.0
 30
0.0
  0
VERTEX
  5
3570
  8
0
 10
115.8150245002393
 20
107.1292423990073
 30
0.0
  0
VERTEX
  5
3571
  8
0
 10
115.9015261411207
 20
107.0282134288607
 30
0.0
  0
VERTEX
  5
3572
  8
0
 10
116.070680755777
 20
106.8286622610615
 30
0.0
  0
VERTEX
  5
3573
  8
0
 10
116.2348083587294
 20
106.632330541615
 30
0.0
  0
VERTEX
  5
3574
  8
0
 10
116.3150245002392
 20
106.53532699288959
 30
0.0
  0
SEQEND
  5
3575
  8
0
  0
LINE
  5
2B47
  8
0
 10
113.62502450023931
 20
107.1292423990073
 30
0.0
 11
115.8150245002393
 21
107.1292423990073
 31
0.0
  0
POLYLINE
  5
2B48
  8
0
 66
     1
 10
0.0
 20
0.0
 30
0.0
  0
VERTEX
  5
3576
  8
0
 10
115.8150245002393
 20
106.84123127658241
 30
0.0
  0
VERTEX
  5
3577
  8
0
 10
115.9015261411205
 20
106.7348330702803
 30
0.0
  0
VERTEX
  5
3578
  8
0
 10
116.070680755777
 20
106.5246766538724
 30
0.0
  0
VERTEX
  5
3579
  8
0
 10
116.2348083587295
 20
106.3179107850422
 30
0.0
  0
VERTEX
  5
357A
  8
0
 10
116.3150245002392
 20
106.21575193323611
 30
0.0
  0
SEQEND
  5
357B
  8
0
  0
LINE
  5
2B49
  8
0
 10
113.62502450023931
 20
106.84123127658241
 30
0.0
 11
115.8150245002393
 21
106.84123127658241
 31
0.0
  0
POLYLINE
  5
2B4A
  8
0
 66
     1
 10
0.0
 20
0.0
 30
0.0
  0
VERTEX
  5
357C
  8
0
 10
115.8150245002393
 20
106.4439301276541
 30
0.0
  0
VERTEX
  5
357D
  8
0
 10
115.9015261411206
 20
106.3333284062097
 30
0.0
  0
VERTEX
  5
357E
  8
0
 10
116.070680755777
 20
106.1148692588695
 30
0.0
  0
VERTEX
  5
357F
  8
0
 10
116.2348083587295
 20
105.8999346107833
 30
0.0
  0
VERTEX
  5
3580
  8
0
 10
116.3150245002392
 20
105.7937397296548
 30
0.0
  0
SEQEND
  5
3581
  8
0
  0
LINE
  5
2B4B
  8
0
 10
113.62502450023931
 20
106.4439301276541
 30
0.0
 11
115.8150245002393
 21
106.4439301276541
 31
0.0
  0
POLYLINE
  5
2B4C
  8
0
 66
     1
 10
0.0
 20
0.0
 30
0.0
  0
VERTEX
  5
3582
  8
0
 10
115.8150245002393
 20
105.9416918667509
 30
0.0
  0
VERTEX
  5
3583
  8
0
 10
115.9015261411206
 20
105.8280984057692
 30
0.0
  0
VERTEX
  5
3584
  8
0
 10
116.070680755777
 20
105.6037300116307
 30
0.0
  0
VERTEX
  5
3585
  8
0
 10
116.2348083587294
 20
105.3829814532708
 30
0.0
  0
VERTEX
  5
3586
  8
0
 10
116.3150245002392
 20
105.27391403616009
 30
0.0
  0
SEQEND
  5
3587
  8
0
  0
LINE
  5
2B4D
  8
0
 10
113.62502450023931
 20
105.9416918667509
 30
0.0
 11
115.8150245002393
 21
105.9416918667509
 31
0.0
  0
POLYLINE
  5
2B4E
  8
0
 66
     1
 10
0.0
 20
0.0
 30
0.0
  0
VERTEX
  5
3588
  8
0
 10
115.8150245002393
 20
105.34001912135911
 30
0.0
  0
VERTEX
  5
3589
  8
0
 10
115.9015261411207
 20
105.2246784745697
 30
0.0
  0
VERTEX
  5
358A
  8
0
 10
116.0706807557771
 20
104.9968590607108
 30
0.0
  0
VERTEX
  5
358B
  8
0
 10
116.2348083587294
 20
104.7727151594773
 30
0.0
  0
VERTEX
  5
358C
  8
0
 10
116.3150245002392
 20
104.6619701718304
 30
0.0
  0
SEQEND
  5
358D
  8
0
  0
LINE
  5
2B4F
  8
0
 10
113.62502450023931
 20
105.34001912135911
 30
0.0
 11
115.8150245002393
 21
105.34001912135911
 31
0.0
  0
POLYLINE
  5
2B50
  8
0
 66
     1
 10
0.0
 20
0.0
 30
0.0
  0
VERTEX
  5
358E
  8
0
 10
115.8150245002393
 20
104.6455039439855
 30
0.0
  0
VERTEX
  5
358F
  8
0
 10
115.9015261411207
 20
104.52967980765121
 30
0.0
  0
VERTEX
  5
3590
  8
0
 10
116.0706807557771
 20
104.3009054112445
 30
0.0
  0
VERTEX
  5
3591
  8
0
 10
116.2348083587294
 20
104.0758219346244
 30
0.0
  0
VERTEX
  5
3592
  8
0
 10
116.3150245002392
 20
103.9646127217007
 30
0.0
  0
SEQEND
  5
3593
  8
0
  0
LINE
  5
2B51
  8
0
 10
113.62502450023931
 20
103.90884695801439
 30
0.0
 11
113.62502450023931
 21
107.3605089640141
 31
0.0
  0
LINE
  5
2B52
  8
0
 10
113.62502450023931
 20
104.6455039439855
 30
0.0
 11
115.8150245002393
 21
104.6455039439855
 31
0.0
  0
POLYLINE
  5
2B53
  8
0
 66
     1
 10
0.0
 20
0.0
 30
0.0
  0
VERTEX
  5
3594
  8
0
 10
115.8150245002393
 20
103.8657555882501
 30
0.0
  0
VERTEX
  5
3595
  8
0
 10
115.9015261411206
 20
103.7507169558463
 30
0.0
  0
VERTEX
  5
3596
  8
0
 10
116.070680755777
 20
103.523494077053
 30
0.0
  0
VERTEX
  5
3597
  8
0
 10
116.2348083587294
 20
103.2999370867177
 30
0.0
  0
VERTEX
  5
3598
  8
0
 10
116.3150245002392
 20
103.18948207992619
 30
0.0
  0
SEQEND
  5
3599
  8
0
  0
LINE
  5
2B54
  8
0
 10
116.3150245002392
 20
103.1340945122528
 30
0.0
 11
113.62502450023931
 21
103.1340945122528
 31
0.0
  0
LINE
  5
2B55
  8
0
 10
113.62502450023931
 20
103.8657555882501
 30
0.0
 11
115.8150245002393
 21
103.8657555882501
 31
0.0
  0
POLYLINE
  5
2B56
  8
0
 66
     1
 10
0.0
 20
0.0
 30
0.0
  0
VERTEX
  5
359A
  8
0
 10
115.8150245002393
 20
103.0093171403109
 30
0.0
  0
VERTEX
  5
359B
  8
0
 10
115.9015261411205
 20
102.8963243991678
 30
0.0
  0
VERTEX
  5
359C
  8
0
 10
116.070680755777
 20
102.6731425393973
 30
0.0
  0
VERTEX
  5
359D
  8
0
 10
116.2348083587295
 20
102.4535613725154
 30
0.0
  0
VERTEX
  5
359E
  8
0
 10
116.3150245002392
 20
102.3450707400245
 30
0.0
  0
SEQEND
  5
359F
  8
0
  0
LINE
  5
2B57
  8
0
 10
116.3150245002392
 20
102.29066820614609
 30
0.0
 11
113.62502450023931
 21
102.29066820614609
 31
0.0
  0
LINE
  5
2B58
  8
0
 10
113.62502450023931
 20
103.0093171403109
 30
0.0
 11
115.8150245002393
 21
103.0093171403109
 31
0.0
  0
POLYLINE
  5
2B59
  8
0
 66
     1
 10
0.0
 20
0.0
 30
0.0
  0
VERTEX
  5
35A0
  8
0
 10
115.8150245002393
 20
102.0855719190251
 30
0.0
  0
VERTEX
  5
35A1
  8
0
 10
115.9015261411207
 20
101.9758630412595
 30
0.0
  0
VERTEX
  5
35A2
  8
0
 10
116.0706807557771
 20
101.7591674276714
 30
0.0
  0
VERTEX
  5
35A3
  8
0
 10
116.2348083587295
 20
101.5459678614576
 30
0.0
  0
VERTEX
  5
35A4
  8
0
 10
116.3150245002392
 20
101.4406302493401
 30
0.0
  0
SEQEND
  5
35A5
  8
0
  0
LINE
  5
2B5A
  8
0
 10
116.3150245002392
 20
101.3878087948023
 30
0.0
 11
113.62502450023931
 21
101.3878087948023
 31
0.0
  0
LINE
  5
2B5B
  8
0
 10
113.62502450023931
 20
102.0855719190251
 30
0.0
 11
115.8150245002393
 21
102.0855719190251
 31
0.0
  0
POLYLINE
  5
2B5C
  8
0
 66
     1
 10
0.0
 20
0.0
 30
0.0
  0
VERTEX
  5
35A6
  8
0
 10
115.8150245002393
 20
101.104640670343
 30
0.0
  0
VERTEX
  5
35A7
  8
0
 10
115.9015261411205
 20
100.9994176493782
 30
0.0
  0
VERTEX
  5
35A8
  8
0
 10
116.070680755777
 20
100.7915824444614
 30
0.0
  0
VERTEX
  5
35A9
  8
0
 10
116.2348083587295
 20
100.5871003379778
 30
0.0
  0
VERTEX
  5
35AA
  8
0
 10
116.3150245002392
 20
100.48606984715531
 30
0.0
  0
SEQEND
  5
35AB
  8
0
  0
LINE
  5
2B5D
  8
0
 10
116.3150245002392
 20
100.43540819486761
 30
0.0
 11
113.62502450023931
 21
100.43540819486761
 31
0.0
  0
LINE
  5
2B5E
  8
0
 10
113.62502450023931
 20
101.104640670343
 30
0.0
 11
115.8150245002393
 21
101.104640670343
 31
0.0
  0
POLYLINE
  5
2B5F
  8
0
 66
     1
 10
0.0
 20
0.0
 30
0.0
  0
VERTEX
  5
35AC
  8
0
 10
115.8150245002393
 20
100.07727068229831
 30
0.0
  0
VERTEX
  5
35AD
  8
0
 10
115.9015261411207
 20
99.97768636357101
 30
0.0
  0
VERTEX
  5
35AE
  8
0
 10
116.070680755777
 20
99.780988653323021
 30
0.0
  0
VERTEX
  5
35AF
  8
0
 10
116.2348083587294
 20
99.587464355319185
 30
0.0
  0
VERTEX
  5
35B0
  8
0
 10
116.3150245002392
 20
99.491847896991032
 30
0.0
  0
SEQEND
  5
35B1
  8
0
  0
LINE
  5
2B60
  8
0
 10
116.3150245002392
 20
99.443901106617574
 30
0.0
 11
113.62502450023931
 21
99.443901106617574
 31
0.0
  0
LINE
  5
2B61
  8
0
 10
113.62502450023931
 20
100.07727068229831
 30
0.0
 11
115.8150245002393
 21
100.07727068229831
 31
0.0
  0
POLYLINE
  5
2B62
  8
0
 66
     1
 10
0.0
 20
0.0
 30
0.0
  0
VERTEX
  5
35B2
  8
0
 10
115.8150245002393
 20
99.014718035471105
 30
0.0
  0
VERTEX
  5
35B3
  8
0
 10
115.9015261411206
 20
98.921863485616768
 30
0.0
  0
VERTEX
  5
35B4
  8
0
 10
116.070680755777
 20
98.738458331312515
 30
0.0
  0
VERTEX
  5
35B5
  8
0
 10
116.2348083587295
 20
98.558012134494746
 30
0.0
  0
VERTEX
  5
35B6
  8
0
 10
116.3150245002392
 20
98.46885730258758
 30
0.0
  0
SEQEND
  5
35B7
  8
0
  0
LINE
  5
2B63
  8
0
 10
116.3150245002392
 20
98.424150689197134
 30
0.0
 11
113.62502450023931
 21
98.424150689197134
 31
0.0
  0
LINE
  5
2B64
  8
0
 10
113.62502450023931
 20
99.014718035471063
 30
0.0
 11
115.8150245002393
 21
99.014718035471063
 31
0.0
  0
POLYLINE
  5
2B65
  8
0
 66
     1
 10
0.0
 20
0.0
 30
0.0
  0
VERTEX
  5
35B8
  8
0
 10
115.8150245002393
 20
97.928624279013306
 30
0.0
  0
VERTEX
  5
35B9
  8
0
 10
115.9015261411205
 20
97.843516831911316
 30
0.0
  0
VERTEX
  5
35BA
  8
0
 10
116.07068075577691
 20
97.675413658801403
 30
0.0
  0
VERTEX
  5
35BB
  8
0
 10
116.2348083587294
 20
97.510022569462805
 30
0.0
  0
VERTEX
  5
35BC
  8
0
 10
116.3150245002392
 20
97.428306162971779
 30
0.0
  0
SEQEND
  5
35BD
  8
0
  0
LINE
  5
2B66
  8
0
 10
116.3150245002392
 20
97.387329541576165
 30
0.0
 11
113.62502450023931
 21
97.387329541576165
 31
0.0
  0
LINE
  5
2B67
  8
0
 10
113.62502450023931
 20
97.928624279013277
 30
0.0
 11
115.8150245002393
 21
97.928624279013277
 31
0.0
  0
POLYLINE
  5
2B68
  8
0
 66
     1
 10
0.0
 20
0.0
 30
0.0
  0
VERTEX
  5
35BE
  8
0
 10
115.8150245002393
 20
96.830888883400505
 30
0.0
  0
VERTEX
  5
35BF
  8
0
 10
115.9015261411206
 20
96.754460994050973
 30
0.0
  0
VERTEX
  5
35C0
  8
0
 10
116.0706807557771
 20
96.603501575677825
 30
0.0
  0
VERTEX
  5
35C1
  8
0
 10
116.2348083587295
 20
96.454977653203642
 30
0.0
  0
VERTEX
  5
35C2
  8
0
 10
116.3150245002392
 20
96.381594974178583
 30
0.0
  0
SEQEND
  5
35C3
  8
0
  0
LINE
  5
2B69
  8
0
 10
116.3150245002392
 20
96.344797293216743
 30
0.0
 11
113.62502450023931
 21
96.344797293216743
 31
0.0
  0
LINE
  5
2B6A
  8
0
 10
113.62502450023931
 20
96.830888883400533
 30
0.0
 11
115.8150245002393
 21
96.830888883400533
 31
0.0
  0
POLYLINE
  5
2B6B
  8
0
 66
     1
 10
0.0
 20
0.0
 30
0.0
  0
VERTEX
  5
35C4
  8
0
 10
115.8150245002393
 20
95.733538867342915
 30
0.0
  0
VERTEX
  5
35C5
  8
0
 10
115.9015261411206
 20
95.666627895695157
 30
0.0
  0
VERTEX
  5
35C6
  8
0
 10
116.070680755777
 20
95.534466175036854
 30
0.0
  0
VERTEX
  5
35C7
  8
0
 10
116.2348083587295
 20
95.404436678602323
 30
0.0
  0
VERTEX
  5
35C8
  8
0
 10
116.3150245002392
 20
95.340191723030856
 30
0.0
  0
SEQEND
  5
35C9
  8
0
  0
LINE
  5
2B6C
  8
0
 10
116.3150245002392
 20
95.307976145595788
 30
0.0
 11
113.62502450023931
 21
95.307976145595788
 31
0.0
  0
LINE
  5
2B6D
  8
0
 10
113.62502450023931
 20
95.733538867342929
 30
0.0
 11
115.8150245002393
 21
95.733538867342929
 31
0.0
  0
POLYLINE
  5
2B6E
  8
0
 66
     1
 10
0.0
 20
0.0
 30
0.0
  0
VERTEX
  5
35CA
  8
0
 10
115.8150245002393
 20
94.648597027251711
 30
0.0
  0
VERTEX
  5
35CB
  8
0
 10
115.9015261411207
 20
94.591936063913138
 30
0.0
  0
VERTEX
  5
35CC
  8
0
 10
116.070680755777
 20
94.480020032437793
 30
0.0
  0
VERTEX
  5
35CD
  8
0
 10
116.2348083587294
 20
94.369909592416235
 30
0.0
  0
VERTEX
  5
35CE
  8
0
 10
116.3150245002392
 20
94.315506241475745
 30
0.0
  0
SEQEND
  5
35CF
  8
0
  0
LINE
  5
2B6F
  8
0
 10
116.3150245002392
 20
94.288225728175348
 30
0.0
 11
113.62502450023931
 21
94.288225728175348
 31
0.0
  0
LINE
  5
2B70
  8
0
 10
113.62502450023931
 20
94.648597027251711
 30
0.0
 11
115.8150245002393
 21
94.648597027251711
 31
0.0
  0
POLYLINE
  5
2B71
  8
0
 66
     1
 10
0.0
 20
0.0
 30
0.0
  0
VERTEX
  5
35D0
  8
0
 10
115.8150245002393
 20
93.587950212965595
 30
0.0
  0
VERTEX
  5
35D1
  8
0
 10
115.9015261411207
 20
93.542160047307661
 30
0.0
  0
VERTEX
  5
35D2
  8
0
 10
116.0706807557771
 20
93.451715880476016
 30
0.0
  0
VERTEX
  5
35D3
  8
0
 10
116.2348083587294
 20
93.3627308898904
 30
0.0
  0
VERTEX
  5
35D4
  8
0
 10
116.3150245002392
 20
93.318765198078452
 30
0.0
  0
SEQEND
  5
35D5
  8
0
  0
LINE
  5
2B72
  8
0
 10
116.3150245002392
 20
93.29671863992526
 30
0.0
 11
113.62502450023931
 21
93.29671863992526
 31
0.0
  0
LINE
  5
2B73
  8
0
 10
113.62502450023931
 20
93.587950212965623
 30
0.0
 11
115.8150245002393
 21
93.587950212965623
 31
0.0
  0
POLYLINE
  5
2B74
  8
0
 66
     1
 10
0.0
 20
0.0
 30
0.0
  0
VERTEX
  5
35D6
  8
0
 10
115.8150245002393
 20
92.563219092936507
 30
0.0
  0
VERTEX
  5
35D7
  8
0
 10
115.9015261411207
 20
92.528801411596376
 30
0.0
  0
VERTEX
  5
35D8
  8
0
 10
116.070680755777
 20
92.460820034626934
 30
0.0
  0
VERTEX
  5
35D9
  8
0
 10
116.2348083587294
 20
92.393935431655379
 30
0.0
  0
VERTEX
  5
35DA
  8
0
 10
116.3150245002392
 20
92.360889096291857
 30
0.0
  0
SEQEND
  5
35DB
  8
0
  0
LINE
  5
2B75
  8
0
 10
116.3150245002392
 20
92.344318039990597
 30
0.0
 11
113.62502450023931
 21
92.344318039990597
 31
0.0
  0
LINE
  5
2B76
  8
0
 10
113.62502450023931
 20
92.563219092936507
 30
0.0
 11
115.8150245002393
 21
92.563219092936507
 31
0.0
  0
POLYLINE
  5
2B77
  8
0
 66
     1
 10
0.0
 20
0.0
 30
0.0
  0
VERTEX
  5
35DC
  8
0
 10
115.8150245002393
 20
91.585630835754273
 30
0.0
  0
VERTEX
  5
35DD
  8
0
 10
115.9015261411207
 20
91.562962726051055
 30
0.0
  0
VERTEX
  5
35DE
  8
0
 10
116.0706807557771
 20
91.518188957135877
 30
0.0
  0
VERTEX
  5
35DF
  8
0
 10
116.2348083587294
 20
91.474137543485071
 30
0.0
  0
VERTEX
  5
35E0
  8
0
 10
116.3150245002392
 20
91.452372627135659
 30
0.0
  0
SEQEND
  5
35E1
  8
0
  0
LINE
  5
2B78
  8
0
 10
116.3150245002392
 20
91.441458628646814
 30
0.0
 11
113.62502450023931
 21
91.441458628646814
 31
0.0
  0
LINE
  5
2B79
  8
0
 10
113.62502450023931
 20
91.585630835754273
 30
0.0
 11
115.8150245002393
 21
91.585630835754273
 31
0.0
  0
POLYLINE
  5
2B7A
  8
0
 66
     1
 10
0.0
 20
0.0
 30
0.0
  0
VERTEX
  5
35E2
  8
0
 10
115.8150245002393
 20
90.665896102938078
 30
0.0
  0
VERTEX
  5
35E3
  8
0
 10
115.9015261411206
 20
90.655225921425298
 30
0.0
  0
VERTEX
  5
35E4
  8
0
 10
116.070680755777
 20
90.634150311346119
 30
0.0
  0
VERTEX
  5
35E5
  8
0
 10
116.2348083587294
 20
90.613414723522368
 30
0.0
  0
VERTEX
  5
35E6
  8
0
 10
116.3150245002392
 20
90.603169687165163
 30
0.0
  0
SEQEND
  5
35E7
  8
0
  0
LINE
  5
2B7B
  8
0
 10
116.3150245002392
 20
90.598032322540078
 30
0.0
 11
113.62502450023931
 21
90.598032322540078
 31
0.0
  0
LINE
  5
2B7C
  8
0
 10
113.62502450023931
 20
90.665896102938078
 30
0.0
 11
115.8150245002393
 21
90.665896102938078
 31
0.0
  0
POLYLINE
  5
2B7D
  8
0
 66
     1
 10
0.0
 20
0.0
 30
0.0
  0
VERTEX
  5
35E8
  8
0
 10
115.8150245002393
 20
89.814091700687513
 30
0.0
  0
VERTEX
  5
35E9
  8
0
 10
115.9015261411207
 20
89.815536352106676
 30
0.0
  0
VERTEX
  5
35EA
  8
0
 10
116.070680755777
 20
89.818389809657901
 30
0.0
  0
VERTEX
  5
35EB
  8
0
 10
116.2348083587294
 20
89.821197231100626
 30
0.0
  0
VERTEX
  5
35EC
  8
0
 10
116.3150245002392
 20
89.822584321497843
 30
0.0
  0
SEQEND
  5
35ED
  8
0
  0
LINE
  5
2B7E
  8
0
 10
116.3150245002392
 20
89.823279876778443
 30
0.0
 11
113.62502450023931
 21
89.823279876778443
 31
0.0
  0
LINE
  5
2B7F
  8
0
 10
113.62502450023931
 20
89.814091700687484
 30
0.0
 11
115.8150245002393
 21
89.814091700687484
 31
0.0
  0
POLYLINE
  5
2B80
  8
0
 66
     1
 10
0.0
 20
0.0
 30
0.0
  0
VERTEX
  5
35EE
  8
0
 10
115.8150245002393
 20
89.039550176285147
 30
0.0
  0
VERTEX
  5
35EF
  8
0
 10
115.9015261411207
 20
89.053093832733012
 30
0.0
  0
VERTEX
  5
35F0
  8
0
 10
116.0706807557771
 20
89.079845094836585
 30
0.0
  0
VERTEX
  5
35F1
  8
0
 10
116.2348083587295
 20
89.106164766848963
 30
0.0
  0
VERTEX
  5
35F2
  8
0
 10
116.3150245002392
 20
89.119168786747935
 30
0.0
  0
SEQEND
  5
35F3
  8
0
  0
LINE
  5
2B81
  8
0
 10
116.3150245002392
 20
89.125689641285035
 30
0.0
 11
113.62502450023931
 21
89.125689641285035
 31
0.0
  0
LINE
  5
2B82
  8
0
 10
113.62502450023931
 20
89.039550176285104
 30
0.0
 11
115.8150245002393
 21
89.039550176285104
 31
0.0
  0
POLYLINE
  5
2B83
  8
0
 66
     1
 10
0.0
 20
0.0
 30
0.0
  0
VERTEX
  5
35F4
  8
0
 10
115.8150245002393
 20
88.350757568755597
 30
0.0
  0
VERTEX
  5
35F5
  8
0
 10
115.9015261411206
 20
88.376251843097904
 30
0.0
  0
VERTEX
  5
35F6
  8
0
 10
116.070680755777
 20
88.426607817328176
 30
0.0
  0
VERTEX
  5
35F7
  8
0
 10
116.2348083587295
 20
88.476151376075876
 30
0.0
  0
VERTEX
  5
35F8
  8
0
 10
116.3150245002392
 20
88.500629850713366
 30
0.0
  0
SEQEND
  5
35F9
  8
0
  0
LINE
  5
2B84
  8
0
 10
116.3150245002392
 20
88.512904560660061
 30
0.0
 11
113.62502450023931
 21
88.512904560660061
 31
0.0
  0
LINE
  5
2B85
  8
0
 10
113.62502450023931
 20
88.350757568755597
 30
0.0
 11
115.8150245002393
 21
88.350757568755597
 31
0.0
  0
POLYLINE
  5
2B86
  8
0
 66
     1
 10
0.0
 20
0.0
 30
0.0
  0
VERTEX
  5
35FA
  8
0
 10
115.8150245002393
 20
87.755260434046065
 30
0.0
  0
VERTEX
  5
35FB
  8
0
 10
115.9015261411205
 20
87.792426005678081
 30
0.0
  0
VERTEX
  5
35FC
  8
0
 10
116.070680755777
 20
87.865834981443726
 30
0.0
  0
VERTEX
  5
35FD
  8
0
 10
116.2348083587295
 20
87.938059617329486
 30
0.0
  0
VERTEX
  5
35FE
  8
0
 10
116.3150245002392
 20
87.973744355414894
 30
0.0
  0
SEQEND
  5
35FF
  8
0
  0
LINE
  5
2B87
  8
0
 10
116.3150245002392
 20
87.991638436480287
 30
0.0
 11
113.62502450023931
 21
87.991638436480287
 31
0.0
  0
LINE
  5
2B88
  8
0
 10
113.62502450023931
 20
87.755260434046079
 30
0.0
 11
115.8150245002393
 21
87.755260434046079
 31
0.0
  0
POLYLINE
  5
2B89
  8
0
 66
     1
 10
0.0
 20
0.0
 30
0.0
  0
VERTEX
  5
3600
  8
0
 10
115.8150245002393
 20
87.259583163380199
 30
0.0
  0
VERTEX
  5
3601
  8
0
 10
115.9015261411205
 20
87.308012838521776
 30
0.0
  0
VERTEX
  5
3602
  8
0
 10
116.0706807557771
 20
87.403670531722554
 30
0.0
  0
VERTEX
  5
3603
  8
0
 10
116.23480835872959
 20
87.497784936521626
 30
0.0
  0
VERTEX
  5
3604
  8
0
 10
116.3150245002392
 20
87.544284968596855
 30
0.0
  0
SEQEND
  5
3605
  8
0
  0
LINE
  5
2B8A
  8
0
 10
116.3150245002392
 20
87.567602369484348
 30
0.0
 11
113.62502450023931
 21
87.567602369484348
 31
0.0
  0
LINE
  5
2B8B
  8
0
 10
113.62502450023931
 20
87.259583163380242
 30
0.0
 11
115.8150245002393
 21
87.259583163380242
 31
0.0
  0
POLYLINE
  5
2B8C
  8
0
 66
     1
 10
0.0
 20
0.0
 30
0.0
  0
VERTEX
  5
3606
  8
0
 10
115.8150245002393
 20
86.869156500662584
 30
0.0
  0
VERTEX
  5
3607
  8
0
 10
115.9015261411206
 20
86.928319673658308
 30
0.0
  0
VERTEX
  5
3608
  8
0
 10
116.070680755777
 20
87.045178038589654
 30
0.0
  0
VERTEX
  5
3609
  8
0
 10
116.2348083587294
 20
87.160151075188324
 30
0.0
  0
VERTEX
  5
360A
  8
0
 10
116.3150245002392
 20
87.216956937171446
 30
0.0
  0
SEQEND
  5
360B
  8
0
  0
LINE
  5
2B8D
  8
0
 10
116.3150245002392
 20
87.245442187557344
 30
0.0
 11
113.62502450023931
 21
87.245442187557344
 31
0.0
  0
LINE
  5
2B8E
  8
0
 10
113.62502450023931
 20
86.869156500662555
 30
0.0
 11
115.8150245002393
 21
86.869156500662555
 31
0.0
  0
POLYLINE
  5
2B8F
  8
0
 66
     1
 10
0.0
 20
0.0
 30
0.0
  0
VERTEX
  5
360C
  8
0
 10
115.8150245002393
 20
86.588258042111974
 30
0.0
  0
VERTEX
  5
360D
  8
0
 10
115.9015261411206
 20
86.657506508857836
 30
0.0
  0
VERTEX
  5
360E
  8
0
 10
116.0706807557771
 20
86.794285220819546
 30
0.0
  0
VERTEX
  5
360F
  8
0
 10
116.2348083587295
 20
86.928857220569157
 30
0.0
  0
VERTEX
  5
3610
  8
0
 10
116.3150245002392
 20
86.99534653554872
 30
0.0
  0
SEQEND
  5
3611
  8
0
  0
LINE
  5
2B90
  8
0
 10
116.3150245002392
 20
87.028687545068877
 30
0.0
 11
113.62502450023931
 21
87.028687545068877
 31
0.0
  0
LINE
  5
2B91
  8
0
 10
113.62502450023931
 20
86.588258042111946
 30
0.0
 11
115.8150245002393
 21
86.588258042111946
 31
0.0
  0
POLYLINE
  5
2B92
  8
0
 66
     1
 10
0.0
 20
0.0
 30
0.0
  0
VERTEX
  5
3612
  8
0
 10
115.8150245002393
 20
86.419965370022013
 30
0.0
  0
VERTEX
  5
3613
  8
0
 10
115.9015261411205
 20
86.498540429825084
 30
0.0
  0
VERTEX
  5
3614
  8
0
 10
116.070680755777
 20
86.653740912626034
 30
0.0
  0
VERTEX
  5
3615
  8
0
 10
116.2348083587295
 20
86.806437476536431
 30
0.0
  0
VERTEX
  5
3616
  8
0
 10
116.3150245002392
 20
86.881881773663807
 30
0.0
  0
SEQEND
  5
3617
  8
0
  0
LINE
  5
2B93
  8
0
 10
116.3150245002392
 20
86.919713251240935
 30
0.0
 11
113.62502450023931
 21
86.919713251240935
 31
0.0
  0
LINE
  5
2B94
  8
0
 10
113.62502450023931
 20
86.419965370022013
 30
0.0
 11
115.8150245002393
 21
86.419965370022013
 31
0.0
  0
POLYLINE
  5
2B95
  8
0
 66
     1
 10
0.0
 20
0.0
 30
0.0
  0
VERTEX
  5
3618
  8
0
 10
115.8150245002393
 20
86.366122334125649
 30
0.0
  0
VERTEX
  5
3619
  8
0
 10
115.9015261411206
 20
86.453163102187929
 30
0.0
  0
VERTEX
  5
361A
  8
0
 10
116.07068075577691
 20
86.625084946860653
 30
0.0
  0
VERTEX
  5
361B
  8
0
 10
116.2348083587293
 20
86.794233099423721
 30
0.0
  0
VERTEX
  5
361C
  8
0
 10
116.3150245002392
 20
86.877805795191975
 30
0.0
  0
SEQEND
  5
361D
  8
0
  0
LINE
  5
2B96
  8
0
 10
116.3150245002392
 20
86.877805795191946
 30
0.0
 11
116.3150245002392
 21
86.919713251240935
 31
0.0
  0
POLYLINE
  5
2B97
  8
0
 66
     1
 10
0.0
 20
0.0
 30
0.0
  0
VERTEX
  5
361E
  8
0
 10
115.8150245002393
 20
86.427318849991522
 30
0.0
  0
VERTEX
  5
361F
  8
0
 10
115.9015261411207
 20
86.521871689443671
 30
0.0
  0
VERTEX
  5
3620
  8
0
 10
116.070680755777
 20
86.708631284281225
 30
0.0
  0
VERTEX
  5
3621
  8
0
 10
116.2348083587294
 20
86.892377802940942
 30
0.0
  0
VERTEX
  5
3622
  8
0
 10
116.3150245002392
 20
86.983163257406289
 30
0.0
  0
SEQEND
  5
3623
  8
0
  0
LINE
  5
2B98
  8
0
 10
116.3150245002392
 20
86.983163257406275
 30
0.0
 11
116.3150245002392
 21
87.028687545068877
 31
0.0
  0
POLYLINE
  5
2B99
  8
0
 66
     1
 10
0.0
 20
0.0
 30
0.0
  0
VERTEX
  5
3624
  8
0
 10
115.8150245002393
 20
86.602884435785626
 30
0.0
  0
VERTEX
  5
3625
  8
0
 10
115.9015261411205
 20
86.703913405931985
 30
0.0
  0
VERTEX
  5
3626
  8
0
 10
116.070680755777
 20
86.903464573731284
 30
0.0
  0
VERTEX
  5
3627
  8
0
 10
116.2348083587295
 20
87.099796293177974
 30
0.0
  0
VERTEX
  5
3628
  8
0
 10
116.3150245002392
 20
87.196799841903257
 30
0.0
  0
SEQEND
  5
3629
  8
0
  0
LINE
  5
2B9A
  8
0
 10
116.3150245002392
 20
87.196799841903228
 30
0.0
 11
116.3150245002392
 21
87.245442187557344
 31
0.0
  0
POLYLINE
  5
2B9B
  8
0
 66
     1
 10
0.0
 20
0.0
 30
0.0
  0
VERTEX
  5
362A
  8
0
 10
115.8150245002393
 20
86.890895558210545
 30
0.0
  0
VERTEX
  5
362B
  8
0
 10
115.9015261411206
 20
86.997293764512776
 30
0.0
  0
VERTEX
  5
362C
  8
0
 10
116.0706807557771
 20
87.207450180920645
 30
0.0
  0
VERTEX
  5
362D
  8
0
 10
116.2348083587295
 20
87.414216049750749
 30
0.0
  0
VERTEX
  5
362E
  8
0
 10
116.3150245002392
 20
87.516374901556844
 30
0.0
  0
SEQEND
  5
362F
  8
0
  0
LINE
  5
2B9C
  8
0
 10
116.3150245002392
 20
87.516374901556844
 30
0.0
 11
116.3150245002392
 21
87.567602369484305
 31
0.0
  0
POLYLINE
  5
2B9D
  8
0
 66
     1
 10
0.0
 20
0.0
 30
0.0
  0
VERTEX
  5
3630
  8
0
 10
115.8150245002393
 20
87.288196707138752
 30
0.0
  0
VERTEX
  5
3631
  8
0
 10
115.9015261411207
 20
87.398798428583305
 30
0.0
  0
VERTEX
  5
3632
  8
0
 10
116.0706807557771
 20
87.617257575923404
 30
0.0
  0
VERTEX
  5
3633
  8
0
 10
116.2348083587294
 20
87.832192224009503
 30
0.0
  0
VERTEX
  5
3634
  8
0
 10
116.3150245002392
 20
87.938387105138062
 30
0.0
  0
SEQEND
  5
3635
  8
0
  0
LINE
  5
2B9E
  8
0
 10
116.3150245002392
 20
87.938387105138034
 30
0.0
 11
116.3150245002392
 21
87.991638436480287
 31
0.0
  0
POLYLINE
  5
2B9F
  8
0
 66
     1
 10
0.0
 20
0.0
 30
0.0
  0
VERTEX
  5
3636
  8
0
 10
115.8150245002393
 20
87.790434968042021
 30
0.0
  0
VERTEX
  5
3637
  8
0
 10
115.9015261411206
 20
87.904028429023683
 30
0.0
  0
VERTEX
  5
3638
  8
0
 10
116.070680755777
 20
88.128396823162348
 30
0.0
  0
VERTEX
  5
3639
  8
0
 10
116.2348083587294
 20
88.349145381522234
 30
0.0
  0
VERTEX
  5
363A
  8
0
 10
116.3150245002392
 20
88.458212798632758
 30
0.0
  0
SEQEND
  5
363B
  8
0
  0
POLYLINE
  5
2BA0
  8
0
 66
     1
 10
0.0
 20
0.0
 30
0.0
  0
VERTEX
  5
363C
  8
0
 10
115.8150245002393
 20
88.392107713433759
 30
0.0
  0
VERTEX
  5
363D
  8
0
 10
115.9015261411206
 20
88.507448360223137
 30
0.0
  0
VERTEX
  5
363E
  8
0
 10
116.0706807557771
 20
88.735267774082146
 30
0.0
  0
VERTEX
  5
363F
  8
0
 10
116.2348083587295
 20
88.959411675315735
 30
0.0
  0
VERTEX
  5
3640
  8
0
 10
116.3150245002392
 20
89.070156662962475
 30
0.0
  0
SEQEND
  5
3641
  8
0
  0
POLYLINE
  5
2BA1
  8
0
 66
     1
 10
0.0
 20
0.0
 30
0.0
  0
VERTEX
  5
3642
  8
0
 10
115.8150245002393
 20
89.086622890807348
 30
0.0
  0
VERTEX
  5
3643
  8
0
 10
115.9015261411205
 20
89.202447027141531
 30
0.0
  0
VERTEX
  5
3644
  8
0
 10
116.070680755777
 20
89.431221423548322
 30
0.0
  0
VERTEX
  5
3645
  8
0
 10
116.2348083587295
 20
89.656304900168649
 30
0.0
  0
VERTEX
  5
3646
  8
0
 10
116.3150245002392
 20
89.767514113092162
 30
0.0
  0
SEQEND
  5
3647
  8
0
  0
POLYLINE
  5
2BA2
  8
0
 66
     1
 10
0.0
 20
0.0
 30
0.0
  0
VERTEX
  5
3648
  8
0
 10
115.8150245002393
 20
89.866371246542855
 30
0.0
  0
VERTEX
  5
3649
  8
0
 10
115.9015261411207
 20
89.981409878946792
 30
0.0
  0
VERTEX
  5
364A
  8
0
 10
116.070680755777
 20
90.20863275773992
 30
0.0
  0
VERTEX
  5
364B
  8
0
 10
116.2348083587293
 20
90.432189748075004
 30
0.0
  0
VERTEX
  5
364C
  8
0
 10
116.3150245002392
 20
90.542644754866728
 30
0.0
  0
SEQEND
  5
364D
  8
0
  0
POLYLINE
  5
2BA3
  8
0
 66
     1
 10
0.0
 20
0.0
 30
0.0
  0
VERTEX
  5
364E
  8
0
 10
115.8150245002393
 20
90.722809694481995
 30
0.0
  0
VERTEX
  5
364F
  8
0
 10
115.9015261411207
 20
90.835802435625325
 30
0.0
  0
VERTEX
  5
3650
  8
0
 10
116.0706807557771
 20
91.058984295395675
 30
0.0
  0
VERTEX
  5
3651
  8
0
 10
116.2348083587294
 20
91.278565462277456
 30
0.0
  0
VERTEX
  5
3652
  8
0
 10
116.3150245002392
 20
91.387056094768425
 30
0.0
  0
SEQEND
  5
3653
  8
0
  0
POLYLINE
  5
2BA4
  8
0
 66
     1
 10
0.0
 20
0.0
 30
0.0
  0
VERTEX
  5
3654
  8
0
 10
115.8150245002393
 20
91.646554915767837
 30
0.0
  0
VERTEX
  5
3655
  8
0
 10
115.9015261411207
 20
91.756263793533435
 30
0.0
  0
VERTEX
  5
3656
  8
0
 10
116.070680755777
 20
91.972959407121408
 30
0.0
  0
VERTEX
  5
3657
  8
0
 10
116.2348083587294
 20
92.186158973335154
 30
0.0
  0
VERTEX
  5
3658
  8
0
 10
116.3150245002392
 20
92.291496585452805
 30
0.0
  0
SEQEND
  5
3659
  8
0
  0
POLYLINE
  5
2BA5
  8
0
 66
     1
 10
0.0
 20
0.0
 30
0.0
  0
VERTEX
  5
365A
  8
0
 10
115.8150245002393
 20
92.627486164449934
 30
0.0
  0
VERTEX
  5
365B
  8
0
 10
115.9015261411207
 20
92.732709185414862
 30
0.0
  0
VERTEX
  5
365C
  8
0
 10
116.0706807557771
 20
92.940544390331681
 30
0.0
  0
VERTEX
  5
365D
  8
0
 10
116.2348083587295
 20
93.145026496815134
 30
0.0
  0
VERTEX
  5
365E
  8
0
 10
116.3150245002392
 20
93.246056987637587
 30
0.0
  0
SEQEND
  5
365F
  8
0
  0
POLYLINE
  5
2BA6
  8
0
 66
     1
 10
0.0
 20
0.0
 30
0.0
  0
VERTEX
  5
3660
  8
0
 10
115.8150245002393
 20
93.654856152494588
 30
0.0
  0
VERTEX
  5
3661
  8
0
 10
115.9015261411207
 20
93.754440471221955
 30
0.0
  0
VERTEX
  5
3662
  8
0
 10
116.070680755777
 20
93.951138181469929
 30
0.0
  0
VERTEX
  5
3663
  8
0
 10
116.2348083587294
 20
94.144662479473752
 30
0.0
  0
VERTEX
  5
3664
  8
0
 10
116.3150245002392
 20
94.240278937801904
 30
0.0
  0
SEQEND
  5
3665
  8
0
  0
POLYLINE
  5
2BA7
  8
0
 66
     1
 10
0.0
 20
0.0
 30
0.0
  0
VERTEX
  5
3666
  8
0
 10
115.8150245002393
 20
94.717408799321859
 30
0.0
  0
VERTEX
  5
3667
  8
0
 10
115.9015261411206
 20
94.810263349176225
 30
0.0
  0
VERTEX
  5
3668
  8
0
 10
116.070680755777
 20
94.993668503480436
 30
0.0
  0
VERTEX
  5
3669
  8
0
 10
116.2348083587294
 20
95.174114700298176
 30
0.0
  0
VERTEX
  5
366A
  8
0
 10
116.3150245002392
 20
95.263269532205356
 30
0.0
  0
SEQEND
  5
366B
  8
0
  0
POLYLINE
  5
2BA8
  8
0
 66
     1
 10
0.0
 20
0.0
 30
0.0
  0
VERTEX
  5
366C
  8
0
 10
115.8150245002393
 20
95.803502555779616
 30
0.0
  0
VERTEX
  5
366D
  8
0
 10
115.9015261411205
 20
95.888610002881606
 30
0.0
  0
VERTEX
  5
366E
  8
0
 10
116.07068075577691
 20
96.056713175991504
 30
0.0
  0
VERTEX
  5
366F
  8
0
 10
116.2348083587295
 20
96.222104265330145
 30
0.0
  0
VERTEX
  5
3670
  8
0
 10
116.3150245002392
 20
96.303820671821157
 30
0.0
  0
SEQEND
  5
3671
  8
0
  0
POLYLINE
  5
2BA9
  8
0
 66
     1
 10
0.0
 20
0.0
 30
0.0
  0
VERTEX
  5
3672
  8
0
 10
115.8150245002393
 20
96.901237951392432
 30
0.0
  0
VERTEX
  5
3673
  8
0
 10
115.9015261411207
 20
96.977665840742077
 30
0.0
  0
VERTEX
  5
3674
  8
0
 10
116.070680755777
 20
97.128625259115054
 30
0.0
  0
VERTEX
  5
3675
  8
0
 10
116.2348083587293
 20
97.277149181589138
 30
0.0
  0
VERTEX
  5
3676
  8
0
 10
116.3150245002392
 20
97.350531860614353
 30
0.0
  0
SEQEND
  5
3677
  8
0
  0
POLYLINE
  5
2BAA
  8
0
 66
     1
 10
0.0
 20
0.0
 30
0.0
  0
VERTEX
  5
3678
  8
0
 10
115.8150245002393
 20
97.998587967450021
 30
0.0
  0
VERTEX
  5
3679
  8
0
 10
115.9015261411207
 20
98.06549893909785
 30
0.0
  0
VERTEX
  5
367A
  8
0
 10
116.0706807557771
 20
98.197660659756124
 30
0.0
  0
VERTEX
  5
367B
  8
0
 10
116.2348083587294
 20
98.327690156190599
 30
0.0
  0
VERTEX
  5
367C
  8
0
 10
116.3150245002392
 20
98.391935111762081
 30
0.0
  0
SEQEND
  5
367D
  8
0
  0
POLYLINE
  5
2BAB
  8
0
 66
     1
 10
0.0
 20
0.0
 30
0.0
  0
VERTEX
  5
367E
  8
0
 10
115.8150245002393
 20
99.083529807541225
 30
0.0
  0
VERTEX
  5
367F
  8
0
 10
115.9015261411206
 20
99.140190770879784
 30
0.0
  0
VERTEX
  5
3680
  8
0
 10
116.0706807557771
 20
99.252106802355144
 30
0.0
  0
VERTEX
  5
3681
  8
0
 10
116.2348083587295
 20
99.362217242376744
 30
0.0
  0
VERTEX
  5
3682
  8
0
 10
116.3150245002392
 20
99.416620593317191
 30
0.0
  0
SEQEND
  5
3683
  8
0
  0
LINE
  5
2BAC
  8
0
 10
113.62502450023931
 20
99.443901106617574
 30
0.0
 11
113.62502450023931
 21
99.083529807541225
 31
0.0
  0
POLYLINE
  5
2BAD
  8
0
 66
     1
 10
0.0
 20
0.0
 30
0.0
  0
VERTEX
  5
3684
  8
0
 10
115.8150245002393
 20
100.1441766218273
 30
0.0
  0
VERTEX
  5
3685
  8
0
 10
115.9015261411206
 20
100.1899667874852
 30
0.0
  0
VERTEX
  5
3686
  8
0
 10
116.070680755777
 20
100.28041095431691
 30
0.0
  0
VERTEX
  5
3687
  8
0
 10
116.2348083587294
 20
100.36939594490249
 30
0.0
  0
VERTEX
  5
3688
  8
0
 10
116.3150245002392
 20
100.4133616367145
 30
0.0
  0
SEQEND
  5
3689
  8
0
  0
POLYLINE
  5
2BAE
  8
0
 66
     1
 10
0.0
 20
0.0
 30
0.0
  0
VERTEX
  5
368A
  8
0
 10
115.8150245002393
 20
101.1689077418564
 30
0.0
  0
VERTEX
  5
368B
  8
0
 10
115.9015261411207
 20
101.2033254231965
 30
0.0
  0
VERTEX
  5
368C
  8
0
 10
116.0706807557771
 20
101.271306800166
 30
0.0
  0
VERTEX
  5
368D
  8
0
 10
116.2348083587295
 20
101.3381914031376
 30
0.0
  0
VERTEX
  5
368E
  8
0
 10
116.3150245002392
 20
101.37123773850099
 30
0.0
  0
SEQEND
  5
368F
  8
0
  0
POLYLINE
  5
2BAF
  8
0
 66
     1
 10
0.0
 20
0.0
 30
0.0
  0
VERTEX
  5
3690
  8
0
 10
115.8150245002393
 20
102.14649599903861
 30
0.0
  0
VERTEX
  5
3691
  8
0
 10
115.9015261411206
 20
102.1691641087418
 30
0.0
  0
VERTEX
  5
3692
  8
0
 10
116.070680755777
 20
102.213937877657
 30
0.0
  0
VERTEX
  5
3693
  8
0
 10
116.2348083587294
 20
102.25798929130779
 30
0.0
  0
VERTEX
  5
3694
  8
0
 10
116.3150245002392
 20
102.27975420765731
 30
0.0
  0
SEQEND
  5
3695
  8
0
  0
LINE
  5
2BB0
  8
0
 10
113.62502450023931
 20
102.29066820614609
 30
0.0
 11
113.62502450023931
 21
102.14649599903861
 31
0.0
  0
POLYLINE
  5
2BB1
  8
0
 66
     1
 10
0.0
 20
0.0
 30
0.0
  0
VERTEX
  5
3696
  8
0
 10
115.8150245002393
 20
103.0662307318548
 30
0.0
  0
VERTEX
  5
3697
  8
0
 10
115.9015261411206
 20
103.0769009133676
 30
0.0
  0
VERTEX
  5
3698
  8
0
 10
116.070680755777
 20
103.0979765234468
 30
0.0
  0
VERTEX
  5
3699
  8
0
 10
116.2348083587294
 20
103.1187121112705
 30
0.0
  0
VERTEX
  5
369A
  8
0
 10
116.3150245002392
 20
103.1289571476278
 30
0.0
  0
SEQEND
  5
369B
  8
0
  0
POLYLINE
  5
2BB2
  8
0
 66
     1
 10
0.0
 20
0.0
 30
0.0
  0
VERTEX
  5
369C
  8
0
 10
115.8150245002393
 20
103.91803513410539
 30
0.0
  0
VERTEX
  5
369D
  8
0
 10
115.9015261411206
 20
103.9165904826862
 30
0.0
  0
VERTEX
  5
369E
  8
0
 10
116.0706807557771
 20
103.91373702513501
 30
0.0
  0
VERTEX
  5
369F
  8
0
 10
116.2348083587295
 20
103.9109296036923
 30
0.0
  0
VERTEX
  5
36A0
  8
0
 10
116.3150245002392
 20
103.90954251329509
 30
0.0
  0
SEQEND
  5
36A1
  8
0
  0
LINE
  5
2BB3
  8
0
 10
116.3150245002392
 20
103.90884695801449
 30
0.0
 11
113.62502450023931
 21
103.90884695801449
 31
0.0
  0
POLYLINE
  5
2BB4
  8
0
 66
     1
 10
0.0
 20
0.0
 30
0.0
  0
VERTEX
  5
36A2
  8
0
 10
115.8150245002393
 20
104.6925766585077
 30
0.0
  0
VERTEX
  5
36A3
  8
0
 10
115.9015261411207
 20
104.6790330020599
 30
0.0
  0
VERTEX
  5
36A4
  8
0
 10
116.0706807557771
 20
104.65228173995629
 30
0.0
  0
VERTEX
  5
36A5
  8
0
 10
116.2348083587295
 20
104.6259620679439
 30
0.0
  0
VERTEX
  5
36A6
  8
0
 10
116.3150245002392
 20
104.612958048045
 30
0.0
  0
SEQEND
  5
36A7
  8
0
  0
LINE
  5
2BB5
  8
0
 10
116.3150245002392
 20
104.6064371935079
 30
0.0
 11
113.62502450023931
 21
104.6064371935079
 31
0.0
  0
POLYLINE
  5
2BB6
  8
0
 66
     1
 10
0.0
 20
0.0
 30
0.0
  0
VERTEX
  5
36A8
  8
0
 10
115.8150245002393
 20
105.3813692660373
 30
0.0
  0
VERTEX
  5
36A9
  8
0
 10
115.9015261411206
 20
105.355874991695
 30
0.0
  0
VERTEX
  5
36AA
  8
0
 10
116.070680755777
 20
105.3055190174647
 30
0.0
  0
VERTEX
  5
36AB
  8
0
 10
116.2348083587294
 20
105.255975458717
 30
0.0
  0
VERTEX
  5
36AC
  8
0
 10
116.3150245002392
 20
105.2314969840795
 30
0.0
  0
SEQEND
  5
36AD
  8
0
  0
LINE
  5
2BB7
  8
0
 10
116.3150245002392
 20
105.2192222741328
 30
0.0
 11
113.62502450023931
 21
105.2192222741328
 31
0.0
  0
POLYLINE
  5
2BB8
  8
0
 66
     1
 10
0.0
 20
0.0
 30
0.0
  0
VERTEX
  5
36AE
  8
0
 10
115.8150245002393
 20
105.9768664007468
 30
0.0
  0
VERTEX
  5
36AF
  8
0
 10
115.9015261411208
 20
105.9397008291147
 30
0.0
  0
VERTEX
  5
36B0
  8
0
 10
116.070680755777
 20
105.8662918533492
 30
0.0
  0
VERTEX
  5
36B1
  8
0
 10
116.2348083587293
 20
105.79406721746351
 30
0.0
  0
VERTEX
  5
36B2
  8
0
 10
116.3150245002392
 20
105.758382479378
 30
0.0
  0
SEQEND
  5
36B3
  8
0
  0
LINE
  5
2BB9
  8
0
 10
116.3150245002392
 20
105.74048839831261
 30
0.0
 11
113.62502450023931
 21
105.74048839831261
 31
0.0
  0
POLYLINE
  5
2BBA
  8
0
 66
     1
 10
0.0
 20
0.0
 30
0.0
  0
VERTEX
  5
36B4
  8
0
 10
115.8150245002393
 20
106.47254367141269
 30
0.0
  0
VERTEX
  5
36B5
  8
0
 10
115.9015261411206
 20
106.4241139962711
 30
0.0
  0
VERTEX
  5
36B6
  8
0
 10
116.07068075577691
 20
106.3284563030705
 30
0.0
  0
VERTEX
  5
36B7
  8
0
 10
116.2348083587294
 20
106.2343418982715
 30
0.0
  0
VERTEX
  5
36B8
  8
0
 10
116.3150245002392
 20
106.187841866196
 30
0.0
  0
SEQEND
  5
36B9
  8
0
  0
LINE
  5
2BBB
  8
0
 10
116.3150245002392
 20
106.1645244653086
 30
0.0
 11
113.62502450023931
 21
106.1645244653086
 31
0.0
  0
POLYLINE
  5
2BBC
  8
0
 66
     1
 10
0.0
 20
0.0
 30
0.0
  0
VERTEX
  5
36BA
  8
0
 10
115.8150245002393
 20
106.8629703341303
 30
0.0
  0
VERTEX
  5
36BB
  8
0
 10
115.9015261411207
 20
106.8038071611346
 30
0.0
  0
VERTEX
  5
36BC
  8
0
 10
116.0706807557771
 20
106.6869487962032
 30
0.0
  0
VERTEX
  5
36BD
  8
0
 10
116.2348083587295
 20
106.5719757596046
 30
0.0
  0
VERTEX
  5
36BE
  8
0
 10
116.3150245002392
 20
106.5151698976215
 30
0.0
  0
SEQEND
  5
36BF
  8
0
  0
LINE
  5
2BBD
  8
0
 10
116.3150245002392
 20
106.48668464723561
 30
0.0
 11
113.62502450023931
 21
106.48668464723561
 31
0.0
  0
POLYLINE
  5
2BBE
  8
0
 66
     1
 10
0.0
 20
0.0
 30
0.0
  0
VERTEX
  5
36C0
  8
0
 10
115.8150245002393
 20
107.14386879268091
 30
0.0
  0
VERTEX
  5
36C1
  8
0
 10
115.9015261411207
 20
107.074620325935
 30
0.0
  0
VERTEX
  5
36C2
  8
0
 10
116.070680755777
 20
106.9378416139734
 30
0.0
  0
VERTEX
  5
36C3
  8
0
 10
116.2348083587294
 20
106.80326961422389
 30
0.0
  0
VERTEX
  5
36C4
  8
0
 10
116.3150245002392
 20
106.7367802992442
 30
0.0
  0
SEQEND
  5
36C5
  8
0
  0
LINE
  5
2BBF
  8
0
 10
116.3150245002392
 20
106.703439289724
 30
0.0
 11
113.62502450023931
 21
106.703439289724
 31
0.0
  0
POLYLINE
  5
2BC0
  8
0
 66
     1
 10
0.0
 20
0.0
 30
0.0
  0
VERTEX
  5
36C6
  8
0
 10
115.8150245002393
 20
107.3121614647709
 30
0.0
  0
VERTEX
  5
36C7
  8
0
 10
115.9015261411206
 20
107.2335864049678
 30
0.0
  0
VERTEX
  5
36C8
  8
0
 10
116.0706807557771
 20
107.0783859221668
 30
0.0
  0
VERTEX
  5
36C9
  8
0
 10
116.23480835872959
 20
106.92568935825641
 30
0.0
  0
VERTEX
  5
36CA
  8
0
 10
116.3150245002392
 20
106.8502450611291
 30
0.0
  0
SEQEND
  5
36CB
  8
0
  0
LINE
  5
2BC1
  8
0
 10
116.3150245002392
 20
106.812413583552
 30
0.0
 11
113.62502450023931
 21
106.812413583552
 31
0.0
  0
ARC
  5
2BC2
  8
0
 10
108.08565410851121
 20
104.0160634173964
 30
0.0
 40
0.9000000000000021
 50
270.0
 51
348.043415756851
  0
ARC
  5
2BC3
  8
0
 10
108.08565410851121
 20
89.716063417396484
 30
0.0
 40
0.9000000000000035
 50
11.956584243148971
 51
89.999999999999986
  0
LINE
  5
2BC4
  8
0
 10
108.08565410851121
 20
103.1160634173964
 30
0.0
 11
108.08565410851121
 21
90.616063417396447
 31
0.0
  0
TEXT
  5
2D80
  8
0
 62
     3
 10
0.0
 20
0.0
 30
0.0
 40
5.0
  1
EIP10-SUS
  7
STANDARD1
  0
ENDSEC
  0
EOF
