  0
SECTION
  2
HEADER
  9
$ACADVER
  1
AC1009
  9
$INSBASE
 10
0.0
 20
0.0
 30
0.0
  9
$EXTMIN
 10
0.0
 20
-1.4802182810368341
 30
0.0
  9
$EXTMAX
 10
264.59191269309332
 20
133.01345579191411
 30
0.0
  9
$LIMMIN
 10
0.0
 20
0.0
  9
$LIMMAX
 10
279.39999999999998
 20
215.90000000000001
  9
$ORTHOMODE
 70
     1
  9
$REGENMODE
 70
     1
  9
$FILLMODE
 70
     1
  9
$QTEXTMODE
 70
     0
  9
$MIRRTEXT
 70
     1
  9
$DRAGMODE
 70
     2
  9
$LTSCALE
 40
1.0
  9
$OSMODE
 70
  3071
  9
$ATTMODE
 70
     1
  9
$TEXTSIZE
 40
2.5
  9
$TRACEWID
 40
1.0
  9
$TEXTSTYLE
  7
STANDARD
  9
$CLAYER
  8
0
  9
$CELTYPE
  6
BYLAYER
  9
$CECOLOR
 62
   256
  9
$DIMSCALE
 40
1.0
  9
$DIMASZ
 40
6.0
  9
$DIMEXO
 40
1.0
  9
$DIMDLI
 40
3.75
  9
$DIMRND
 40
0.0
  9
$DIMDLE
 40
0.0
  9
$DIMEXE
 40
1.0
  9
$DIMTP
 40
0.0
  9
$DIMTM
 40
0.0
  9
$DIMTXT
 40
3.5
  9
$DIMCEN
 40
2.5
  9
$DIMTSZ
 40
0.0
  9
$DIMTOL
 70
     0
  9
$DIMLIM
 70
     0
  9
$DIMTIH
 70
     1
  9
$DIMTOH
 70
     1
  9
$DIMSE1
 70
     0
  9
$DIMSE2
 70
     0
  9
$DIMTAD
 70
     1
  9
$DIMZIN
 70
     0
  9
$DIMBLK
  1

  9
$DIMASO
 70
     1
  9
$DIMSHO
 70
     1
  9
$DIMPOST
  1

  9
$DIMAPOST
  1

  9
$DIMALT
 70
     0
  9
$DIMALTD
 70
     3
  9
$DIMALTF
 40
0.0393700787401575
  9
$DIMLFAC
 40
1.0
  9
$DIMTOFL
 70
     1
  9
$DIMTVP
 40
0.0
  9
$DIMTIX
 70
     0
  9
$DIMSOXD
 70
     0
  9
$DIMSAH
 70
     0
  9
$DIMBLK1
  1

  9
$DIMBLK2
  1

  9
$DIMSTYLE
  2
ISO-25
  9
$DIMCLRD
 70
     0
  9
$DIMCLRE
 70
     0
  9
$DIMCLRT
 70
     0
  9
$DIMTFAC
 40
1.0
  9
$DIMGAP
 40
1.524
  9
$LUNITS
 70
     2
  9
$LUPREC
 70
     3
  9
$SKETCHINC
 40
1.0
  9
$FILLETRAD
 40
10.0
  9
$AUNITS
 70
     0
  9
$AUPREC
 70
     0
  9
$MENU
  1
.
  9
$ELEVATION
 40
0.0
  9
$PELEVATION
 40
0.0
  9
$THICKNESS
 40
0.0
  9
$LIMCHECK
 70
     0
  9
$BLIPMODE
 70
     0
  9
$CHAMFERA
 40
10.0
  9
$CHAMFERB
 40
10.0
  9
$SKPOLY
 70
     0
  9
$TDCREATE
 40
2455132.3992460528
  9
$TDUPDATE
 40
2456598.659645081
  9
$TDINDWG
 40
0.2039956597
  9
$TDUSRTIMER
 40
0.2039956597
  9
$USRTIMER
 70
     1
  9
$ANGBASE
 50
0.0
  9
$ANGDIR
 70
     0
  9
$PDMODE
 70
     0
  9
$PDSIZE
 40
-1.0
  9
$PLINEWID
 40
0.0
  9
$COORDS
 70
     1
  9
$SPLFRAME
 70
     0
  9
$SPLINETYPE
 70
     6
  9
$SPLINESEGS
 70
     8
  9
$ATTDIA
 70
     0
  9
$ATTREQ
 70
     1
  9
$HANDLING
 70
     1
  9
$HANDSEED
  5
6467
  9
$SURFTAB1
 70
     6
  9
$SURFTAB2
 70
     6
  9
$SURFTYPE
 70
     6
  9
$SURFU
 70
     6
  9
$SURFV
 70
     6
  9
$UCSNAME
  2

  9
$UCSORG
 10
0.0
 20
0.0
 30
0.0
  9
$UCSXDIR
 10
1.0
 20
0.0
 30
0.0
  9
$UCSYDIR
 10
0.0
 20
1.0
 30
0.0
  9
$PUCSNAME
  2

  9
$PUCSORG
 10
0.0
 20
0.0
 30
0.0
  9
$PUCSXDIR
 10
1.0
 20
0.0
 30
0.0
  9
$PUCSYDIR
 10
0.0
 20
1.0
 30
0.0
  9
$USERI1
 70
     0
  9
$USERI2
 70
     0
  9
$USERI3
 70
     0
  9
$USERI4
 70
     0
  9
$USERI5
 70
     0
  9
$USERR1
 40
0.0
  9
$USERR2
 40
0.0
  9
$USERR3
 40
0.0
  9
$USERR4
 40
0.0
  9
$USERR5
 40
0.0
  9
$WORLDVIEW
 70
     1
  9
$SHADEDGE
 70
     3
  9
$SHADEDIF
 70
    70
  9
$TILEMODE
 70
     1
  9
$MAXACTVP
 70
    64
  9
$PLIMCHECK
 70
     0
  9
$PEXTMIN
 10
1.0000000000000000E+020
 20
1.0000000000000000E+020
 30
1.0000000000000000E+020
  9
$PEXTMAX
 10
-1.0000000000000000E+020
 20
-1.0000000000000000E+020
 30
-1.0000000000000000E+020
  9
$PLIMMIN
 10
0.0
 20
0.0
  9
$PLIMMAX
 10
420.0
 20
297.0
  9
$UNITMODE
 70
     0
  9
$VISRETAIN
 70
     1
  9
$PLINEGEN
 70
     0
  9
$PSLTSCALE
 70
     1
  0
ENDSEC
  0
SECTION
  2
TABLES
  0
TABLE
  2
VPORT
 70
     1
  0
VPORT
  2
*ACTIVE
 70
     0
 10
0.0
 20
0.0
 11
1.0
 21
1.0
 12
139.69573701959541
 22
136.18828034825529
 13
0.0
 23
0.0
 14
10.0
 24
10.0
 15
10.0
 25
10.0
 16
0.0
 26
0.0
 36
1.0
 17
0.0
 27
0.0
 37
0.0
 40
277.85339726799202
 41
1.831871345029239
 42
50.0
 43
0.0
 44
0.0
 50
0.0
 51
0.0
 71
     0
 72
  2000
 73
     1
 74
     3
 75
     0
 76
     0
 77
     0
 78
     0
  0
ENDTAB
  0
TABLE
  2
LTYPE
 70
     3
  0
LTYPE
  2
CONTINUOUS
 70
     0
  3
Solid line
 72
    65
 73
     0
 40
0.0
  0
LTYPE
  2
CENTER
 70
     0
  3
____ _ ____ _ ____ _ ____ _ ____ _ ____ _ ____
 72
    65
 73
     4
 40
2.0
 49
1.25
 49
-0.25
 49
0.25
 49
-0.25
  0
LTYPE
  2
HIDDEN
 70
     0
  3
_ _ _ _ _ _ _ _ _ _ _ _ _ _ _ _ _ _ _ _ _ _ _
 72
    65
 73
     2
 40
0.375
 49
0.25
 49
-0.125
  0
ENDTAB
  0
TABLE
  2
LAYER
 70
     5
  0
LAYER
  2
0
 70
     0
 62
     7
  6
CONTINUOUS
  0
LAYER
  2
1
 70
     0
 62
     1
  6
CENTER
  0
LAYER
  2
DEFPOINTS
 70
     0
 62
     7
  6
CONTINUOUS
  0
LAYER
  2
2
 70
     0
 62
     2
  6
HIDDEN
  0
LAYER
  2
3
 70
     0
 62
     3
  6
CONTINUOUS
  0
ENDTAB
  0
TABLE
  2
STYLE
 70
     2
  0
STYLE
  2
STANDARD
 70
     0
 40
0.0
 41
1.0
 50
0.0
 71
     0
 42
2.5
  3
txt
  4
bigfont
  0
STYLE
  2
STANDARD1
 70
     0
 40
0.0
 41
1.0
 50
0.0
 71
     0
 42
3.0
  3
txt
  4

  0
ENDTAB
  0
TABLE
  2
VIEW
 70
     0
  0
ENDTAB
  0
TABLE
  2
UCS
 70
     0
  0
ENDTAB
  0
TABLE
  2
APPID
 70
     3
  0
APPID
  2
ACAD
 70
     0
  0
APPID
  2
ACAD_MLEADERVER
 70
     0
  0
APPID
  2
ACAD_NAV_VCDISPLAY
 70
     0
  0
ENDTAB
  0
TABLE
  2
DIMSTYLE
 70
     2
  0
DIMSTYLE
  2
ISO-25
 70
     0
  3

  4

  5

  6

  7

 40
1.0
 41
2.5
 42
0.625
 43
3.75
 44
1.25
 45
0.0
 46
0.0
 47
0.0
 48
0.0
140
2.5
141
2.5
142
0.0
143
0.03937007874016
144
1.0
145
0.0
146
1.0
147
0.625
 71
     0
 72
     0
 73
     0
 74
     0
 75
     0
 76
     0
 77
     1
 78
     8
170
     0
171
     3
172
     1
173
     0
174
     0
175
     0
176
     0
177
     0
178
     0
  0
DIMSTYLE
  2
STANDARD
 70
     0
  3

  4

  5

  6

  7

 40
1.0
 41
0.18
 42
0.0625
 43
0.38
 44
0.18
 45
0.0
 46
0.0
 47
0.0
 48
0.0
140
0.18
141
0.09
142
0.0
143
25.399999999999999
144
1.0
145
0.0
146
1.0
147
0.09
 71
     0
 72
     0
 73
     1
 74
     1
 75
     0
 76
     0
 77
     0
 78
     0
170
     0
171
     2
172
     0
173
     0
174
     0
175
     0
176
     0
177
     0
178
     0
  0
ENDTAB
  0
ENDSEC
  0
SECTION
  2
BLOCKS
  0
BLOCK
  8
0
  2
$MODEL_SPACE
 70
     0
 10
0.0
 20
0.0
 30
0.0
  3
$MODEL_SPACE
  1

  0
ENDBLK
  5
21
  8
0
  0
BLOCK
 67
     1
  8
0
  2
$PAPER_SPACE
 70
     0
 10
0.0
 20
0.0
 30
0.0
  3
$PAPER_SPACE
  1

  0
ENDBLK
  5
1D
 67
     1
  8
0
  0
ENDSEC
  0
SECTION
  2
ENTITIES
  0
LINE
  5
3D54
  8
1
 10
185.42839713520931
 20
64.449681820262754
 30
0.0
 11
110.39416903150099
 21
64.449681820262754
 31
0.0
  0
LINE
  5
3D55
  8
0
 10
114.3246852233829
 20
60.449681820262747
 30
0.0
 11
114.3246852233829
 21
68.449681820262754
 31
0.0
  0
LINE
  5
3D59
  8
0
 10
113.12933792845109
 20
60.639006232563929
 30
0.0
 11
113.12933792845109
 21
68.260357407961521
 31
0.0
  0
LINE
  5
3D8C
  8
0
 10
176.83468522338291
 20
49.029216628851692
 30
0.0
 11
180.3746852233829
 21
49.029216628851692
 31
0.0
  0
POLYLINE
  5
3D8E
  8
0
 66
     1
 10
0.0
 20
0.0
 30
0.0
  0
VERTEX
  5
5BA3
  8
0
 10
180.3746852233829
 20
49.029216628851692
 30
0.0
  0
VERTEX
  5
5BA4
  8
0
 10
180.46133065344759
 20
49.104273103857558
 30
0.0
  0
VERTEX
  5
5BA5
  8
0
 10
180.6306140779208
 20
49.253123986189529
 30
0.0
  0
VERTEX
  5
5BA6
  8
0
 10
180.79462797876809
 20
49.40035661128708
 30
0.0
  0
VERTEX
  5
5BA7
  8
0
 10
180.8746852233829
 20
49.473389871383368
 30
0.0
  0
SEQEND
  5
5BA8
  8
0
  0
LINE
  5
3D8F
  8
0
 10
176.83468522338291
 20
49.277613154740642
 30
0.0
 11
180.3746852233829
 21
49.277613154740642
 31
0.0
  0
POLYLINE
  5
3D91
  8
0
 66
     1
 10
0.0
 20
0.0
 30
0.0
  0
VERTEX
  5
5BA9
  8
0
 10
180.3746852233829
 20
49.277613154740642
 30
0.0
  0
VERTEX
  5
5BAA
  8
0
 10
180.4613306534475
 20
49.339449389481643
 30
0.0
  0
VERTEX
  5
5BAB
  8
0
 10
180.63061407792071
 20
49.462082088400351
 30
0.0
  0
VERTEX
  5
5BAC
  8
0
 10
180.79462797876809
 20
49.583381565445627
 30
0.0
  0
VERTEX
  5
5BAD
  8
0
 10
180.8746852233829
 20
49.643550948764847
 30
0.0
  0
SEQEND
  5
5BAE
  8
0
  0
LINE
  5
3D92
  8
0
 10
176.83468522338291
 20
49.692238039888529
 30
0.0
 11
180.3746852233829
 21
49.692238039888529
 31
0.0
  0
POLYLINE
  5
3D94
  8
0
 66
     1
 10
0.0
 20
0.0
 30
0.0
  0
VERTEX
  5
5BAF
  8
0
 10
180.3746852233829
 20
49.692238039888529
 30
0.0
  0
VERTEX
  5
5BB0
  8
0
 10
180.46133065344759
 20
49.740176543636878
 30
0.0
  0
VERTEX
  5
5BB1
  8
0
 10
180.63061407792071
 20
49.835247469630332
 30
0.0
  0
VERTEX
  5
5BB2
  8
0
 10
180.79462797876809
 20
49.92928481616925
 30
0.0
  0
VERTEX
  5
5BB3
  8
0
 10
180.8746852233829
 20
49.97593109435654
 30
0.0
  0
SEQEND
  5
5BB4
  8
0
  0
LINE
  5
3D95
  8
0
 10
176.83468522338291
 20
50.268548567287851
 30
0.0
 11
180.3746852233829
 21
50.268548567287851
 31
0.0
  0
POLYLINE
  5
3D97
  8
0
 66
     1
 10
0.0
 20
0.0
 30
0.0
  0
VERTEX
  5
5BB5
  8
0
 10
180.3746852233829
 20
50.268548567287851
 30
0.0
  0
VERTEX
  5
5BB6
  8
0
 10
180.46133065344759
 20
50.302064115764651
 30
0.0
  0
VERTEX
  5
5BB7
  8
0
 10
180.63061407792071
 20
50.36853165187285
 30
0.0
  0
VERTEX
  5
5BB8
  8
0
 10
180.79462797876809
 20
50.434276575058163
 30
0.0
  0
VERTEX
  5
5BB9
  8
0
 10
180.8746852233829
 20
50.466888681728307
 30
0.0
  0
SEQEND
  5
5BBA
  8
0
  0
LINE
  5
3D98
  8
0
 10
176.83468522338291
 20
51.000230558199668
 30
0.0
 11
180.3746852233829
 21
51.000230558199668
 31
0.0
  0
POLYLINE
  5
3D9A
  8
0
 66
     1
 10
0.0
 20
0.0
 30
0.0
  0
VERTEX
  5
5BBB
  8
0
 10
180.3746852233829
 20
51.000230558199668
 30
0.0
  0
VERTEX
  5
5BBC
  8
0
 10
180.46133065344759
 20
51.018955948042233
 30
0.0
  0
VERTEX
  5
5BBD
  8
0
 10
180.6306140779208
 20
51.056091862030392
 30
0.0
  0
VERTEX
  5
5BBE
  8
0
 10
180.79462797876809
 20
51.09282404672566
 30
0.0
  0
VERTEX
  5
5BBF
  8
0
 10
180.8746852233829
 20
51.111044676813449
 30
0.0
  0
SEQEND
  5
5BC0
  8
0
  0
LINE
  5
3D9B
  8
0
 10
176.83468522338291
 20
51.879267551617289
 30
0.0
 11
180.3746852233829
 21
51.879267551617289
 31
0.0
  0
POLYLINE
  5
3D9D
  8
0
 66
     1
 10
0.0
 20
0.0
 30
0.0
  0
VERTEX
  5
5BC1
  8
0
 10
180.3746852233829
 20
51.879267551617289
 30
0.0
  0
VERTEX
  5
5BC2
  8
0
 10
180.46133065344759
 20
51.882997623535928
 30
0.0
  0
VERTEX
  5
5BC3
  8
0
 10
180.6306140779208
 20
51.890395046559163
 30
0.0
  0
VERTEX
  5
5BC4
  8
0
 10
180.79462797876809
 20
51.897712047262189
 30
0.0
  0
VERTEX
  5
5BC5
  8
0
 10
180.8746852233829
 20
51.901341571731471
 30
0.0
  0
SEQEND
  5
5BC6
  8
0
  0
LINE
  5
3D9E
  8
0
 10
176.83468522338291
 20
52.896028634290467
 30
0.0
 11
180.3746852233829
 21
52.896028634290467
 31
0.0
  0
LINE
  5
3D9F
  8
0
 10
180.8746852233829
 20
52.823578236866467
 30
0.0
 11
176.83468522338291
 21
52.823578236866467
 31
0.0
  0
POLYLINE
  5
3DA0
  8
0
 66
     1
 10
0.0
 20
0.0
 30
0.0
  0
VERTEX
  5
5BC7
  8
0
 10
180.3746852233829
 20
52.896028634290467
 30
0.0
  0
VERTEX
  5
5BC8
  8
0
 10
180.4613306534477
 20
52.884722520836689
 30
0.0
  0
VERTEX
  5
5BC9
  8
0
 10
180.6306140779208
 20
52.862300405180378
 30
0.0
  0
VERTEX
  5
5BCA
  8
0
 10
180.79462797876801
 20
52.840122055300291
 30
0.0
  0
VERTEX
  5
5BCB
  8
0
 10
180.8746852233829
 20
52.82912070832144
 30
0.0
  0
SEQEND
  5
5BCC
  8
0
  0
LINE
  5
3DA1
  8
0
 10
176.83468522338291
 20
54.039373959026527
 30
0.0
 11
180.3746852233829
 21
54.039373959026527
 31
0.0
  0
LINE
  5
3DA2
  8
0
 10
180.8746852233829
 20
53.871364373712026
 30
0.0
 11
176.83468522338291
 21
53.871364373712026
 31
0.0
  0
POLYLINE
  5
3DA3
  8
0
 66
     1
 10
0.0
 20
0.0
 30
0.0
  0
VERTEX
  5
5BCD
  8
0
 10
180.3746852233829
 20
54.039373959026527
 30
0.0
  0
VERTEX
  5
5BCE
  8
0
 10
180.4613306534477
 20
54.01315553234528
 30
0.0
  0
VERTEX
  5
5BCF
  8
0
 10
180.6306140779208
 20
53.961159539400668
 30
0.0
  0
VERTEX
  5
5BD0
  8
0
 10
180.79462797876801
 20
53.909728829579848
 30
0.0
  0
VERTEX
  5
5BD1
  8
0
 10
180.8746852233829
 20
53.88421714421257
 30
0.0
  0
SEQEND
  5
5BD2
  8
0
  0
LINE
  5
3DA4
  8
0
 10
176.83468522338291
 20
55.29677679518727
 30
0.0
 11
180.3746852233829
 21
55.29677679518727
 31
0.0
  0
LINE
  5
3DA5
  8
0
 10
180.8746852233829
 20
55.035048770157182
 30
0.0
 11
176.83468522338291
 21
55.035048770157182
 31
0.0
  0
POLYLINE
  5
3DA6
  8
0
 66
     1
 10
0.0
 20
0.0
 30
0.0
  0
VERTEX
  5
5BD3
  8
0
 10
180.3746852233829
 20
55.29677679518727
 30
0.0
  0
VERTEX
  5
5BD4
  8
0
 10
180.4613306534475
 20
55.25593330984789
 30
0.0
  0
VERTEX
  5
5BD5
  8
0
 10
180.6306140779208
 20
55.174933118594502
 30
0.0
  0
VERTEX
  5
5BD6
  8
0
 10
180.79462797876809
 20
55.094813534452257
 30
0.0
  0
VERTEX
  5
5BD7
  8
0
 10
180.8746852233829
 20
55.05507102206014
 30
0.0
  0
SEQEND
  5
5BD8
  8
0
  0
LINE
  5
3DA7
  8
0
 10
176.83468522338291
 20
56.654460774171241
 30
0.0
 11
180.3746852233829
 21
56.654460774171241
 31
0.0
  0
LINE
  5
3DA8
  8
0
 10
180.8746852233829
 20
56.301881856437937
 30
0.0
 11
176.83468522338291
 21
56.301881856437937
 31
0.0
  0
POLYLINE
  5
3DA9
  8
0
 66
     1
 10
0.0
 20
0.0
 30
0.0
  0
VERTEX
  5
5BD9
  8
0
 10
180.3746852233829
 20
56.654460774171262
 30
0.0
  0
VERTEX
  5
5BDA
  8
0
 10
180.46133065344759
 20
56.599439719946091
 30
0.0
  0
VERTEX
  5
5BDB
  8
0
 10
180.6306140779208
 20
56.490322785429719
 30
0.0
  0
VERTEX
  5
5BDC
  8
0
 10
180.79462797876809
 20
56.382392133896118
 30
0.0
  0
VERTEX
  5
5BDD
  8
0
 10
180.8746852233829
 20
56.328854221761503
 30
0.0
  0
SEQEND
  5
5BDE
  8
0
  0
LINE
  5
3DAA
  8
0
 10
176.83468522338291
 20
58.097550826191082
 30
0.0
 11
180.3746852233829
 21
58.097550826191082
 31
0.0
  0
LINE
  5
3DAB
  8
0
 10
180.8746852233829
 20
57.657983944159128
 30
0.0
 11
176.83468522338291
 21
57.657983944159128
 31
0.0
  0
POLYLINE
  5
3DAC
  8
0
 66
     1
 10
0.0
 20
0.0
 30
0.0
  0
VERTEX
  5
5BDF
  8
0
 10
180.3746852233829
 20
58.097550826191082
 30
0.0
  0
VERTEX
  5
5BE0
  8
0
 10
180.46133065344759
 20
58.028955025264153
 30
0.0
  0
VERTEX
  5
5BE1
  8
0
 10
180.6306140779208
 20
57.892916855453571
 30
0.0
  0
VERTEX
  5
5BE2
  8
0
 10
180.79462797876801
 20
57.758357647332723
 30
0.0
  0
VERTEX
  5
5BE3
  8
0
 10
180.8746852233829
 20
57.691610908024479
 30
0.0
  0
SEQEND
  5
5BE4
  8
0
  0
LINE
  5
3DAD
  8
0
 10
176.83468522338291
 20
59.610236154650799
 30
0.0
 11
180.3746852233829
 21
59.610236154650799
 31
0.0
  0
LINE
  5
3DAE
  8
0
 10
180.8746852233829
 20
59.088497295065054
 30
0.0
 11
176.83468522338291
 21
59.088497295065054
 31
0.0
  0
POLYLINE
  5
3DAF
  8
0
 66
     1
 10
0.0
 20
0.0
 30
0.0
  0
VERTEX
  5
5BE5
  8
0
 10
180.3746852233829
 20
59.610236154650842
 30
0.0
  0
VERTEX
  5
5BE6
  8
0
 10
180.46133065344759
 20
59.528817156971733
 30
0.0
  0
VERTEX
  5
5BE7
  8
0
 10
180.63061407792071
 20
59.367348214523133
 30
0.0
  0
VERTEX
  5
5BE8
  8
0
 10
180.79462797876809
 20
59.20763470865748
 30
0.0
  0
VERTEX
  5
5BE9
  8
0
 10
180.8746852233829
 20
59.128410433419198
 30
0.0
  0
SEQEND
  5
5BEA
  8
0
  0
LINE
  5
3DB0
  8
0
 10
176.83468522338291
 20
61.175943462542143
 30
0.0
 11
180.3746852233829
 21
61.175943462542143
 31
0.0
  0
LINE
  5
3DB1
  8
0
 10
180.8746852233829
 20
60.577748905529063
 30
0.0
 11
176.83468522338291
 21
60.577748905529063
 31
0.0
  0
POLYLINE
  5
3DB2
  8
0
 66
     1
 10
0.0
 20
0.0
 30
0.0
  0
VERTEX
  5
5BEB
  8
0
 10
180.3746852233829
 20
61.175943462542122
 30
0.0
  0
VERTEX
  5
5BEC
  8
0
 10
180.4613306534475
 20
61.082593311687432
 30
0.0
  0
VERTEX
  5
5BED
  8
0
 10
180.6306140779208
 20
60.897462684123802
 30
0.0
  0
VERTEX
  5
5BEE
  8
0
 10
180.7946279787682
 20
60.714344735105797
 30
0.0
  0
VERTEX
  5
5BEF
  8
0
 10
180.8746852233829
 20
60.623510921675781
 30
0.0
  0
SEQEND
  5
5BF0
  8
0
  0
LINE
  5
3DB3
  8
0
 10
176.83468522338291
 20
62.777518532954453
 30
0.0
 11
180.3746852233829
 21
62.777518532954453
 31
0.0
  0
LINE
  5
3DB4
  8
0
 10
180.8746852233829
 20
62.109422223260879
 30
0.0
 11
176.83468522338291
 21
62.109422223260879
 31
0.0
  0
POLYLINE
  5
3DB5
  8
0
 66
     1
 10
0.0
 20
0.0
 30
0.0
  0
VERTEX
  5
5BF1
  8
0
 10
180.3746852233829
 20
62.777518532954431
 30
0.0
  0
VERTEX
  5
5BF2
  8
0
 10
180.46133065344759
 20
62.673259992711657
 30
0.0
  0
VERTEX
  5
5BF3
  8
0
 10
180.6306140779208
 20
62.466496009929678
 30
0.0
  0
VERTEX
  5
5BF4
  8
0
 10
180.7946279787682
 20
62.261979896328718
 30
0.0
  0
VERTEX
  5
5BF5
  8
0
 10
180.8746852233829
 20
62.160531738975052
 30
0.0
  0
SEQEND
  5
5BF6
  8
0
  0
LINE
  5
3DB6
  8
0
 10
176.83468522338291
 20
64.397414174265123
 30
0.0
 11
180.3746852233829
 21
64.397414174265123
 31
0.0
  0
LINE
  5
3DB7
  8
0
 10
180.8746852233829
 20
63.666735914868291
 30
0.0
 11
176.83468522338291
 21
63.666735914868291
 31
0.0
  0
POLYLINE
  5
3DB8
  8
0
 66
     1
 10
0.0
 20
0.0
 30
0.0
  0
VERTEX
  5
5BF7
  8
0
 10
180.3746852233829
 20
64.397414174265137
 30
0.0
  0
VERTEX
  5
5BF8
  8
0
 10
180.4613306534477
 20
64.283389523018485
 30
0.0
  0
VERTEX
  5
5BF9
  8
0
 10
180.6306140779208
 20
64.057257534481863
 30
0.0
  0
VERTEX
  5
5BFA
  8
0
 10
180.79462797876809
 20
63.833583977636501
 30
0.0
  0
VERTEX
  5
5BFB
  8
0
 10
180.8746852233829
 20
63.722632963600333
 30
0.0
  0
SEQEND
  5
5BFC
  8
0
  0
LINE
  5
3DB9
  8
0
 10
176.83468522338291
 20
66.017882470843119
 30
0.0
 11
180.3746852233829
 21
66.017882470843119
 31
0.0
  0
LINE
  5
3DBA
  8
0
 10
180.8746852233829
 20
65.232627725657153
 30
0.0
 11
176.83468522338291
 21
65.232627725657153
 31
0.0
  0
POLYLINE
  5
3DBB
  8
0
 66
     1
 10
0.0
 20
0.0
 30
0.0
  0
VERTEX
  5
5BFD
  8
0
 10
180.3746852233829
 20
66.017882470843105
 30
0.0
  0
VERTEX
  5
5BFE
  8
0
 10
180.46133065344759
 20
65.895340986533157
 30
0.0
  0
VERTEX
  5
5BFF
  8
0
 10
180.6306140779208
 20
65.652318541629242
 30
0.0
  0
VERTEX
  5
5C00
  8
0
 10
180.79462797876809
 20
65.411938155834648
 30
0.0
  0
VERTEX
  5
5C01
  8
0
 10
180.8746852233829
 20
65.292699887643991
 30
0.0
  0
SEQEND
  5
5C02
  8
0
  0
LINE
  5
3DBC
  8
0
 10
176.83468522338291
 20
67.621169232926206
 30
0.0
 11
180.3746852233829
 21
67.621169232926206
 31
0.0
  0
LINE
  5
3DBD
  8
0
 10
180.8746852233829
 20
66.789941417264572
 30
0.0
 11
176.83468522338291
 21
66.789941417264572
 31
0.0
  0
POLYLINE
  5
3DBE
  8
0
 66
     1
 10
0.0
 20
0.0
 30
0.0
  0
VERTEX
  5
5C03
  8
0
 10
180.3746852233829
 20
67.621169232926192
 30
0.0
  0
VERTEX
  5
5C04
  8
0
 10
180.46133065344759
 20
67.491453505698288
 30
0.0
  0
VERTEX
  5
5C05
  8
0
 10
180.6306140779208
 20
67.234203209189317
 30
0.0
  0
VERTEX
  5
5C06
  8
0
 10
180.79462797876809
 20
66.979749652255293
 30
0.0
  0
VERTEX
  5
5C07
  8
0
 10
180.8746852233829
 20
66.853530529328552
 30
0.0
  0
SEQEND
  5
5C08
  8
0
  0
LINE
  5
3DBF
  8
0
 10
176.83468522338291
 20
69.189708515239772
 30
0.0
 11
180.3746852233829
 21
69.189708515239772
 31
0.0
  0
LINE
  5
3DC0
  8
0
 10
180.8746852233829
 20
68.321614734996444
 30
0.0
 11
176.83468522338291
 21
68.321614734996444
 31
0.0
  0
POLYLINE
  5
3DC1
  8
0
 66
     1
 10
0.0
 20
0.0
 30
0.0
  0
VERTEX
  5
5C09
  8
0
 10
180.3746852233829
 20
69.189708515239758
 30
0.0
  0
VERTEX
  5
5C0A
  8
0
 10
180.46133065344759
 20
69.054239737746329
 30
0.0
  0
VERTEX
  5
5C0B
  8
0
 10
180.6306140779208
 20
68.785580077713732
 30
0.0
  0
VERTEX
  5
5C0C
  8
0
 10
180.79462797876809
 20
68.519841196057754
 30
0.0
  0
VERTEX
  5
5C0D
  8
0
 10
180.8746852233829
 20
68.388024101518866
 30
0.0
  0
SEQEND
  5
5C0E
  8
0
  0
LINE
  5
3DC2
  8
0
 10
176.83468522338291
 20
70.70631507316881
 30
0.0
 11
180.3746852233829
 21
70.70631507316881
 31
0.0
  0
LINE
  5
3DC3
  8
0
 10
180.8746852233829
 20
69.810866345460397
 30
0.0
 11
176.83468522338291
 21
69.810866345460397
 31
0.0
  0
POLYLINE
  5
3DC4
  8
0
 66
     1
 10
0.0
 20
0.0
 30
0.0
  0
VERTEX
  5
5C0F
  8
0
 10
180.3746852233829
 20
70.706315073168824
 30
0.0
  0
VERTEX
  5
5C10
  8
0
 10
180.46133065344759
 20
70.566577469684617
 30
0.0
  0
VERTEX
  5
5C11
  8
0
 10
180.6306140779208
 20
70.289451937584531
 30
0.0
  0
VERTEX
  5
5C12
  8
0
 10
180.79462797876809
 20
70.015339222003533
 30
0.0
  0
VERTEX
  5
5C13
  8
0
 10
180.8746852233829
 20
69.879368371524649
 30
0.0
  0
SEQEND
  5
5C14
  8
0
  0
LINE
  5
3DC5
  8
0
 10
176.83468522338291
 20
72.15437264789432
 30
0.0
 11
180.3746852233829
 21
72.15437264789432
 31
0.0
  0
LINE
  5
3DC6
  8
0
 10
180.8746852233829
 20
71.241379696366323
 30
0.0
 11
176.83468522338291
 21
71.241379696366323
 31
0.0
  0
POLYLINE
  5
3DC7
  8
0
 66
     1
 10
0.0
 20
0.0
 30
0.0
  0
VERTEX
  5
5C15
  8
0
 10
180.3746852233829
 20
72.154372647894334
 30
0.0
  0
VERTEX
  5
5C16
  8
0
 10
180.46133065344759
 20
72.01189721284517
 30
0.0
  0
VERTEX
  5
5C17
  8
0
 10
180.63061407792071
 20
71.729342053999559
 30
0.0
  0
VERTEX
  5
5C18
  8
0
 10
180.79462797876801
 20
71.449858740767155
 30
0.0
  0
VERTEX
  5
5C19
  8
0
 10
180.8746852233829
 20
71.311223859439863
 30
0.0
  0
SEQEND
  5
5C1A
  8
0
  0
LINE
  5
3DC8
  8
0
 10
176.83468522338291
 20
73.518016017602093
 30
0.0
 11
180.3746852233829
 21
73.518016017602093
 31
0.0
  0
LINE
  5
3DC9
  8
0
 10
180.8746852233829
 20
72.597481784087506
 30
0.0
 11
176.83468522338291
 21
72.597481784087506
 31
0.0
  0
POLYLINE
  5
3DCA
  8
0
 66
     1
 10
0.0
 20
0.0
 30
0.0
  0
VERTEX
  5
5C1B
  8
0
 10
180.3746852233829
 20
73.518016017602093
 30
0.0
  0
VERTEX
  5
5C1C
  8
0
 10
180.46133065344759
 20
73.374363741669299
 30
0.0
  0
VERTEX
  5
5C1D
  8
0
 10
180.6306140779208
 20
73.089474689526782
 30
0.0
  0
VERTEX
  5
5C1E
  8
0
 10
180.79462797876809
 20
72.807682856308389
 30
0.0
  0
VERTEX
  5
5C1F
  8
0
 10
180.8746852233829
 20
72.667902856903865
 30
0.0
  0
SEQEND
  5
5C20
  8
0
  0
LINE
  5
3DCB
  8
0
 10
176.83468522338291
 20
74.782304820172925
 30
0.0
 11
180.3746852233829
 21
74.782304820172925
 31
0.0
  0
LINE
  5
3DCC
  8
0
 10
180.8746852233829
 20
73.864314870368275
 30
0.0
 11
176.83468522338291
 21
73.864314870368275
 31
0.0
  0
POLYLINE
  5
3DCD
  8
0
 66
     1
 10
0.0
 20
0.0
 30
0.0
  0
VERTEX
  5
5C21
  8
0
 10
180.3746852233829
 20
74.782304820172925
 30
0.0
  0
VERTEX
  5
5C22
  8
0
 10
180.4613306534475
 20
74.639049587752851
 30
0.0
  0
VERTEX
  5
5C23
  8
0
 10
180.63061407792071
 20
74.354947946385494
 30
0.0
  0
VERTEX
  5
5C24
  8
0
 10
180.79462797876809
 20
74.073934963474514
 30
0.0
  0
VERTEX
  5
5C25
  8
0
 10
180.8746852233829
 20
73.934541304917076
 30
0.0
  0
SEQEND
  5
5C26
  8
0
  0
LINE
  5
3DCE
  8
0
 10
176.83468522338291
 20
75.933387242916325
 30
0.0
 11
180.3746852233829
 21
75.933387242916325
 31
0.0
  0
LINE
  5
3DCF
  8
0
 10
180.8746852233829
 20
75.027999266813453
 30
0.0
 11
176.83468522338291
 21
75.027999266813453
 31
0.0
  0
POLYLINE
  5
3DD0
  8
0
 66
     1
 10
0.0
 20
0.0
 30
0.0
  0
VERTEX
  5
5C27
  8
0
 10
180.3746852233829
 20
75.933387242916325
 30
0.0
  0
VERTEX
  5
5C28
  8
0
 10
180.4613306534477
 20
75.792098588313024
 30
0.0
  0
VERTEX
  5
5C29
  8
0
 10
180.6306140779208
 20
75.511897034756146
 30
0.0
  0
VERTEX
  5
5C2A
  8
0
 10
180.79462797876801
 20
75.234741739199507
 30
0.0
  0
VERTEX
  5
5C2B
  8
0
 10
180.8746852233829
 20
75.097261647581973
 30
0.0
  0
SEQEND
  5
5C2C
  8
0
  0
LINE
  5
3DD1
  8
0
 10
176.83468522338291
 20
76.958651785929277
 30
0.0
 11
180.3746852233829
 21
76.958651785929277
 31
0.0
  0
LINE
  5
3DD2
  8
0
 10
180.8746852233829
 20
76.075785403658983
 30
0.0
 11
176.83468522338291
 21
76.075785403658983
 31
0.0
  0
POLYLINE
  5
3DD3
  8
0
 66
     1
 10
0.0
 20
0.0
 30
0.0
  0
VERTEX
  5
5C2D
  8
0
 10
180.3746852233829
 20
76.958651785929277
 30
0.0
  0
VERTEX
  5
5C2E
  8
0
 10
180.46133065344759
 20
76.820877697209568
 30
0.0
  0
VERTEX
  5
5C2F
  8
0
 10
180.6306140779208
 20
76.547646178319496
 30
0.0
  0
VERTEX
  5
5C30
  8
0
 10
180.79462797876809
 20
76.277385141533415
 30
0.0
  0
VERTEX
  5
5C31
  8
0
 10
180.8746852233829
 20
76.143324877509485
 30
0.0
  0
SEQEND
  5
5C32
  8
0
  0
LINE
  5
3DD4
  8
0
 10
176.83468522338291
 20
77.846865436328144
 30
0.0
 11
180.3746852233829
 21
77.846865436328144
 31
0.0
  0
POLYLINE
  5
3DD6
  8
0
 66
     1
 10
0.0
 20
0.0
 30
0.0
  0
VERTEX
  5
5C33
  8
0
 10
180.3746852233829
 20
77.846865436328144
 30
0.0
  0
VERTEX
  5
5C34
  8
0
 10
180.46133065344759
 20
77.714115395239133
 30
0.0
  0
VERTEX
  5
5C35
  8
0
 10
180.6306140779208
 20
77.450847492714274
 30
0.0
  0
VERTEX
  5
5C36
  8
0
 10
180.79462797876809
 20
77.190441751173495
 30
0.0
  0
VERTEX
  5
5C37
  8
0
 10
180.8746852233829
 20
77.061270107049637
 30
0.0
  0
SEQEND
  5
5C38
  8
0
  0
LINE
  5
3DD7
  8
0
 10
176.83468522338291
 20
78.588296739488527
 30
0.0
 11
180.3746852233829
 21
78.588296739488527
 31
0.0
  0
POLYLINE
  5
3DD8
  8
0
 66
     1
 10
0.0
 20
0.0
 30
0.0
  0
VERTEX
  5
5C39
  8
0
 10
180.3746852233829
 20
78.588296739488527
 30
0.0
  0
VERTEX
  5
5C3A
  8
0
 10
180.46133065344759
 20
78.462025183259954
 30
0.0
  0
VERTEX
  5
5C3B
  8
0
 10
180.6306140779208
 20
78.211605315332775
 30
0.0
  0
VERTEX
  5
5C3C
  8
0
 10
180.79462797876809
 20
77.96390792883517
 30
0.0
  0
VERTEX
  5
5C3D
  8
0
 10
180.8746852233829
 20
77.841040136175224
 30
0.0
  0
SEQEND
  5
5C3E
  8
0
  0
LINE
  5
3DD9
  8
0
 10
176.83468522338291
 20
79.174822418898458
 30
0.0
 11
180.3746852233829
 21
79.174822418898458
 31
0.0
  0
POLYLINE
  5
3DDB
  8
0
 66
     1
 10
0.0
 20
0.0
 30
0.0
  0
VERTEX
  5
5C3F
  8
0
 10
180.3746852233829
 20
79.174822418898458
 30
0.0
  0
VERTEX
  5
5C40
  8
0
 10
180.46133065344759
 20
79.056412805124396
 30
0.0
  0
VERTEX
  5
5C41
  8
0
 10
180.6306140779208
 20
78.821584624271651
 30
0.0
  0
VERTEX
  5
5C42
  8
0
 10
180.79462797876809
 20
78.589309417217663
 30
0.0
  0
VERTEX
  5
5C43
  8
0
 10
180.8746852233829
 20
78.474091641269837
 30
0.0
  0
SEQEND
  5
5C44
  8
0
  0
LINE
  5
3DDC
  8
0
 10
176.83468522338291
 20
79.600016376475963
 30
0.0
 11
180.3746852233829
 21
79.600016376475963
 31
0.0
  0
POLYLINE
  5
3DDD
  8
0
 66
     1
 10
0.0
 20
0.0
 30
0.0
  0
VERTEX
  5
5C45
  8
0
 10
180.3746852233829
 20
79.600016376475963
 30
0.0
  0
VERTEX
  5
5C46
  8
0
 10
180.46133065344759
 20
79.490766025663731
 30
0.0
  0
VERTEX
  5
5C47
  8
0
 10
180.63061407792071
 20
79.274102358575846
 30
0.0
  0
VERTEX
  5
5C48
  8
0
 10
180.79462797876801
 20
79.059794186740731
 30
0.0
  0
VERTEX
  5
5C49
  8
0
 10
180.8746852233829
 20
78.953488777569021
 30
0.0
  0
SEQEND
  5
5C4A
  8
0
  0
LINE
  5
3DDE
  8
0
 10
176.83468522338291
 20
79.859220098244265
 30
0.0
 11
180.3746852233829
 21
79.859220098244265
 31
0.0
  0
POLYLINE
  5
3DDF
  8
0
 66
     1
 10
0.0
 20
0.0
 30
0.0
  0
VERTEX
  5
5C4B
  8
0
 10
180.3746852233829
 20
79.859220098244265
 30
0.0
  0
VERTEX
  5
5C4C
  8
0
 10
180.46133065344759
 20
79.760325980099481
 30
0.0
  0
VERTEX
  5
5C4D
  8
0
 10
180.6306140779208
 20
79.564200639252732
 30
0.0
  0
VERTEX
  5
5C4E
  8
0
 10
180.79462797876809
 20
79.370207507813888
 30
0.0
  0
VERTEX
  5
5C4F
  8
0
 10
180.8746852233829
 20
79.273979169727255
 30
0.0
  0
SEQEND
  5
5C50
  8
0
  0
LINE
  5
3DE0
  8
0
 10
176.83468522338291
 20
48.949769946539661
 30
0.0
 11
176.83468522338291
 21
49.029216628851692
 31
0.0
  0
LINE
  5
3DE2
  8
0
 10
176.83468522338291
 20
49.0401435422812
 30
0.0
 11
176.83468522338291
 21
49.277613154740642
 31
0.0
  0
LINE
  5
3DE3
  8
0
 10
176.83468522338291
 20
49.299347264049501
 30
0.0
 11
176.83468522338291
 21
49.692238039888529
 31
0.0
  0
LINE
  5
3DE4
  8
0
 10
176.83468522338291
 20
49.724541221627007
 30
0.0
 11
176.83468522338291
 21
50.268548567287851
 31
0.0
  0
LINE
  5
3DE5
  8
0
 10
176.83468522338291
 20
50.311066901036952
 30
0.0
 11
176.83468522338291
 21
51.000230558199689
 31
0.0
  0
LINE
  5
3DE6
  8
0
 10
176.83468522338291
 20
51.052498204197299
 30
0.0
 11
176.83468522338291
 21
51.879267551617289
 31
0.0
  0
LINE
  5
3DE7
  8
0
 10
176.83468522338291
 20
51.940711854596159
 30
0.0
 11
176.83468522338291
 21
52.896028634290467
 31
0.0
  0
LINE
  5
3DE8
  8
0
 10
176.83468522338291
 20
52.965976397609147
 30
0.0
 11
176.83468522338291
 21
54.039373959026527
 31
0.0
  0
LINE
  5
3DE9
  8
0
 10
176.83468522338291
 20
54.117058820352547
 30
0.0
 11
176.83468522338291
 21
55.29677679518727
 31
0.0
  0
LINE
  5
3DEA
  8
0
 10
176.83468522338291
 20
55.381347622923357
 30
0.0
 11
176.83468522338291
 21
56.654460774171241
 31
0.0
  0
LINE
  5
3DEB
  8
0
 10
176.83468522338291
 20
56.744990992631131
 30
0.0
 11
176.83468522338291
 21
58.097550826191082
 31
0.0
  0
LINE
  5
3DEC
  8
0
 10
176.83468522338291
 20
58.193048567356641
 30
0.0
 11
176.83468522338291
 21
59.610236154650842
 31
0.0
  0
LINE
  5
3DED
  8
0
 10
176.83468522338291
 20
59.709655125285707
 30
0.0
 11
176.83468522338291
 21
61.175943462542143
 31
0.0
  0
LINE
  5
3DEE
  8
0
 10
176.83468522338291
 20
61.278194407599301
 30
0.0
 11
176.83468522338291
 21
62.777518532954453
 31
0.0
  0
LINE
  5
3DEF
  8
0
 10
176.83468522338291
 20
62.881481169682388
 30
0.0
 11
176.83468522338291
 21
64.397414174265123
 31
0.0
  0
LINE
  5
3DF0
  8
0
 10
176.83468522338291
 20
64.501949466260328
 30
0.0
 11
176.83468522338291
 21
66.017882470843119
 31
0.0
  0
LINE
  5
3DF1
  8
0
 10
176.83468522338291
 20
66.121845107571062
 30
0.0
 11
176.83468522338291
 21
67.621169232926206
 31
0.0
  0
LINE
  5
3DF2
  8
0
 10
176.83468522338291
 20
67.723420177983314
 30
0.0
 11
176.83468522338291
 21
69.189708515239772
 31
0.0
  0
LINE
  5
3DF3
  8
0
 10
176.83468522338291
 20
69.289127485874644
 30
0.0
 11
176.83468522338291
 21
70.70631507316881
 31
0.0
  0
LINE
  5
3DF4
  8
0
 10
176.83468522338291
 20
70.801812814334369
 30
0.0
 11
176.83468522338291
 21
72.15437264789432
 31
0.0
  0
LINE
  5
3DF5
  8
0
 10
176.83468522338291
 20
72.244902866354209
 30
0.0
 11
176.83468522338291
 21
73.518016017602093
 31
0.0
  0
LINE
  5
3DF6
  8
0
 10
176.83468522338291
 20
73.602586845338152
 30
0.0
 11
176.83468522338291
 21
74.782304820172925
 31
0.0
  0
LINE
  5
3DF7
  8
0
 10
176.83468522338291
 20
74.859989681498917
 30
0.0
 11
176.83468522338291
 21
75.933387242916325
 31
0.0
  0
LINE
  5
3DF8
  8
0
 10
176.83468522338291
 20
76.003335006234977
 30
0.0
 11
176.83468522338291
 21
76.958651785929277
 31
0.0
  0
LINE
  5
3DF9
  8
0
 10
176.83468522338291
 20
77.020096088908161
 30
0.0
 11
176.83468522338291
 21
77.846865436328144
 31
0.0
  0
LINE
  5
3DFA
  8
0
 10
176.83468522338291
 20
77.899133082325761
 30
0.0
 11
176.83468522338291
 21
78.588296739488527
 31
0.0
  0
LINE
  5
3DFB
  8
0
 10
176.83468522338291
 20
78.630815073237585
 30
0.0
 11
176.83468522338291
 21
79.174822418898458
 31
0.0
  0
LINE
  5
3DFC
  8
0
 10
176.83468522338291
 20
79.207125600636914
 30
0.0
 11
176.83468522338291
 21
79.600016376475963
 31
0.0
  0
LINE
  5
3DFD
  8
0
 10
176.83468522338291
 20
79.621750485784816
 30
0.0
 11
176.83468522338291
 21
79.859220098244265
 31
0.0
  0
LINE
  5
3DFE
  8
0
 10
176.83468522338291
 20
79.870147011673765
 30
0.0
 11
176.83468522338291
 21
79.949593693985804
 31
0.0
  0
LINE
  5
3DFF
  8
0
 10
176.83468522338291
 20
79.949593693985804
 30
0.0
 11
180.3746852233829
 21
79.949593693985804
 31
0.0
  0
POLYLINE
  5
3E00
  8
0
 66
     1
 10
0.0
 20
0.0
 30
0.0
  0
VERTEX
  5
5C51
  8
0
 10
180.3746852233829
 20
79.949593693985804
 30
0.0
  0
VERTEX
  5
5C52
  8
0
 10
180.46133065344759
 20
79.862139313161805
 30
0.0
  0
VERTEX
  5
5C53
  8
0
 10
180.6306140779208
 20
79.68870108883246
 30
0.0
  0
VERTEX
  5
5C54
  8
0
 10
180.79462797876809
 20
79.517148427133691
 30
0.0
  0
VERTEX
  5
5C55
  8
0
 10
180.8746852233829
 20
79.432051457941071
 30
0.0
  0
SEQEND
  5
5C56
  8
0
  0
LINE
  5
3E20
  8
0
 10
180.3746852233829
 20
48.949769946539661
 30
0.0
 11
176.83468522338291
 21
48.949769946539661
 31
0.0
  0
POLYLINE
  5
3E21
  8
0
 66
     1
 10
0.0
 20
0.0
 30
0.0
  0
VERTEX
  5
5C57
  8
0
 10
180.8746852233829
 20
49.467312182584386
 30
0.0
  0
VERTEX
  5
5C58
  8
0
 10
180.79462797876801
 20
49.382215213391703
 30
0.0
  0
VERTEX
  5
5C59
  8
0
 10
180.63061407792071
 20
49.210662551692948
 30
0.0
  0
VERTEX
  5
5C5A
  8
0
 10
180.46133065344759
 20
49.037224327363688
 30
0.0
  0
VERTEX
  5
5C5B
  8
0
 10
180.3746852233829
 20
48.949769946539661
 30
0.0
  0
SEQEND
  5
5C5C
  8
0
  0
LINE
  5
3E22
  8
0
 10
180.3746852233829
 20
49.0401435422812
 30
0.0
 11
176.83468522338291
 21
49.0401435422812
 31
0.0
  0
POLYLINE
  5
3E23
  8
0
 66
     1
 10
0.0
 20
0.0
 30
0.0
  0
VERTEX
  5
5C5D
  8
0
 10
180.8746852233829
 20
49.625384470798217
 30
0.0
  0
VERTEX
  5
5C5E
  8
0
 10
180.79462797876801
 20
49.529156132711407
 30
0.0
  0
VERTEX
  5
5C5F
  8
0
 10
180.6306140779208
 20
49.335163001272669
 30
0.0
  0
VERTEX
  5
5C60
  8
0
 10
180.4613306534477
 20
49.139037660426069
 30
0.0
  0
VERTEX
  5
5C61
  8
0
 10
180.3746852233829
 20
49.0401435422812
 30
0.0
  0
SEQEND
  5
5C62
  8
0
  0
LINE
  5
3E24
  8
0
 10
180.3746852233829
 20
49.299347264049501
 30
0.0
 11
176.83468522338291
 21
49.299347264049501
 31
0.0
  0
POLYLINE
  5
3E25
  8
0
 66
     1
 10
0.0
 20
0.0
 30
0.0
  0
VERTEX
  5
5C63
  8
0
 10
180.8746852233829
 20
49.945874862956437
 30
0.0
  0
VERTEX
  5
5C64
  8
0
 10
180.79462797876809
 20
49.839569453784819
 30
0.0
  0
VERTEX
  5
5C65
  8
0
 10
180.6306140779208
 20
49.625261281949619
 30
0.0
  0
VERTEX
  5
5C66
  8
0
 10
180.46133065344759
 20
49.408597614861677
 30
0.0
  0
VERTEX
  5
5C67
  8
0
 10
180.3746852233829
 20
49.299347264049501
 30
0.0
  0
SEQEND
  5
5C68
  8
0
  0
LINE
  5
3E26
  8
0
 10
180.3746852233829
 20
49.724541221627007
 30
0.0
 11
176.83468522338291
 21
49.724541221627007
 31
0.0
  0
POLYLINE
  5
3E27
  8
0
 66
     1
 10
0.0
 20
0.0
 30
0.0
  0
VERTEX
  5
5C69
  8
0
 10
180.8746852233829
 20
50.425271999255642
 30
0.0
  0
VERTEX
  5
5C6A
  8
0
 10
180.79462797876809
 20
50.310054223307802
 30
0.0
  0
VERTEX
  5
5C6B
  8
0
 10
180.6306140779208
 20
50.077779016253778
 30
0.0
  0
VERTEX
  5
5C6C
  8
0
 10
180.46133065344759
 20
49.842950835401027
 30
0.0
  0
VERTEX
  5
5C6D
  8
0
 10
180.3746852233829
 20
49.724541221627007
 30
0.0
  0
SEQEND
  5
5C6E
  8
0
  0
LINE
  5
3E28
  8
0
 10
180.3746852233829
 20
50.311066901036938
 30
0.0
 11
176.83468522338291
 21
50.311066901036938
 31
0.0
  0
POLYLINE
  5
3E29
  8
0
 66
     1
 10
0.0
 20
0.0
 30
0.0
  0
VERTEX
  5
5C6F
  8
0
 10
180.8746852233829
 20
51.05832350435022
 30
0.0
  0
VERTEX
  5
5C70
  8
0
 10
180.79462797876801
 20
50.935455711690182
 30
0.0
  0
VERTEX
  5
5C71
  8
0
 10
180.63061407792071
 20
50.687758325192611
 30
0.0
  0
VERTEX
  5
5C72
  8
0
 10
180.46133065344759
 20
50.437338457265547
 30
0.0
  0
VERTEX
  5
5C73
  8
0
 10
180.3746852233829
 20
50.311066901036938
 30
0.0
  0
SEQEND
  5
5C74
  8
0
  0
LINE
  5
3E2A
  8
0
 10
180.3746852233829
 20
51.052498204197292
 30
0.0
 11
176.83468522338291
 21
51.052498204197292
 31
0.0
  0
POLYLINE
  5
3E2B
  8
0
 66
     1
 10
0.0
 20
0.0
 30
0.0
  0
VERTEX
  5
5C75
  8
0
 10
180.8746852233829
 20
51.838093533475828
 30
0.0
  0
VERTEX
  5
5C76
  8
0
 10
180.79462797876801
 20
51.708921889351799
 30
0.0
  0
VERTEX
  5
5C77
  8
0
 10
180.6306140779208
 20
51.448516147811162
 30
0.0
  0
VERTEX
  5
5C78
  8
0
 10
180.46133065344759
 20
51.185248245286473
 30
0.0
  0
VERTEX
  5
5C79
  8
0
 10
180.3746852233829
 20
51.052498204197292
 30
0.0
  0
SEQEND
  5
5C7A
  8
0
  0
LINE
  5
3E2C
  8
0
 10
180.8746852233829
 20
79.449681820262725
 30
0.0
 11
180.8746852233829
 21
49.44968182026274
 31
0.0
  0
LINE
  5
3E2D
  8
0
 10
180.3746852233829
 20
51.940711854596159
 30
0.0
 11
176.83468522338291
 21
51.940711854596159
 31
0.0
  0
POLYLINE
  5
3E2E
  8
0
 66
     1
 10
0.0
 20
0.0
 30
0.0
  0
VERTEX
  5
5C7B
  8
0
 10
180.8746852233829
 20
52.756038763015987
 30
0.0
  0
VERTEX
  5
5C7C
  8
0
 10
180.79462797876809
 20
52.621978498992021
 30
0.0
  0
VERTEX
  5
5C7D
  8
0
 10
180.6306140779208
 20
52.351717462205883
 30
0.0
  0
VERTEX
  5
5C7E
  8
0
 10
180.46133065344759
 20
52.07848594331584
 30
0.0
  0
VERTEX
  5
5C7F
  8
0
 10
180.3746852233829
 20
51.940711854596159
 30
0.0
  0
SEQEND
  5
5C80
  8
0
  0
LINE
  5
3E2F
  8
0
 10
180.3746852233829
 20
52.965976397609147
 30
0.0
 11
176.83468522338291
 21
52.965976397609147
 31
0.0
  0
POLYLINE
  5
3E30
  8
0
 66
     1
 10
0.0
 20
0.0
 30
0.0
  0
VERTEX
  5
5C81
  8
0
 10
180.8746852233829
 20
53.802101992943477
 30
0.0
  0
VERTEX
  5
5C82
  8
0
 10
180.79462797876801
 20
53.664621901325958
 30
0.0
  0
VERTEX
  5
5C83
  8
0
 10
180.63061407792071
 20
53.387466605769227
 30
0.0
  0
VERTEX
  5
5C84
  8
0
 10
180.46133065344759
 20
53.107265052212313
 30
0.0
  0
VERTEX
  5
5C85
  8
0
 10
180.3746852233829
 20
52.96597639760914
 30
0.0
  0
SEQEND
  5
5C86
  8
0
  0
LINE
  5
3E31
  8
0
 10
180.3746852233829
 20
54.117058820352547
 30
0.0
 11
176.83468522338291
 21
54.117058820352547
 31
0.0
  0
POLYLINE
  5
3E32
  8
0
 66
     1
 10
0.0
 20
0.0
 30
0.0
  0
VERTEX
  5
5C87
  8
0
 10
180.8746852233829
 20
54.964822335608389
 30
0.0
  0
VERTEX
  5
5C88
  8
0
 10
180.7946279787682
 20
54.825428677051008
 30
0.0
  0
VERTEX
  5
5C89
  8
0
 10
180.6306140779208
 20
54.544415694140042
 30
0.0
  0
VERTEX
  5
5C8A
  8
0
 10
180.4613306534475
 20
54.260314052772642
 30
0.0
  0
VERTEX
  5
5C8B
  8
0
 10
180.3746852233829
 20
54.11705882035254
 30
0.0
  0
SEQEND
  5
5C8C
  8
0
  0
LINE
  5
3E33
  8
0
 10
180.3746852233829
 20
55.381347622923357
 30
0.0
 11
176.83468522338291
 21
55.381347622923357
 31
0.0
  0
POLYLINE
  5
3E34
  8
0
 66
     1
 10
0.0
 20
0.0
 30
0.0
  0
VERTEX
  5
5C8D
  8
0
 10
180.8746852233829
 20
56.231460783621642
 30
0.0
  0
VERTEX
  5
5C8E
  8
0
 10
180.79462797876801
 20
56.09168078421699
 30
0.0
  0
VERTEX
  5
5C8F
  8
0
 10
180.63061407792071
 20
55.809888950998563
 30
0.0
  0
VERTEX
  5
5C90
  8
0
 10
180.46133065344759
 20
55.524999898856102
 30
0.0
  0
VERTEX
  5
5C91
  8
0
 10
180.3746852233829
 20
55.381347622923343
 30
0.0
  0
SEQEND
  5
5C92
  8
0
  0
LINE
  5
3E35
  8
0
 10
180.3746852233829
 20
56.744990992631131
 30
0.0
 11
176.83468522338291
 21
56.744990992631131
 31
0.0
  0
POLYLINE
  5
3E36
  8
0
 66
     1
 10
0.0
 20
0.0
 30
0.0
  0
VERTEX
  5
5C93
  8
0
 10
180.8746852233829
 20
57.588139781085623
 30
0.0
  0
VERTEX
  5
5C94
  8
0
 10
180.79462797876809
 20
57.449504899758487
 30
0.0
  0
VERTEX
  5
5C95
  8
0
 10
180.6306140779208
 20
57.170021586526033
 30
0.0
  0
VERTEX
  5
5C96
  8
0
 10
180.46133065344759
 20
56.887466427680231
 30
0.0
  0
VERTEX
  5
5C97
  8
0
 10
180.3746852233829
 20
56.744990992631131
 30
0.0
  0
SEQEND
  5
5C98
  8
0
  0
LINE
  5
3E37
  8
0
 10
180.3746852233829
 20
58.193048567356641
 30
0.0
 11
176.83468522338291
 21
58.193048567356641
 31
0.0
  0
POLYLINE
  5
3E38
  8
0
 66
     1
 10
0.0
 20
0.0
 30
0.0
  0
VERTEX
  5
5C99
  8
0
 10
180.8746852233829
 20
59.01999526900083
 30
0.0
  0
VERTEX
  5
5C9A
  8
0
 10
180.79462797876801
 20
58.884024418521861
 30
0.0
  0
VERTEX
  5
5C9B
  8
0
 10
180.6306140779208
 20
58.609911702940892
 30
0.0
  0
VERTEX
  5
5C9C
  8
0
 10
180.46133065344759
 20
58.33278617084089
 30
0.0
  0
VERTEX
  5
5C9D
  8
0
 10
180.3746852233829
 20
58.193048567356662
 30
0.0
  0
SEQEND
  5
5C9E
  8
0
  0
LINE
  5
3E39
  8
0
 10
180.3746852233829
 20
59.709655125285678
 30
0.0
 11
176.83468522338291
 21
59.709655125285678
 31
0.0
  0
POLYLINE
  5
3E3A
  8
0
 66
     1
 10
0.0
 20
0.0
 30
0.0
  0
VERTEX
  5
5C9F
  8
0
 10
180.8746852233829
 20
60.511339539006613
 30
0.0
  0
VERTEX
  5
5CA0
  8
0
 10
180.79462797876801
 20
60.379522444467597
 30
0.0
  0
VERTEX
  5
5CA1
  8
0
 10
180.6306140779208
 20
60.11378356281174
 30
0.0
  0
VERTEX
  5
5CA2
  8
0
 10
180.4613306534477
 20
59.845123902779306
 30
0.0
  0
VERTEX
  5
5CA3
  8
0
 10
180.3746852233829
 20
59.709655125285693
 30
0.0
  0
SEQEND
  5
5CA4
  8
0
  0
LINE
  5
3E3B
  8
0
 10
180.3746852233829
 20
61.278194407599251
 30
0.0
 11
176.83468522338291
 21
61.278194407599251
 31
0.0
  0
POLYLINE
  5
3E3C
  8
0
 66
     1
 10
0.0
 20
0.0
 30
0.0
  0
VERTEX
  5
5CA5
  8
0
 10
180.8746852233829
 20
62.045833111196949
 30
0.0
  0
VERTEX
  5
5CA6
  8
0
 10
180.79462797876809
 20
61.9196139882702
 30
0.0
  0
VERTEX
  5
5CA7
  8
0
 10
180.63061407792071
 20
61.665160431336083
 30
0.0
  0
VERTEX
  5
5CA8
  8
0
 10
180.46133065344759
 20
61.407910134827077
 30
0.0
  0
VERTEX
  5
5CA9
  8
0
 10
180.3746852233829
 20
61.278194407599258
 30
0.0
  0
SEQEND
  5
5CAA
  8
0
  0
LINE
  5
3E3D
  8
0
 10
180.3746852233829
 20
62.881481169682388
 30
0.0
 11
176.83468522338291
 21
62.881481169682388
 31
0.0
  0
POLYLINE
  5
3E3E
  8
0
 66
     1
 10
0.0
 20
0.0
 30
0.0
  0
VERTEX
  5
5CAB
  8
0
 10
180.8746852233829
 20
63.606663752881488
 30
0.0
  0
VERTEX
  5
5CAC
  8
0
 10
180.79462797876809
 20
63.487425484690831
 30
0.0
  0
VERTEX
  5
5CAD
  8
0
 10
180.6306140779208
 20
63.247045098896237
 30
0.0
  0
VERTEX
  5
5CAE
  8
0
 10
180.46133065344759
 20
63.004022653992322
 30
0.0
  0
VERTEX
  5
5CAF
  8
0
 10
180.3746852233829
 20
62.881481169682367
 30
0.0
  0
SEQEND
  5
5CB0
  8
0
  0
LINE
  5
3E3F
  8
0
 10
180.3746852233829
 20
64.501949466260328
 30
0.0
 11
176.83468522338291
 21
64.501949466260328
 31
0.0
  0
POLYLINE
  5
3E40
  8
0
 66
     1
 10
0.0
 20
0.0
 30
0.0
  0
VERTEX
  5
5CB1
  8
0
 10
180.8746852233829
 20
65.176730676925118
 30
0.0
  0
VERTEX
  5
5CB2
  8
0
 10
180.79462797876809
 20
65.065779662889057
 30
0.0
  0
VERTEX
  5
5CB3
  8
0
 10
180.6306140779208
 20
64.842106106043545
 30
0.0
  0
VERTEX
  5
5CB4
  8
0
 10
180.46133065344759
 20
64.615974117506795
 30
0.0
  0
VERTEX
  5
5CB5
  8
0
 10
180.3746852233829
 20
64.501949466260314
 30
0.0
  0
SEQEND
  5
5CB6
  8
0
  0
LINE
  5
3E41
  8
0
 10
180.3746852233829
 20
66.121845107571062
 30
0.0
 11
176.83468522338291
 21
66.121845107571062
 31
0.0
  0
POLYLINE
  5
3E42
  8
0
 66
     1
 10
0.0
 20
0.0
 30
0.0
  0
VERTEX
  5
5CB7
  8
0
 10
180.8746852233829
 20
66.738831901550427
 30
0.0
  0
VERTEX
  5
5CB8
  8
0
 10
180.79462797876801
 20
66.637383744196555
 30
0.0
  0
VERTEX
  5
5CB9
  8
0
 10
180.6306140779208
 20
66.432867630595695
 30
0.0
  0
VERTEX
  5
5CBA
  8
0
 10
180.46133065344759
 20
66.226103647813929
 30
0.0
  0
VERTEX
  5
5CBB
  8
0
 10
180.3746852233829
 20
66.121845107571019
 30
0.0
  0
SEQEND
  5
5CBC
  8
0
  0
LINE
  5
3E43
  8
0
 10
180.3746852233829
 20
67.723420177983314
 30
0.0
 11
176.83468522338291
 21
67.723420177983314
 31
0.0
  0
POLYLINE
  5
3E44
  8
0
 66
     1
 10
0.0
 20
0.0
 30
0.0
  0
VERTEX
  5
5CBD
  8
0
 10
180.8746852233829
 20
68.275852718849663
 30
0.0
  0
VERTEX
  5
5CBE
  8
0
 10
180.79462797876801
 20
68.18501890541954
 30
0.0
  0
VERTEX
  5
5CBF
  8
0
 10
180.6306140779208
 20
68.001900956401656
 30
0.0
  0
VERTEX
  5
5CC0
  8
0
 10
180.46133065344759
 20
67.816770328838132
 30
0.0
  0
VERTEX
  5
5CC1
  8
0
 10
180.3746852233829
 20
67.723420177983328
 30
0.0
  0
SEQEND
  5
5CC2
  8
0
  0
LINE
  5
3E45
  8
0
 10
180.3746852233829
 20
69.289127485874644
 30
0.0
 11
176.83468522338291
 21
69.289127485874644
 31
0.0
  0
POLYLINE
  5
3E46
  8
0
 66
     1
 10
0.0
 20
0.0
 30
0.0
  0
VERTEX
  5
5CC3
  8
0
 10
180.8746852233829
 20
69.770953207106274
 30
0.0
  0
VERTEX
  5
5CC4
  8
0
 10
180.79462797876809
 20
69.691728931867985
 30
0.0
  0
VERTEX
  5
5CC5
  8
0
 10
180.6306140779208
 20
69.53201542600236
 30
0.0
  0
VERTEX
  5
5CC6
  8
0
 10
180.46133065344759
 20
69.370546483553724
 30
0.0
  0
VERTEX
  5
5CC7
  8
0
 10
180.3746852233829
 20
69.28912748587463
 30
0.0
  0
SEQEND
  5
5CC8
  8
0
  0
LINE
  5
3E47
  8
0
 10
180.3746852233829
 20
70.801812814334369
 30
0.0
 11
176.83468522338291
 21
70.801812814334369
 31
0.0
  0
POLYLINE
  5
3E48
  8
0
 66
     1
 10
0.0
 20
0.0
 30
0.0
  0
VERTEX
  5
5CC9
  8
0
 10
180.8746852233829
 20
71.207752732500964
 30
0.0
  0
VERTEX
  5
5CCA
  8
0
 10
180.79462797876801
 20
71.141005993192678
 30
0.0
  0
VERTEX
  5
5CCB
  8
0
 10
180.6306140779208
 20
71.006446785071901
 30
0.0
  0
VERTEX
  5
5CCC
  8
0
 10
180.4613306534477
 20
70.870408615261383
 30
0.0
  0
VERTEX
  5
5CCD
  8
0
 10
180.3746852233829
 20
70.801812814334355
 30
0.0
  0
SEQEND
  5
5CCE
  8
0
  0
LINE
  5
3E49
  8
0
 10
180.3746852233829
 20
72.244902866354209
 30
0.0
 11
176.83468522338291
 21
72.244902866354209
 31
0.0
  0
POLYLINE
  5
3E4A
  8
0
 66
     1
 10
0.0
 20
0.0
 30
0.0
  0
VERTEX
  5
5CCF
  8
0
 10
180.8746852233829
 20
72.570509418763962
 30
0.0
  0
VERTEX
  5
5CD0
  8
0
 10
180.79462797876801
 20
72.516971506629275
 30
0.0
  0
VERTEX
  5
5CD1
  8
0
 10
180.6306140779208
 20
72.409040855095711
 30
0.0
  0
VERTEX
  5
5CD2
  8
0
 10
180.4613306534477
 20
72.299923920579417
 30
0.0
  0
VERTEX
  5
5CD3
  8
0
 10
180.3746852233829
 20
72.244902866354195
 30
0.0
  0
SEQEND
  5
5CD4
  8
0
  0
LINE
  5
3E4B
  8
0
 10
180.3746852233829
 20
73.602586845338152
 30
0.0
 11
176.83468522338291
 21
73.602586845338152
 31
0.0
  0
POLYLINE
  5
3E4C
  8
0
 66
     1
 10
0.0
 20
0.0
 30
0.0
  0
VERTEX
  5
5CD5
  8
0
 10
180.8746852233829
 20
73.844292618465303
 30
0.0
  0
VERTEX
  5
5CD6
  8
0
 10
180.79462797876801
 20
73.804550106073151
 30
0.0
  0
VERTEX
  5
5CD7
  8
0
 10
180.63061407792071
 20
73.724430521930941
 30
0.0
  0
VERTEX
  5
5CD8
  8
0
 10
180.46133065344759
 20
73.643430330677575
 30
0.0
  0
VERTEX
  5
5CD9
  8
0
 10
180.3746852233829
 20
73.602586845338152
 30
0.0
  0
SEQEND
  5
5CDA
  8
0
  0
LINE
  5
3E4D
  8
0
 10
180.3746852233829
 20
74.859989681498917
 30
0.0
 11
176.83468522338291
 21
74.859989681498917
 31
0.0
  0
POLYLINE
  5
3E4E
  8
0
 66
     1
 10
0.0
 20
0.0
 30
0.0
  0
VERTEX
  5
5CDB
  8
0
 10
180.8746852233829
 20
75.015146496312894
 30
0.0
  0
VERTEX
  5
5CDC
  8
0
 10
180.79462797876809
 20
74.989634810945603
 30
0.0
  0
VERTEX
  5
5CDD
  8
0
 10
180.63061407792071
 20
74.938204101124754
 30
0.0
  0
VERTEX
  5
5CDE
  8
0
 10
180.46133065344759
 20
74.886208108180114
 30
0.0
  0
VERTEX
  5
5CDF
  8
0
 10
180.3746852233829
 20
74.859989681498888
 30
0.0
  0
SEQEND
  5
5CE0
  8
0
  0
LINE
  5
3E4F
  8
0
 10
180.3746852233829
 20
76.003335006234977
 30
0.0
 11
176.83468522338291
 21
76.003335006234977
 31
0.0
  0
POLYLINE
  5
3E50
  8
0
 66
     1
 10
0.0
 20
0.0
 30
0.0
  0
VERTEX
  5
5CE1
  8
0
 10
180.8746852233829
 20
76.070242932204025
 30
0.0
  0
VERTEX
  5
5CE2
  8
0
 10
180.79462797876809
 20
76.05924158522518
 30
0.0
  0
VERTEX
  5
5CE3
  8
0
 10
180.6306140779208
 20
76.037063235345073
 30
0.0
  0
VERTEX
  5
5CE4
  8
0
 10
180.46133065344759
 20
76.014641119688747
 30
0.0
  0
VERTEX
  5
5CE5
  8
0
 10
180.3746852233829
 20
76.003335006234977
 30
0.0
  0
SEQEND
  5
5CE6
  8
0
  0
LINE
  5
3E51
  8
0
 10
180.3746852233829
 20
77.020096088908161
 30
0.0
 11
176.83468522338291
 21
77.020096088908161
 31
0.0
  0
POLYLINE
  5
3E52
  8
0
 66
     1
 10
0.0
 20
0.0
 30
0.0
  0
VERTEX
  5
5CE7
  8
0
 10
180.8746852233829
 20
76.998022068793972
 30
0.0
  0
VERTEX
  5
5CE8
  8
0
 10
180.79462797876809
 20
77.001651593263261
 30
0.0
  0
VERTEX
  5
5CE9
  8
0
 10
180.63061407792071
 20
77.008968593966273
 30
0.0
  0
VERTEX
  5
5CEA
  8
0
 10
180.4613306534475
 20
77.016366016989494
 30
0.0
  0
VERTEX
  5
5CEB
  8
0
 10
180.3746852233829
 20
77.020096088908161
 30
0.0
  0
SEQEND
  5
5CEC
  8
0
  0
LINE
  5
3E53
  8
0
 10
180.3746852233829
 20
77.899133082325761
 30
0.0
 11
176.83468522338291
 21
77.899133082325761
 31
0.0
  0
POLYLINE
  5
3E54
  8
0
 66
     1
 10
0.0
 20
0.0
 30
0.0
  0
VERTEX
  5
5CED
  8
0
 10
180.8746852233829
 20
77.788318963712015
 30
0.0
  0
VERTEX
  5
5CEE
  8
0
 10
180.79462797876809
 20
77.806539593799812
 30
0.0
  0
VERTEX
  5
5CEF
  8
0
 10
180.6306140779208
 20
77.843271778495051
 30
0.0
  0
VERTEX
  5
5CF0
  8
0
 10
180.46133065344759
 20
77.880407692483203
 30
0.0
  0
VERTEX
  5
5CF1
  8
0
 10
180.3746852233829
 20
77.899133082325761
 30
0.0
  0
SEQEND
  5
5CF2
  8
0
  0
LINE
  5
3E55
  8
0
 10
180.3746852233829
 20
78.630815073237585
 30
0.0
 11
176.83468522338291
 21
78.630815073237585
 31
0.0
  0
POLYLINE
  5
3E56
  8
0
 66
     1
 10
0.0
 20
0.0
 30
0.0
  0
VERTEX
  5
5CF3
  8
0
 10
180.8746852233829
 20
78.432474958797144
 30
0.0
  0
VERTEX
  5
5CF4
  8
0
 10
180.79462797876801
 20
78.465087065467316
 30
0.0
  0
VERTEX
  5
5CF5
  8
0
 10
180.6306140779208
 20
78.530831988652579
 30
0.0
  0
VERTEX
  5
5CF6
  8
0
 10
180.4613306534477
 20
78.597299524760757
 30
0.0
  0
VERTEX
  5
5CF7
  8
0
 10
180.3746852233829
 20
78.630815073237585
 30
0.0
  0
SEQEND
  5
5CF8
  8
0
  0
LINE
  5
3E57
  8
0
 10
180.3746852233829
 20
79.207125600636914
 30
0.0
 11
176.83468522338291
 21
79.207125600636914
 31
0.0
  0
POLYLINE
  5
3E58
  8
0
 66
     1
 10
0.0
 20
0.0
 30
0.0
  0
VERTEX
  5
5CF9
  8
0
 10
180.8746852233829
 20
78.923432546168925
 30
0.0
  0
VERTEX
  5
5CFA
  8
0
 10
180.79462797876801
 20
78.97007882435625
 30
0.0
  0
VERTEX
  5
5CFB
  8
0
 10
180.6306140779208
 20
79.064116170895119
 30
0.0
  0
VERTEX
  5
5CFC
  8
0
 10
180.4613306534477
 20
79.159187096888502
 30
0.0
  0
VERTEX
  5
5CFD
  8
0
 10
180.3746852233829
 20
79.207125600636914
 30
0.0
  0
SEQEND
  5
5CFE
  8
0
  0
LINE
  5
3E59
  8
0
 10
180.3746852233829
 20
79.621750485784816
 30
0.0
 11
176.83468522338291
 21
79.621750485784816
 31
0.0
  0
POLYLINE
  5
3E5A
  8
0
 66
     1
 10
0.0
 20
0.0
 30
0.0
  0
VERTEX
  5
5CFF
  8
0
 10
180.8746852233829
 20
79.25581269176061
 30
0.0
  0
VERTEX
  5
5D00
  8
0
 10
180.79462797876809
 20
79.315982075079802
 30
0.0
  0
VERTEX
  5
5D01
  8
0
 10
180.6306140779208
 20
79.437281552125086
 30
0.0
  0
VERTEX
  5
5D02
  8
0
 10
180.4613306534475
 20
79.559914251043779
 30
0.0
  0
VERTEX
  5
5D03
  8
0
 10
180.3746852233829
 20
79.621750485784816
 30
0.0
  0
SEQEND
  5
5D04
  8
0
  0
LINE
  5
3E5B
  8
0
 10
180.3746852233829
 20
79.870147011673765
 30
0.0
 11
176.83468522338291
 21
79.870147011673765
 31
0.0
  0
POLYLINE
  5
3E5C
  8
0
 66
     1
 10
0.0
 20
0.0
 30
0.0
  0
VERTEX
  5
5D05
  8
0
 10
180.8746852233829
 20
79.425973769142075
 30
0.0
  0
VERTEX
  5
5D06
  8
0
 10
180.79462797876801
 20
79.49900702923847
 30
0.0
  0
VERTEX
  5
5D07
  8
0
 10
180.6306140779208
 20
79.646239654335943
 30
0.0
  0
VERTEX
  5
5D08
  8
0
 10
180.46133065344759
 20
79.795090536667828
 30
0.0
  0
VERTEX
  5
5D09
  8
0
 10
180.3746852233829
 20
79.870147011673765
 30
0.0
  0
SEQEND
  5
5D0A
  8
0
  0
LINE
  5
3E5D
  8
0
 10
180.3746852233829
 20
49.029216628851692
 30
0.0
 11
180.3746852233829
 21
49.0401435422812
 31
0.0
  0
LINE
  5
3E5E
  8
0
 10
180.3746852233829
 20
49.277613154740642
 30
0.0
 11
180.3746852233829
 21
49.299347264049501
 31
0.0
  0
LINE
  5
3E5F
  8
0
 10
180.3746852233829
 20
49.692238039888529
 30
0.0
 11
180.3746852233829
 21
49.724541221627007
 31
0.0
  0
LINE
  5
3E60
  8
0
 10
180.3746852233829
 20
50.268548567287851
 30
0.0
 11
180.3746852233829
 21
50.311066901036938
 31
0.0
  0
LINE
  5
3E61
  8
0
 10
180.3746852233829
 20
51.000230558199668
 30
0.0
 11
180.3746852233829
 21
51.052498204197292
 31
0.0
  0
LINE
  5
3E62
  8
0
 10
180.3746852233829
 20
51.879267551617289
 30
0.0
 11
180.3746852233829
 21
51.940711854596159
 31
0.0
  0
LINE
  5
3E63
  8
0
 10
180.3746852233829
 20
52.896028634290467
 30
0.0
 11
180.3746852233829
 21
52.965976397609118
 31
0.0
  0
LINE
  5
3E64
  8
0
 10
180.3746852233829
 20
54.039373959026527
 30
0.0
 11
180.3746852233829
 21
54.117058820352547
 31
0.0
  0
LINE
  5
3E65
  8
0
 10
180.3746852233829
 20
55.29677679518727
 30
0.0
 11
180.3746852233829
 21
55.381347622923329
 31
0.0
  0
LINE
  5
3E66
  8
0
 10
180.3746852233829
 20
56.654460774171241
 30
0.0
 11
180.3746852233829
 21
56.744990992631131
 31
0.0
  0
LINE
  5
3E67
  8
0
 10
180.3746852233829
 20
58.097550826191082
 30
0.0
 11
180.3746852233829
 21
58.193048567356641
 31
0.0
  0
LINE
  5
3E68
  8
0
 10
180.3746852233829
 20
59.610236154650799
 30
0.0
 11
180.3746852233829
 21
59.709655125285707
 31
0.0
  0
LINE
  5
3E69
  8
0
 10
180.3746852233829
 20
61.175943462542143
 30
0.0
 11
180.3746852233829
 21
61.278194407599251
 31
0.0
  0
LINE
  5
3E6A
  8
0
 10
180.3746852233829
 20
62.777518532954453
 30
0.0
 11
180.3746852233829
 21
62.881481169682388
 31
0.0
  0
LINE
  5
3E6B
  8
0
 10
180.3746852233829
 20
64.397414174265123
 30
0.0
 11
180.3746852233829
 21
64.501949466260328
 31
0.0
  0
LINE
  5
3E6C
  8
0
 10
180.3746852233829
 20
66.017882470843119
 30
0.0
 11
180.3746852233829
 21
66.121845107571005
 31
0.0
  0
LINE
  5
3E6D
  8
0
 10
180.3746852233829
 20
67.621169232926206
 30
0.0
 11
180.3746852233829
 21
67.723420177983314
 31
0.0
  0
LINE
  5
3E6E
  8
0
 10
180.3746852233829
 20
69.189708515239772
 30
0.0
 11
180.3746852233829
 21
69.289127485874644
 31
0.0
  0
LINE
  5
3E6F
  8
0
 10
180.3746852233829
 20
70.70631507316881
 30
0.0
 11
180.3746852233829
 21
70.801812814334369
 31
0.0
  0
LINE
  5
3E70
  8
0
 10
180.3746852233829
 20
72.15437264789432
 30
0.0
 11
180.3746852233829
 21
72.244902866354209
 31
0.0
  0
LINE
  5
3E71
  8
0
 10
180.3746852233829
 20
73.518016017602093
 30
0.0
 11
180.3746852233829
 21
73.602586845338152
 31
0.0
  0
LINE
  5
3E72
  8
0
 10
180.3746852233829
 20
74.782304820172925
 30
0.0
 11
180.3746852233829
 21
74.859989681498888
 31
0.0
  0
LINE
  5
3E73
  8
0
 10
180.3746852233829
 20
75.933387242916325
 30
0.0
 11
180.3746852233829
 21
76.003335006234948
 31
0.0
  0
LINE
  5
3E74
  8
0
 10
180.3746852233829
 20
76.958651785929305
 30
0.0
 11
180.3746852233829
 21
77.020096088908161
 31
0.0
  0
LINE
  5
3E75
  8
0
 10
180.3746852233829
 20
77.846865436328144
 30
0.0
 11
180.3746852233829
 21
77.899133082325761
 31
0.0
  0
LINE
  5
3E76
  8
0
 10
180.3746852233829
 20
78.588296739488527
 30
0.0
 11
180.3746852233829
 21
78.630815073237585
 31
0.0
  0
LINE
  5
3E77
  8
0
 10
180.3746852233829
 20
79.174822418898458
 30
0.0
 11
180.3746852233829
 21
79.207125600636914
 31
0.0
  0
LINE
  5
3E78
  8
0
 10
180.3746852233829
 20
79.600016376475963
 30
0.0
 11
180.3746852233829
 21
79.621750485784816
 31
0.0
  0
LINE
  5
3E79
  8
0
 10
180.3746852233829
 20
79.859220098244265
 30
0.0
 11
180.3746852233829
 21
79.870147011673765
 31
0.0
  0
LINE
  5
3E7B
  8
0
 10
174.40375281360659
 20
79.949681820262725
 30
0.0
 11
174.40375281360659
 21
48.94968182026274
 31
0.0
  0
LINE
  5
3E7C
  8
0
 10
171.7646167553184
 20
77.819735208852961
 30
0.0
 11
171.7646167553184
 21
51.079628431672489
 31
0.0
  0
LINE
  5
3E7D
  8
0
 10
171.10471945741509
 20
74.764655125967593
 30
0.0
 11
171.10471945741509
 21
54.134708514557872
 31
0.0
  0
LINE
  5
3E7E
  8
0
 10
169.78515142827101
 20
73.699681820262725
 30
0.0
 11
169.78515142827101
 21
55.199681820262747
 31
0.0
  0
LINE
  5
3E7F
  8
0
 10
119.8746852233829
 20
68.449681820262754
 30
0.0
 11
114.3246852233829
 21
68.449681820262754
 31
0.0
  0
LINE
  5
3E82
  8
0
 10
114.3246852233829
 20
60.449681820262747
 30
0.0
 11
119.8746852233829
 21
60.449681820262747
 31
0.0
  0
ARC
  5
3E83
  8
0
 10
118.28897093766859
 20
64.449681820262754
 30
0.0
 40
6.4142857142857386
 50
143.552072801413
 51
216.447927198587
  0
LINE
  5
3E84
  8
0
 10
114.3246852233829
 20
68.449681820262754
 30
0.0
 11
113.12933792845109
 21
68.260357407961521
 31
0.0
  0
LINE
  5
3E85
  8
0
 10
113.12933792845109
 20
60.639006232563929
 30
0.0
 11
114.3246852233829
 21
60.449681820262747
 31
0.0
  0
LINE
  5
3E86
  8
0
 10
180.3746852233829
 20
48.94968182026274
 30
0.0
 11
180.8746852233829
 21
49.44968182026274
 31
0.0
  0
LINE
  5
3E87
  8
0
 10
180.8746852233829
 20
79.449681820262725
 30
0.0
 11
180.3746852233829
 21
79.949681820262725
 31
0.0
  0
ARC
  5
3E88
  8
2
 10
207.9987592974565
 20
64.449681820262754
 30
0.0
 40
29.824074074073771
 50
155.4320891177849
 51
204.5679108822151
  0
LINE
  5
3E89
  8
0
 10
174.40375281360659
 20
48.94968182026274
 30
0.0
 11
180.3746852233829
 21
48.94968182026274
 31
0.0
  0
LINE
  5
3E8A
  8
0
 10
180.3746852233829
 20
79.949681820262725
 30
0.0
 11
174.40375281360659
 21
79.949681820262725
 31
0.0
  0
ARC
  5
3E8B
  8
0
 10
174.4037528136065
 20
77.249681820262737
 30
0.0
 40
2.6999999999999948
 50
89.999999999999986
 51
167.81136679806841
  0
ARC
  5
3E8C
  8
0
 10
174.4037528136065
 20
51.649681820262707
 30
0.0
 40
2.6999999999999931
 50
192.18863320193159
 51
270.0
  0
LINE
  5
3E8D
  8
0
 10
171.10471945741509
 20
54.134708514557872
 30
0.0
 11
171.7646167553184
 21
51.079628431672489
 31
0.0
  0
LINE
  5
3E8E
  8
0
 10
171.7646167553184
 20
77.819735208852961
 30
0.0
 11
171.10471945741509
 21
74.764655125967593
 31
0.0
  0
ARC
  5
3E8F
  8
0
 10
169.78515142827101
 20
75.049681820262734
 30
0.0
 40
1.3500000000000061
 50
270.0
 51
347.81136679806832
  0
ARC
  5
3E90
  8
0
 10
169.78515142827101
 20
53.849681820262731
 30
0.0
 40
1.3500000000000061
 50
12.18863320193158
 51
89.999999999999986
  0
LINE
  5
3E91
  8
0
 10
154.07468522338289
 20
55.199681820262747
 30
0.0
 11
169.78515142827101
 21
55.199681820262747
 31
0.0
  0
LINE
  5
3E92
  8
0
 10
169.78515142827101
 20
73.699681820262725
 30
0.0
 11
154.07468522338289
 21
73.69968182026274
 31
0.0
  0
LINE
  5
3EA1
  8
0
 10
153.48089232227281
 20
58.964854262961303
 30
0.0
 11
145.8746852233829
 21
58.964854262961303
 31
0.0
  0
POLYLINE
  5
3EA2
  8
0
 66
     1
 10
0.0
 20
0.0
 30
0.0
  0
VERTEX
  5
5D0B
  8
0
 10
153.8746852233829
 20
64.44968182026274
 30
0.0
  0
VERTEX
  5
5D0C
  8
0
 10
153.86386001972309
 20
63.57262072311714
 30
0.0
  0
VERTEX
  5
5D0D
  8
0
 10
153.77806707912799
 20
61.807502163960912
 30
0.0
  0
VERTEX
  5
5D0E
  8
0
 10
153.604067762748
 20
59.954215267544541
 30
0.0
  0
VERTEX
  5
5D0F
  8
0
 10
153.48089232227281
 20
58.964854262961303
 30
0.0
  0
SEQEND
  5
5D10
  8
0
  0
POLYLINE
  5
3EA3
  8
0
 66
     1
 10
0.0
 20
0.0
 30
0.0
  0
VERTEX
  5
5D11
  8
0
 10
153.48089232227281
 20
69.934509377564197
 30
0.0
  0
VERTEX
  5
5D12
  8
0
 10
153.604067762748
 20
68.945148372980938
 30
0.0
  0
VERTEX
  5
5D13
  8
0
 10
153.77806707912799
 20
67.091861476564574
 30
0.0
  0
VERTEX
  5
5D14
  8
0
 10
153.86386001972309
 20
65.326742917408339
 30
0.0
  0
VERTEX
  5
5D15
  8
0
 10
153.8746852233829
 20
64.44968182026274
 30
0.0
  0
SEQEND
  5
5D16
  8
0
  0
LINE
  5
3EA4
  8
0
 10
153.48089232227281
 20
69.934509377564211
 30
0.0
 11
145.8746852233829
 21
69.934509377564211
 31
0.0
  0
LINE
  5
3EA7
  8
0
 10
153.48089232227281
 20
75.419336934865612
 30
0.0
 11
145.8746852233829
 21
75.419336934865612
 31
0.0
  0
POLYLINE
  5
3EAC
  8
0
 66
     1
 10
0.0
 20
0.0
 30
0.0
  0
VERTEX
  5
5D17
  8
0
 10
153.8746852233829
 20
72.676923156214897
 30
0.0
  0
VERTEX
  5
5D18
  8
0
 10
153.86386001972309
 20
72.238392607642126
 30
0.0
  0
VERTEX
  5
5D19
  8
0
 10
153.77806707912799
 20
71.355833328064008
 30
0.0
  0
VERTEX
  5
5D1A
  8
0
 10
153.604067762748
 20
70.429189879855784
 30
0.0
  0
VERTEX
  5
5D1B
  8
0
 10
153.48089232227281
 20
69.934509377564197
 30
0.0
  0
SEQEND
  5
5D1C
  8
0
  0
POLYLINE
  5
3EAD
  8
0
 66
     1
 10
0.0
 20
0.0
 30
0.0
  0
VERTEX
  5
5D1D
  8
0
 10
153.48089232227281
 20
75.419336934865626
 30
0.0
  0
VERTEX
  5
5D1E
  8
0
 10
153.604067762748
 20
74.924656432573997
 30
0.0
  0
VERTEX
  5
5D1F
  8
0
 10
153.77806707912799
 20
73.998012984365815
 30
0.0
  0
VERTEX
  5
5D20
  8
0
 10
153.86386001972309
 20
73.115453704787697
 30
0.0
  0
VERTEX
  5
5D21
  8
0
 10
153.8746852233829
 20
72.676923156214897
 30
0.0
  0
SEQEND
  5
5D22
  8
0
  0
LINE
  5
3EB7
  8
0
 10
153.48089232227281
 20
53.480026705659839
 30
0.0
 11
145.8746852233829
 21
53.480026705659839
 31
0.0
  0
POLYLINE
  5
3EBA
  8
0
 66
     1
 10
0.0
 20
0.0
 30
0.0
  0
VERTEX
  5
5D23
  8
0
 10
153.8746852233829
 20
56.22244048431056
 30
0.0
  0
VERTEX
  5
5D24
  8
0
 10
153.86386001972309
 20
55.783909935737782
 30
0.0
  0
VERTEX
  5
5D25
  8
0
 10
153.77806707912799
 20
54.90135065615965
 30
0.0
  0
VERTEX
  5
5D26
  8
0
 10
153.604067762748
 20
53.974707207951482
 30
0.0
  0
VERTEX
  5
5D27
  8
0
 10
153.48089232227281
 20
53.480026705659853
 30
0.0
  0
SEQEND
  5
5D28
  8
0
  0
POLYLINE
  5
3EBB
  8
0
 66
     1
 10
0.0
 20
0.0
 30
0.0
  0
VERTEX
  5
5D29
  8
0
 10
153.48089232227281
 20
58.964854262961303
 30
0.0
  0
VERTEX
  5
5D2A
  8
0
 10
153.604067762748
 20
58.470173760669667
 30
0.0
  0
VERTEX
  5
5D2B
  8
0
 10
153.77806707912799
 20
57.543530312461478
 30
0.0
  0
VERTEX
  5
5D2C
  8
0
 10
153.86386001972309
 20
56.66097103288336
 30
0.0
  0
VERTEX
  5
5D2D
  8
0
 10
153.8746852233829
 20
56.22244048431056
 30
0.0
  0
SEQEND
  5
5D2E
  8
0
  0
LINE
  5
3EBC
  8
0
 10
145.8746852233829
 20
53.480026705659853
 30
0.0
 11
145.8746852233829
 21
75.419336934865612
 31
0.0
  0
LINE
  5
3EBE
  8
0
 10
153.8746852233829
 20
54.949681820262747
 30
0.0
 11
153.8746852233829
 21
73.949681820262754
 31
0.0
  0
LINE
  5
3EBF
  8
0
 10
120.7946852233829
 20
56.449681820262747
 30
0.0
 11
120.7946852233829
 21
72.449681820262754
 31
0.0
  0
LINE
  5
3EC0
  8
0
 10
119.8746852233829
 20
57.369681820262741
 30
0.0
 11
119.8746852233829
 21
71.529681820262738
 31
0.0
  0
LINE
  5
3EC9
  8
0
 10
153.48089232227281
 20
53.480026705659839
 30
0.0
 11
153.8746852233829
 21
54.949681820262747
 31
0.0
  0
LINE
  5
3ECA
  8
0
 10
153.8746852233829
 20
73.949681820262754
 30
0.0
 11
153.48089232227281
 21
75.419336934865612
 31
0.0
  0
LINE
  5
3ECB
  8
0
 10
120.7946852233829
 20
72.449681820262754
 30
0.0
 11
119.8746852233829
 21
71.529681820262738
 31
0.0
  0
LINE
  5
3ECC
  8
0
 10
119.8746852233829
 20
57.369681820262741
 30
0.0
 11
120.7946852233829
 21
56.449681820262747
 31
0.0
  0
CIRCLE
  5
3F04
  8
0
 10
49.69855242948222
 20
64.449681820153444
 30
0.0
 40
15.4999999998902
  0
LINE
  5
3F05
  8
1
 10
30.70320202994262
 20
64.449681820262725
 30
0.0
 11
68.693902829043878
 21
64.449681820262725
 31
0.0
  0
LINE
  5
3F06
  8
1
 10
49.698552429493247
 20
83.445032219813356
 30
0.0
 11
49.698552429493247
 21
45.454331420712087
 31
0.0
  0
LINE
  5
3F14
  8
0
 10
50.541570496874442
 20
79.425973769142075
 30
0.0
 11
50.481498334887704
 21
79.389179660191161
 31
0.0
  0
POLYLINE
  5
3F15
  8
0
 66
     1
 10
0.0
 20
0.0
 30
0.0
  0
VERTEX
  5
5D2F
  8
0
 10
51.266753080073563
 20
79.870147011673765
 30
0.0
  0
VERTEX
  5
5D30
  8
0
 10
51.144211595763629
 20
79.795090536667914
 30
0.0
  0
VERTEX
  5
5D31
  8
0
 10
50.901189150859629
 20
79.646239654335915
 30
0.0
  0
VERTEX
  5
5D32
  8
0
 10
50.660808765064978
 20
79.499007029238356
 30
0.0
  0
VERTEX
  5
5D33
  8
0
 10
50.541570496874442
 20
79.425973769142075
 30
0.0
  0
SEQEND
  5
5D34
  8
0
  0
LINE
  5
3F17
  8
0
 10
52.102401138559003
 20
79.25581269176061
 30
0.0
 11
52.038812026495123
 21
79.225499395566004
 31
0.0
  0
POLYLINE
  5
3F18
  8
0
 66
     1
 10
0.0
 20
0.0
 30
0.0
  0
VERTEX
  5
5D35
  8
0
 10
52.870039842156643
 20
79.621750485784816
 30
0.0
  0
VERTEX
  5
5D36
  8
0
 10
52.74032411492874
 20
79.559914251043693
 30
0.0
  0
VERTEX
  5
5D37
  8
0
 10
52.483073818419768
 20
79.437281552125086
 30
0.0
  0
VERTEX
  5
5D38
  8
0
 10
52.228620261485787
 20
79.315982075079916
 30
0.0
  0
VERTEX
  5
5D39
  8
0
 10
52.102401138559003
 20
79.25581269176061
 30
0.0
  0
SEQEND
  5
5D3A
  8
0
  0
LINE
  5
3F1A
  8
0
 10
53.636894710749338
 20
78.923432546168925
 30
0.0
 11
53.570485344226938
 21
78.8999321815472
 31
0.0
  0
POLYLINE
  5
3F1B
  8
0
 66
     1
 10
0.0
 20
0.0
 30
0.0
  0
VERTEX
  5
5D3B
  8
0
 10
54.438579124470259
 20
79.207125600636942
 30
0.0
  0
VERTEX
  5
5D3C
  8
0
 10
54.303110346976609
 20
79.15918709688853
 30
0.0
  0
VERTEX
  5
5D3D
  8
0
 10
54.034450686944183
 20
79.064116170895119
 30
0.0
  0
VERTEX
  5
5D3E
  8
0
 10
53.768711805288369
 20
78.970078824356278
 30
0.0
  0
VERTEX
  5
5D3F
  8
0
 10
53.636894710749338
 20
78.923432546168925
 30
0.0
  0
SEQEND
  5
5D40
  8
0
  0
LINE
  5
3F1D
  8
0
 10
55.128238980755093
 20
78.432474958797172
 30
0.0
 11
55.059736954690941
 21
78.416045000660858
 31
0.0
  0
POLYLINE
  5
3F1E
  8
0
 66
     1
 10
0.0
 20
0.0
 30
0.0
  0
VERTEX
  5
5D41
  8
0
 10
55.955185682399303
 20
78.630815073237613
 30
0.0
  0
VERTEX
  5
5D42
  8
0
 10
55.81544807891521
 20
78.597299524760842
 30
0.0
  0
VERTEX
  5
5D43
  8
0
 10
55.538322546815088
 20
78.530831988652594
 30
0.0
  0
VERTEX
  5
5D44
  8
0
 10
55.264209831233977
 20
78.465087065467316
 30
0.0
  0
VERTEX
  5
5D45
  8
0
 10
55.128238980755093
 20
78.432474958797172
 30
0.0
  0
SEQEND
  5
5D46
  8
0
  0
LINE
  5
3F20
  8
0
 10
56.560094468670343
 20
77.788318963712044
 30
0.0
 11
56.490250305596881
 21
77.779139422120721
 31
0.0
  0
POLYLINE
  5
3F21
  8
0
 66
     1
 10
0.0
 20
0.0
 30
0.0
  0
VERTEX
  5
5D47
  8
0
 10
57.403243257124821
 20
77.89913308232579
 30
0.0
  0
VERTEX
  5
5D48
  8
0
 10
57.260767822075422
 20
77.880407692483203
 30
0.0
  0
VERTEX
  5
5D49
  8
0
 10
56.978212663229947
 20
77.843271778495108
 30
0.0
  0
VERTEX
  5
5D4A
  8
0
 10
56.698729349997727
 20
77.80653959379984
 30
0.0
  0
VERTEX
  5
5D4B
  8
0
 10
56.560094468670343
 20
77.788318963712044
 30
0.0
  0
SEQEND
  5
5D4C
  8
0
  0
LINE
  5
3F23
  8
0
 10
57.916773466134323
 20
76.998022068794
 30
0.0
 11
57.84635239331805
 21
76.996193516726265
 31
0.0
  0
POLYLINE
  5
3F24
  8
0
 66
     1
 10
0.0
 20
0.0
 30
0.0
  0
VERTEX
  5
5D4D
  8
0
 10
58.766886626832608
 20
77.020096088908176
 30
0.0
  0
VERTEX
  5
5D4E
  8
0
 10
58.623234350899899
 20
77.016366016989565
 30
0.0
  0
VERTEX
  5
5D4F
  8
0
 10
58.338345298757297
 20
77.00896859396633
 30
0.0
  0
VERTEX
  5
5D50
  8
0
 10
58.056553465538798
 20
77.00165159326329
 30
0.0
  0
VERTEX
  5
5D51
  8
0
 10
57.916773466134323
 20
76.998022068794
 30
0.0
  0
SEQEND
  5
5D52
  8
0
  0
LINE
  5
3F26
  8
0
 10
59.183411914147541
 20
76.070242932204053
 30
0.0
 11
59.113185479598833
 21
76.075785403659012
 31
0.0
  0
POLYLINE
  5
3F27
  8
0
 66
     1
 10
0.0
 20
0.0
 30
0.0
  0
VERTEX
  5
5D53
  8
0
 10
60.03117542940339
 20
76.003335006235005
 30
0.0
  0
VERTEX
  5
5D54
  8
0
 10
59.887920196983153
 20
76.014641119688775
 30
0.0
  0
VERTEX
  5
5D55
  8
0
 10
59.603818555616037
 20
76.037063235345101
 30
0.0
  0
VERTEX
  5
5D56
  8
0
 10
59.322805572705192
 20
76.059241585225209
 30
0.0
  0
VERTEX
  5
5D57
  8
0
 10
59.183411914147541
 20
76.070242932204053
 30
0.0
  0
SEQEND
  5
5D58
  8
0
  0
LINE
  5
3F29
  8
0
 10
60.346132256812488
 20
75.015146496312923
 30
0.0
 11
60.276869876043968
 21
75.027999266813481
 31
0.0
  0
POLYLINE
  5
3F2A
  8
0
 66
     1
 10
0.0
 20
0.0
 30
0.0
  0
VERTEX
  5
5D59
  8
0
 10
61.18225785214679
 20
74.859989681498945
 30
0.0
  0
VERTEX
  5
5D5A
  8
0
 10
61.040969197543753
 20
74.88620810818017
 30
0.0
  0
VERTEX
  5
5D5B
  8
0
 10
60.76076764398681
 20
74.938204101124796
 30
0.0
  0
VERTEX
  5
5D5C
  8
0
 10
60.483612348429922
 20
74.98963481094566
 30
0.0
  0
VERTEX
  5
5D5D
  8
0
 10
60.346132256812488
 20
75.015146496312923
 30
0.0
  0
SEQEND
  5
5D5E
  8
0
  0
LINE
  5
3F2C
  8
0
 10
61.392195486739979
 20
73.844292618465346
 30
0.0
 11
61.324656012889527
 21
73.864314870368304
 31
0.0
  0
POLYLINE
  5
3F2D
  8
0
 66
     1
 10
0.0
 20
0.0
 30
0.0
  0
VERTEX
  5
5D5F
  8
0
 10
62.207522395159799
 20
73.602586845338209
 30
0.0
  0
VERTEX
  5
5D60
  8
0
 10
62.06974830644009
 20
73.643430330677631
 30
0.0
  0
VERTEX
  5
5D61
  8
0
 10
61.79651678755004
 20
73.724430521930998
 30
0.0
  0
VERTEX
  5
5D62
  8
0
 10
61.526255750763937
 20
73.804550106073194
 30
0.0
  0
VERTEX
  5
5D63
  8
0
 10
61.392195486739979
 20
73.844292618465346
 30
0.0
  0
SEQEND
  5
5D64
  8
0
  0
LINE
  5
3F2F
  8
0
 10
62.310140716280102
 20
72.570509418763976
 30
0.0
 11
62.245064125956787
 21
72.597481784087535
 31
0.0
  0
POLYLINE
  5
3F30
  8
0
 66
     1
 10
0.0
 20
0.0
 30
0.0
  0
VERTEX
  5
5D65
  8
0
 10
63.095736045558681
 20
72.244902866354238
 30
0.0
  0
VERTEX
  5
5D66
  8
0
 10
62.962986004469492
 20
72.299923920579431
 30
0.0
  0
VERTEX
  5
5D67
  8
0
 10
62.699718101944761
 20
72.409040855095753
 30
0.0
  0
VERTEX
  5
5D68
  8
0
 10
62.439312360404131
 20
72.516971506629346
 30
0.0
  0
VERTEX
  5
5D69
  8
0
 10
62.310140716280102
 20
72.570509418763976
 30
0.0
  0
SEQEND
  5
5D6A
  8
0
  0
LINE
  5
3F32
  8
0
 10
63.089910745405753
 20
71.207752732501007
 30
0.0
 11
63.028010031351243
 21
71.241379696366351
 31
0.0
  0
POLYLINE
  5
3F33
  8
0
 66
     1
 10
0.0
 20
0.0
 30
0.0
  0
VERTEX
  5
5D6B
  8
0
 10
63.837167348719049
 20
70.801812814334383
 30
0.0
  0
VERTEX
  5
5D6C
  8
0
 10
63.710895792490419
 20
70.870408615261312
 30
0.0
  0
VERTEX
  5
5D6D
  8
0
 10
63.460475924563291
 20
71.006446785071944
 30
0.0
  0
VERTEX
  5
5D6E
  8
0
 10
63.21277853806567
 20
71.141005993192806
 30
0.0
  0
VERTEX
  5
5D6F
  8
0
 10
63.089910745405753
 20
71.207752732501007
 30
0.0
  0
SEQEND
  5
5D70
  8
0
  0
LINE
  5
3F35
  8
0
 10
63.722962250500352
 20
69.770953207106274
 30
0.0
 11
63.664915609891409
 21
69.810866345460425
 31
0.0
  0
POLYLINE
  5
3F36
  8
0
 66
     1
 10
0.0
 20
0.0
 30
0.0
  0
VERTEX
  5
5D71
  8
0
 10
64.42369302812898
 20
69.289127485874673
 30
0.0
  0
VERTEX
  5
5D72
  8
0
 10
64.30528341435479
 20
69.370546483553881
 30
0.0
  0
VERTEX
  5
5D73
  8
0
 10
64.070455233502173
 20
69.532015426002403
 30
0.0
  0
VERTEX
  5
5D74
  8
0
 10
63.838180026448292
 20
69.691728931867914
 30
0.0
  0
VERTEX
  5
5D75
  8
0
 10
63.722962250500352
 20
69.770953207106274
 30
0.0
  0
SEQEND
  5
5D76
  8
0
  0
LINE
  5
3F38
  8
0
 10
64.202359386799515
 20
68.275852718849706
 30
0.0
 11
64.148802790777722
 21
68.321614734996416
 31
0.0
  0
POLYLINE
  5
3F39
  8
0
 66
     1
 10
0.0
 20
0.0
 30
0.0
  0
VERTEX
  5
5D77
  8
0
 10
64.848886985706486
 20
67.723420177983343
 30
0.0
  0
VERTEX
  5
5D78
  8
0
 10
64.739636634894111
 20
67.81677032883826
 30
0.0
  0
VERTEX
  5
5D79
  8
0
 10
64.522972967806368
 20
68.001900956401641
 30
0.0
  0
VERTEX
  5
5D7A
  8
0
 10
64.308664795971367
 20
68.185018905419412
 30
0.0
  0
VERTEX
  5
5D7B
  8
0
 10
64.202359386799515
 20
68.275852718849706
 30
0.0
  0
SEQEND
  5
5D7C
  8
0
  0
LINE
  5
3F3B
  8
0
 10
64.52284977895772
 20
66.738831901550441
 30
0.0
 11
64.474370004796469
 21
66.789941417264572
 31
0.0
  0
POLYLINE
  5
3F3C
  8
0
 66
     1
 10
0.0
 20
0.0
 30
0.0
  0
VERTEX
  5
5D7D
  8
0
 10
65.108090707474787
 20
66.121845107571062
 30
0.0
  0
VERTEX
  5
5D7E
  8
0
 10
65.009196589330088
 20
66.226103647813858
 30
0.0
  0
VERTEX
  5
5D7F
  8
0
 10
64.813071248483311
 20
66.432867630595752
 30
0.0
  0
VERTEX
  5
5D80
  8
0
 10
64.61907811704441
 20
66.637383744196683
 30
0.0
  0
VERTEX
  5
5D81
  8
0
 10
64.52284977895772
 20
66.738831901550441
 30
0.0
  0
SEQEND
  5
5D82
  8
0
  0
LINE
  5
3F3E
  8
0
 10
64.680922067171593
 20
65.176730676925132
 30
0.0
 11
64.638050269421683
 21
65.232627725657181
 31
0.0
  0
POLYLINE
  5
3F3F
  8
0
 66
     1
 10
0.0
 20
0.0
 30
0.0
  0
VERTEX
  5
5D83
  8
0
 10
65.198464303216326
 20
64.501949466260356
 30
0.0
  0
VERTEX
  5
5D84
  8
0
 10
65.111009922392441
 20
64.615974117506767
 30
0.0
  0
VERTEX
  5
5D85
  8
0
 10
64.937571698062982
 20
64.842106106043559
 30
0.0
  0
VERTEX
  5
5D86
  8
0
 10
64.766019036364128
 20
65.065779662889113
 30
0.0
  0
VERTEX
  5
5D87
  8
0
 10
64.680922067171593
 20
65.176730676925132
 30
0.0
  0
SEQEND
  5
5D88
  8
0
  0
LINE
  5
3F41
  8
0
 10
64.674844378372597
 20
63.606663752881502
 30
0.0
 11
64.638050269421683
 21
63.666735914868269
 31
0.0
  0
POLYLINE
  5
3F42
  8
0
 66
     1
 10
0.0
 20
0.0
 30
0.0
  0
VERTEX
  5
5D89
  8
0
 10
65.119017620904273
 20
62.881481169682409
 30
0.0
  0
VERTEX
  5
5D8A
  8
0
 10
65.043961145898365
 20
63.004022653992308
 30
0.0
  0
VERTEX
  5
5D8B
  8
0
 10
64.895110263566494
 20
63.247045098896223
 30
0.0
  0
VERTEX
  5
5D8C
  8
0
 10
64.747877638468935
 20
63.487425484690839
 30
0.0
  0
VERTEX
  5
5D8D
  8
0
 10
64.674844378372597
 20
63.606663752881502
 30
0.0
  0
SEQEND
  5
5D8E
  8
0
  0
LINE
  5
3F44
  8
0
 10
64.504683300991132
 20
62.04583311119697
 30
0.0
 11
64.474370004796469
 21
62.109422223260879
 31
0.0
  0
POLYLINE
  5
3F45
  8
0
 66
     1
 10
0.0
 20
0.0
 30
0.0
  0
VERTEX
  5
5D8F
  8
0
 10
64.870621095015323
 20
61.278194407599273
 30
0.0
  0
VERTEX
  5
5D90
  8
0
 10
64.808784860274272
 20
61.407910134827112
 30
0.0
  0
VERTEX
  5
5D91
  8
0
 10
64.686152161355594
 20
61.665160431336197
 30
0.0
  0
VERTEX
  5
5D92
  8
0
 10
64.564852684310381
 20
61.919613988270271
 30
0.0
  0
VERTEX
  5
5D93
  8
0
 10
64.504683300991132
 20
62.04583311119697
 30
0.0
  0
SEQEND
  5
5D94
  8
0
  0
LINE
  5
3F47
  8
0
 10
64.172303155399447
 20
60.511339539006627
 30
0.0
 11
64.148802790777722
 21
60.577748905528999
 31
0.0
  0
POLYLINE
  5
3F48
  8
0
 66
     1
 10
0.0
 20
0.0
 30
0.0
  0
VERTEX
  5
5D95
  8
0
 10
64.455996209867465
 20
59.709655125285707
 30
0.0
  0
VERTEX
  5
5D96
  8
0
 10
64.408057706119052
 20
59.845123902779306
 30
0.0
  0
VERTEX
  5
5D97
  8
0
 10
64.312986780125641
 20
60.11378356281174
 30
0.0
  0
VERTEX
  5
5D98
  8
0
 10
64.218949433586772
 20
60.379522444467561
 30
0.0
  0
VERTEX
  5
5D99
  8
0
 10
64.172303155399447
 20
60.511339539006627
 30
0.0
  0
SEQEND
  5
5D9A
  8
0
  0
LINE
  5
3F4A
  8
0
 10
63.681345568027723
 20
59.019995269000837
 30
0.0
 11
63.664915609891409
 21
59.088497295065032
 31
0.0
  0
POLYLINE
  5
3F4B
  8
0
 66
     1
 10
0.0
 20
0.0
 30
0.0
  0
VERTEX
  5
5D9B
  8
0
 10
63.879685682468107
 20
58.193048567356669
 30
0.0
  0
VERTEX
  5
5D9C
  8
0
 10
63.846170133991329
 20
58.332786170840869
 30
0.0
  0
VERTEX
  5
5D9D
  8
0
 10
63.779702597883102
 20
58.609911702940963
 30
0.0
  0
VERTEX
  5
5D9E
  8
0
 10
63.713957674697838
 20
58.88402441852196
 30
0.0
  0
VERTEX
  5
5D9F
  8
0
 10
63.681345568027723
 20
59.019995269000809
 30
0.0
  0
SEQEND
  5
5DA0
  8
0
  0
LINE
  5
3F4D
  8
0
 10
63.037189572942573
 20
57.588139781085623
 30
0.0
 11
63.028010031351187
 21
57.657983944159092
 31
0.0
  0
POLYLINE
  5
3F4E
  8
0
 66
     1
 10
0.0
 20
0.0
 30
0.0
  0
VERTEX
  5
5DA1
  8
0
 10
63.148003691556312
 20
56.744990992631131
 30
0.0
  0
VERTEX
  5
5DA2
  8
0
 10
63.129278301713782
 20
56.887466427680181
 30
0.0
  0
VERTEX
  5
5DA3
  8
0
 10
63.09214238772563
 20
57.170021586525962
 30
0.0
  0
VERTEX
  5
5DA4
  8
0
 10
63.055410203030313
 20
57.449504899758438
 30
0.0
  0
VERTEX
  5
5DA5
  8
0
 10
63.037189572942573
 20
57.588139781085623
 30
0.0
  0
SEQEND
  5
5DA6
  8
0
  0
LINE
  5
3F50
  8
0
 10
62.246892678024551
 20
56.231460783621628
 30
0.0
 11
62.245064125956787
 21
56.301881856437923
 31
0.0
  0
POLYLINE
  5
3F51
  8
0
 66
     1
 10
0.0
 20
0.0
 30
0.0
  0
VERTEX
  5
5DA7
  8
0
 10
62.268966698138676
 20
55.381347622923357
 30
0.0
  0
VERTEX
  5
5DA8
  8
0
 10
62.26523662622003
 20
55.524999898856123
 30
0.0
  0
VERTEX
  5
5DA9
  8
0
 10
62.257839203196788
 20
55.809888950998669
 30
0.0
  0
VERTEX
  5
5DAA
  8
0
 10
62.250522202493812
 20
56.09168078421709
 30
0.0
  0
VERTEX
  5
5DAB
  8
0
 10
62.246892678024551
 20
56.231460783621628
 30
0.0
  0
SEQEND
  5
5DAC
  8
0
  0
LINE
  5
3F53
  8
0
 10
61.31911354143454
 20
54.964822335608403
 30
0.0
 11
61.324656012889527
 21
55.035048770157182
 31
0.0
  0
POLYLINE
  5
3F54
  8
0
 66
     1
 10
0.0
 20
0.0
 30
0.0
  0
VERTEX
  5
5DAD
  8
0
 10
61.25220561546552
 20
54.117058820352547
 30
0.0
  0
VERTEX
  5
5DAE
  8
0
 10
61.263511728919291
 20
54.260314052772799
 30
0.0
  0
VERTEX
  5
5DAF
  8
0
 10
61.285933844575652
 20
54.544415694140007
 30
0.0
  0
VERTEX
  5
5DB0
  8
0
 10
61.308112194455703
 20
54.825428677050809
 30
0.0
  0
VERTEX
  5
5DB1
  8
0
 10
61.31911354143454
 20
54.964822335608403
 30
0.0
  0
SEQEND
  5
5DB2
  8
0
  0
LINE
  5
3F56
  8
0
 10
60.264017105543417
 20
53.802101992943477
 30
0.0
 11
60.276869876043968
 21
53.871364373711998
 31
0.0
  0
POLYLINE
  5
3F57
  8
0
 66
     1
 10
0.0
 20
0.0
 30
0.0
  0
VERTEX
  5
5DB3
  8
0
 10
60.10886029072946
 20
52.965976397609118
 30
0.0
  0
VERTEX
  5
5DB4
  8
0
 10
60.135078717410693
 20
53.10726505221222
 30
0.0
  0
VERTEX
  5
5DB5
  8
0
 10
60.187074710355319
 20
53.38746660576922
 30
0.0
  0
VERTEX
  5
5DB6
  8
0
 10
60.238505420176118
 20
53.664621901326051
 30
0.0
  0
VERTEX
  5
5DB7
  8
0
 10
60.264017105543417
 20
53.802101992943477
 30
0.0
  0
SEQEND
  5
5DB8
  8
0
  0
LINE
  5
3F59
  8
0
 10
59.093163227695868
 20
52.756038763015987
 30
0.0
 11
59.113185479598769
 21
52.823578236866439
 31
0.0
  0
POLYLINE
  5
3F5A
  8
0
 66
     1
 10
0.0
 20
0.0
 30
0.0
  0
VERTEX
  5
5DB9
  8
0
 10
58.851457454568731
 20
51.940711854596167
 30
0.0
  0
VERTEX
  5
5DBA
  8
0
 10
58.892300939908182
 20
52.078485943315911
 30
0.0
  0
VERTEX
  5
5DBB
  8
0
 10
58.97330113116152
 20
52.351717462205862
 30
0.0
  0
VERTEX
  5
5DBC
  8
0
 10
59.053420715303673
 20
52.621978498991922
 30
0.0
  0
VERTEX
  5
5DBD
  8
0
 10
59.093163227695868
 20
52.756038763015987
 30
0.0
  0
SEQEND
  5
5DBE
  8
0
  0
LINE
  5
3F5C
  8
0
 10
57.819380027994491
 20
51.838093533475814
 30
0.0
 11
57.84635239331805
 21
51.903170123799178
 31
0.0
  0
POLYLINE
  5
3F5D
  8
0
 66
     1
 10
0.0
 20
0.0
 30
0.0
  0
VERTEX
  5
5DBF
  8
0
 10
57.49377347558476
 20
51.052498204197292
 30
0.0
  0
VERTEX
  5
5DC0
  8
0
 10
57.548794529809932
 20
51.185248245286481
 30
0.0
  0
VERTEX
  5
5DC1
  8
0
 10
57.657911464326268
 20
51.448516147811119
 30
0.0
  0
VERTEX
  5
5DC2
  8
0
 10
57.765842115859812
 20
51.708921889351757
 30
0.0
  0
VERTEX
  5
5DC3
  8
0
 10
57.819380027994491
 20
51.838093533475814
 30
0.0
  0
SEQEND
  5
5DC4
  8
0
  0
LINE
  5
3F5F
  8
0
 10
56.456623341731522
 20
51.05832350435022
 30
0.0
 11
56.490250305596881
 21
51.120224218404751
 31
0.0
  0
POLYLINE
  5
3F60
  8
0
 66
     1
 10
0.0
 20
0.0
 30
0.0
  0
VERTEX
  5
5DC5
  8
0
 10
56.050683423564919
 20
50.311066901036916
 30
0.0
  0
VERTEX
  5
5DC6
  8
0
 10
56.119279224491777
 20
50.43733845726539
 30
0.0
  0
VERTEX
  5
5DC7
  8
0
 10
56.255317394302431
 20
50.68775832519264
 30
0.0
  0
VERTEX
  5
5DC8
  8
0
 10
56.389876602423392
 20
50.935455711690388
 30
0.0
  0
VERTEX
  5
5DC9
  8
0
 10
56.456623341731522
 20
51.05832350435022
 30
0.0
  0
SEQEND
  5
5DCA
  8
0
  0
LINE
  5
3F62
  8
0
 10
55.019823816336782
 20
50.425271999255621
 30
0.0
 11
55.059736954690941
 21
50.483318639864592
 31
0.0
  0
POLYLINE
  5
3F63
  8
0
 66
     1
 10
0.0
 20
0.0
 30
0.0
  0
VERTEX
  5
5DCB
  8
0
 10
54.537998095105131
 20
49.724541221626993
 30
0.0
  0
VERTEX
  5
5DCC
  8
0
 10
54.619417092784261
 20
49.842950835401012
 30
0.0
  0
VERTEX
  5
5DCD
  8
0
 10
54.780886035232932
 20
50.0777790162538
 30
0.0
  0
VERTEX
  5
5DCE
  8
0
 10
54.94059954109855
 20
50.310054223307837
 30
0.0
  0
VERTEX
  5
5DCF
  8
0
 10
55.019823816336782
 20
50.425271999255642
 30
0.0
  0
SEQEND
  5
5DD0
  8
0
  0
LINE
  5
3F65
  8
0
 10
53.524723328080192
 20
49.945874862956423
 30
0.0
 11
53.570485344226938
 21
49.999431458978279
 31
0.0
  0
POLYLINE
  5
3F66
  8
0
 66
     1
 10
0.0
 20
0.0
 30
0.0
  0
VERTEX
  5
5DD1
  8
0
 10
52.972290787213858
 20
49.29934726404948
 30
0.0
  0
VERTEX
  5
5DD2
  8
0
 10
53.065640938068611
 20
49.408597614861691
 30
0.0
  0
VERTEX
  5
5DD3
  8
0
 10
53.250771565632192
 20
49.625261281949662
 30
0.0
  0
VERTEX
  5
5DD4
  8
0
 10
53.433889514650097
 20
49.839569453784833
 30
0.0
  0
VERTEX
  5
5DD5
  8
0
 10
53.524723328080192
 20
49.945874862956423
 30
0.0
  0
SEQEND
  5
5DD6
  8
0
  0
LINE
  5
3F68
  8
0
 10
51.987702510780927
 20
49.625384470798188
 30
0.0
 11
52.038812026495059
 21
49.673864244959482
 31
0.0
  0
POLYLINE
  5
3F69
  8
0
 66
     1
 10
0.0
 20
0.0
 30
0.0
  0
VERTEX
  5
5DD7
  8
0
 10
51.370715716801563
 20
49.040143542281179
 30
0.0
  0
VERTEX
  5
5DD8
  8
0
 10
51.47497425704433
 20
49.139037660425878
 30
0.0
  0
VERTEX
  5
5DD9
  8
0
 10
51.681738239826188
 20
49.335163001272583
 30
0.0
  0
VERTEX
  5
5DDA
  8
0
 10
51.886254353427091
 20
49.529156132711478
 30
0.0
  0
VERTEX
  5
5DDB
  8
0
 10
51.987702510780927
 20
49.625384470798217
 30
0.0
  0
SEQEND
  5
5DDC
  8
0
  0
LINE
  5
3F6B
  8
0
 10
50.425601286155661
 20
49.467312182584379
 30
0.0
 11
50.48149833488764
 21
49.510183980334318
 31
0.0
  0
POLYLINE
  5
3F6C
  8
0
 66
     1
 10
0.0
 20
0.0
 30
0.0
  0
VERTEX
  5
5DDD
  8
0
 10
49.750820075490878
 20
48.949769946539647
 30
0.0
  0
VERTEX
  5
5DDE
  8
0
 10
49.864844726737367
 20
49.037224327363617
 30
0.0
  0
VERTEX
  5
5DDF
  8
0
 10
50.09097671527411
 20
49.210662551692991
 30
0.0
  0
VERTEX
  5
5DE0
  8
0
 10
50.314650272119593
 20
49.382215213391838
 30
0.0
  0
VERTEX
  5
5DE1
  8
0
 10
50.425601286155661
 20
49.467312182584379
 30
0.0
  0
SEQEND
  5
5DE2
  8
0
  0
LINE
  5
3F6E
  8
0
 10
48.855534362112003
 20
49.47338987138334
 30
0.0
 11
48.915606524098791
 21
49.510183980334318
 31
0.0
  0
POLYLINE
  5
3F6F
  8
0
 66
     1
 10
0.0
 20
0.0
 30
0.0
  0
VERTEX
  5
5DE3
  8
0
 10
48.130351778912882
 20
49.029216628851692
 30
0.0
  0
VERTEX
  5
5DE4
  8
0
 10
48.252893263222802
 20
49.104273103857558
 30
0.0
  0
VERTEX
  5
5DE5
  8
0
 10
48.495915708126738
 20
49.253123986189529
 30
0.0
  0
VERTEX
  5
5DE6
  8
0
 10
48.736296093921389
 20
49.400356611287073
 30
0.0
  0
VERTEX
  5
5DE7
  8
0
 10
48.855534362112003
 20
49.473389871383368
 30
0.0
  0
SEQEND
  5
5DE8
  8
0
  0
LINE
  5
3F71
  8
0
 10
47.294703720427428
 20
49.64355094876484
 30
0.0
 11
47.358292832491372
 21
49.673864244959503
 31
0.0
  0
POLYLINE
  5
3F72
  8
0
 66
     1
 10
0.0
 20
0.0
 30
0.0
  0
VERTEX
  5
5DE9
  8
0
 10
46.527065016829788
 20
49.277613154740642
 30
0.0
  0
VERTEX
  5
5DEA
  8
0
 10
46.656780744057471
 20
49.339449389481643
 30
0.0
  0
VERTEX
  5
5DEB
  8
0
 10
46.914031040566613
 20
49.462082088400329
 30
0.0
  0
VERTEX
  5
5DEC
  8
0
 10
47.168484597500822
 20
49.58338156544562
 30
0.0
  0
VERTEX
  5
5DED
  8
0
 10
47.294703720427428
 20
49.64355094876484
 30
0.0
  0
SEQEND
  5
5DEE
  8
0
  0
LINE
  5
3F74
  8
0
 10
45.760210148237093
 20
49.975931094356518
 30
0.0
 11
45.8266195147595
 21
49.999431458978279
 31
0.0
  0
POLYLINE
  5
3F75
  8
0
 66
     1
 10
0.0
 20
0.0
 30
0.0
  0
VERTEX
  5
5DEF
  8
0
 10
44.958525734516229
 20
49.692238039888501
 30
0.0
  0
VERTEX
  5
5DF0
  8
0
 10
45.093994512009601
 20
49.740176543636863
 30
0.0
  0
VERTEX
  5
5DF1
  8
0
 10
45.362654172042141
 20
49.83524746963031
 30
0.0
  0
VERTEX
  5
5DF2
  8
0
 10
45.628393053698233
 20
49.929284816169229
 30
0.0
  0
VERTEX
  5
5DF3
  8
0
 10
45.760210148237093
 20
49.975931094356518
 30
0.0
  0
SEQEND
  5
5DF4
  8
0
  0
LINE
  5
3F77
  8
0
 10
44.268865878231331
 20
50.466888681728307
 30
0.0
 11
44.337367904295547
 21
50.483318639864621
 31
0.0
  0
POLYLINE
  5
3F78
  8
0
 66
     1
 10
0.0
 20
0.0
 30
0.0
  0
VERTEX
  5
5DF5
  8
0
 10
43.441919176587128
 20
50.268548567287837
 30
0.0
  0
VERTEX
  5
5DF6
  8
0
 10
43.581656780071278
 20
50.302064115764637
 30
0.0
  0
VERTEX
  5
5DF7
  8
0
 10
43.858782312171343
 20
50.368531651872843
 30
0.0
  0
VERTEX
  5
5DF8
  8
0
 10
44.132895027752511
 20
50.434276575058163
 30
0.0
  0
VERTEX
  5
5DF9
  8
0
 10
44.268865878231331
 20
50.466888681728307
 30
0.0
  0
SEQEND
  5
5DFA
  8
0
  0
LINE
  5
3F7A
  8
0
 10
42.837010390316088
 20
51.111044676813428
 30
0.0
 11
42.906854553389607
 21
51.120224218404751
 31
0.0
  0
POLYLINE
  5
3F7B
  8
0
 66
     1
 10
0.0
 20
0.0
 30
0.0
  0
VERTEX
  5
5DFB
  8
0
 10
41.993861601861667
 20
51.000230558199661
 30
0.0
  0
VERTEX
  5
5DFC
  8
0
 10
42.136337036910788
 20
51.018955948042219
 30
0.0
  0
VERTEX
  5
5DFD
  8
0
 10
42.418892195756541
 20
51.056091862030371
 30
0.0
  0
VERTEX
  5
5DFE
  8
0
 10
42.698375508988981
 20
51.092824046725639
 30
0.0
  0
VERTEX
  5
5DFF
  8
0
 10
42.837010390316088
 20
51.111044676813428
 30
0.0
  0
SEQEND
  5
5E00
  8
0
  0
LINE
  5
3F7D
  8
0
 10
41.480331392852122
 20
51.90134157173145
 30
0.0
 11
41.550752465668438
 21
51.903170123799207
 31
0.0
  0
POLYLINE
  5
3F7E
  8
0
 66
     1
 10
0.0
 20
0.0
 30
0.0
  0
VERTEX
  5
5E01
  8
0
 10
40.630218232153879
 20
51.879267551617261
 30
0.0
  0
VERTEX
  5
5E02
  8
0
 10
40.773870508086588
 20
51.882997623535907
 30
0.0
  0
VERTEX
  5
5E03
  8
0
 10
41.058759560229191
 20
51.890395046559149
 30
0.0
  0
VERTEX
  5
5E04
  8
0
 10
41.34055139344764
 20
51.897712047262161
 30
0.0
  0
VERTEX
  5
5E05
  8
0
 10
41.480331392852122
 20
51.90134157173145
 30
0.0
  0
SEQEND
  5
5E06
  8
0
  0
LINE
  5
3F80
  8
0
 10
40.21369294483889
 20
52.829120708321433
 30
0.0
 11
40.283919379387719
 21
52.823578236866467
 31
0.0
  0
POLYLINE
  5
3F81
  8
0
 66
     1
 10
0.0
 20
0.0
 30
0.0
  0
VERTEX
  5
5E07
  8
0
 10
39.365929429583048
 20
52.896028634290452
 30
0.0
  0
VERTEX
  5
5E08
  8
0
 10
39.509184662003413
 20
52.884722520836682
 30
0.0
  0
VERTEX
  5
5E09
  8
0
 10
39.793286303370451
 20
52.862300405180378
 30
0.0
  0
VERTEX
  5
5E0A
  8
0
 10
40.074299286281189
 20
52.84012205530027
 30
0.0
  0
VERTEX
  5
5E0B
  8
0
 10
40.21369294483889
 20
52.829120708321433
 30
0.0
  0
SEQEND
  5
5E0C
  8
0
  0
LINE
  5
3F83
  8
0
 10
39.050972602173943
 20
53.884217144212549
 30
0.0
 11
39.12023498294252
 21
53.871364373711998
 31
0.0
  0
POLYLINE
  5
3F84
  8
0
 66
     1
 10
0.0
 20
0.0
 30
0.0
  0
VERTEX
  5
5E0D
  8
0
 10
38.214847006839648
 20
54.039373959026513
 30
0.0
  0
VERTEX
  5
5E0E
  8
0
 10
38.35613566144287
 20
54.01315553234528
 30
0.0
  0
VERTEX
  5
5E0F
  8
0
 10
38.636337214999799
 20
53.961159539400647
 30
0.0
  0
VERTEX
  5
5E10
  8
0
 10
38.913492510556473
 20
53.909728829579848
 30
0.0
  0
VERTEX
  5
5E11
  8
0
 10
39.050972602173943
 20
53.884217144212549
 30
0.0
  0
SEQEND
  5
5E12
  8
0
  0
LINE
  5
3F86
  8
0
 10
38.004909372246509
 20
55.05507102206014
 30
0.0
 11
38.072448846097018
 21
55.035048770157182
 31
0.0
  0
POLYLINE
  5
3F87
  8
0
 66
     1
 10
0.0
 20
0.0
 30
0.0
  0
VERTEX
  5
5E13
  8
0
 10
37.189582463826703
 20
55.296776795187242
 30
0.0
  0
VERTEX
  5
5E14
  8
0
 10
37.327356552546242
 20
55.255933309847869
 30
0.0
  0
VERTEX
  5
5E15
  8
0
 10
37.600588071436391
 20
55.174933118594481
 30
0.0
  0
VERTEX
  5
5E16
  8
0
 10
37.870849108222622
 20
55.094813534452243
 30
0.0
  0
VERTEX
  5
5E17
  8
0
 10
38.004909372246509
 20
55.05507102206014
 30
0.0
  0
SEQEND
  5
5E18
  8
0
  0
LINE
  5
3F89
  8
0
 10
37.086964142706343
 20
56.328854221761482
 30
0.0
 11
37.152040733029708
 21
56.301881856437937
 31
0.0
  0
POLYLINE
  5
3F8A
  8
0
 66
     1
 10
0.0
 20
0.0
 30
0.0
  0
VERTEX
  5
5E19
  8
0
 10
36.301368813427757
 20
56.654460774171241
 30
0.0
  0
VERTEX
  5
5E1A
  8
0
 10
36.434118854516903
 20
56.599439719946069
 30
0.0
  0
VERTEX
  5
5E1B
  8
0
 10
36.697386757041727
 20
56.490322785429697
 30
0.0
  0
VERTEX
  5
5E1C
  8
0
 10
36.957792498582421
 20
56.382392133896097
 30
0.0
  0
VERTEX
  5
5E1D
  8
0
 10
37.086964142706343
 20
56.328854221761482
 30
0.0
  0
SEQEND
  5
5E1E
  8
0
  0
LINE
  5
3F8C
  8
0
 10
36.307194113580749
 20
57.691610908024472
 30
0.0
 11
36.369094827635308
 21
57.657983944159128
 31
0.0
  0
POLYLINE
  5
3F8D
  8
0
 66
     1
 10
0.0
 20
0.0
 30
0.0
  0
VERTEX
  5
5E1F
  8
0
 10
35.559937510267453
 20
58.097550826191053
 30
0.0
  0
VERTEX
  5
5E20
  8
0
 10
35.686209066496083
 20
58.028955025264139
 30
0.0
  0
VERTEX
  5
5E21
  8
0
 10
35.93662893442314
 20
57.892916855453556
 30
0.0
  0
VERTEX
  5
5E22
  8
0
 10
36.184326320920718
 20
57.758357647332723
 30
0.0
  0
VERTEX
  5
5E23
  8
0
 10
36.307194113580749
 20
57.691610908024472
 30
0.0
  0
SEQEND
  5
5E24
  8
0
  0
LINE
  5
3F8F
  8
0
 10
35.674142608486143
 20
59.128410433419191
 30
0.0
 11
35.732189249095143
 21
59.088497295065054
 31
0.0
  0
POLYLINE
  5
3F90
  8
0
 66
     1
 10
0.0
 20
0.0
 30
0.0
  0
VERTEX
  5
5E25
  8
0
 10
34.973411830857508
 20
59.610236154650799
 30
0.0
  0
VERTEX
  5
5E26
  8
0
 10
35.091821444631478
 20
59.528817156971712
 30
0.0
  0
VERTEX
  5
5E27
  8
0
 10
35.326649625484272
 20
59.367348214523133
 30
0.0
  0
VERTEX
  5
5E28
  8
0
 10
35.55892483253831
 20
59.20763470865748
 30
0.0
  0
VERTEX
  5
5E29
  8
0
 10
35.674142608486143
 20
59.128410433419191
 30
0.0
  0
SEQEND
  5
5E2A
  8
0
  0
LINE
  5
3F92
  8
0
 10
35.194745472186924
 20
60.623510921675781
 30
0.0
 11
35.248302068208773
 21
60.577748905529027
 31
0.0
  0
POLYLINE
  5
3F93
  8
0
 66
     1
 10
0.0
 20
0.0
 30
0.0
  0
VERTEX
  5
5E2B
  8
0
 10
34.548217873280009
 20
61.175943462542143
 30
0.0
  0
VERTEX
  5
5E2C
  8
0
 10
34.657468224092163
 20
61.082593311687418
 30
0.0
  0
VERTEX
  5
5E2D
  8
0
 10
34.874131891180191
 20
60.897462684123781
 30
0.0
  0
VERTEX
  5
5E2E
  8
0
 10
35.088440063015412
 20
60.714344735105783
 30
0.0
  0
VERTEX
  5
5E2F
  8
0
 10
35.194745472186924
 20
60.623510921675781
 30
0.0
  0
SEQEND
  5
5E30
  8
0
  0
LINE
  5
3F95
  8
0
 10
34.874255080028718
 20
62.160531738975038
 30
0.0
 11
34.922734854190033
 21
62.109422223260879
 31
0.0
  0
POLYLINE
  5
3F96
  8
0
 66
     1
 10
0.0
 20
0.0
 30
0.0
  0
VERTEX
  5
5E31
  8
0
 10
34.289014151511708
 20
62.77751853295441
 30
0.0
  0
VERTEX
  5
5E32
  8
0
 10
34.387908269656407
 20
62.673259992711621
 30
0.0
  0
VERTEX
  5
5E33
  8
0
 10
34.584033610503241
 20
62.466496009929671
 30
0.0
  0
VERTEX
  5
5E34
  8
0
 10
34.778026741942142
 20
62.261979896328711
 30
0.0
  0
VERTEX
  5
5E35
  8
0
 10
34.874255080028718
 20
62.160531738975038
 30
0.0
  0
SEQEND
  5
5E36
  8
0
  0
LINE
  5
3F98
  8
0
 10
34.716182791814902
 20
63.722632963600347
 30
0.0
 11
34.759054589564812
 21
63.666735914868291
 31
0.0
  0
POLYLINE
  5
3F99
  8
0
 66
     1
 10
0.0
 20
0.0
 30
0.0
  0
VERTEX
  5
5E37
  8
0
 10
34.198640555770169
 20
64.397414174265123
 30
0.0
  0
VERTEX
  5
5E38
  8
0
 10
34.286094936594218
 20
64.283389523018514
 30
0.0
  0
VERTEX
  5
5E39
  8
0
 10
34.45953316092357
 20
64.057257534481892
 30
0.0
  0
VERTEX
  5
5E3A
  8
0
 10
34.631085822622261
 20
63.833583977636494
 30
0.0
  0
VERTEX
  5
5E3B
  8
0
 10
34.716182791814902
 20
63.722632963600347
 30
0.0
  0
SEQEND
  5
5E3C
  8
0
  0
LINE
  5
3F9B
  8
0
 10
34.722260480613841
 20
65.292699887643977
 30
0.0
 11
34.759054589564812
 21
65.232627725657153
 31
0.0
  0
POLYLINE
  5
3F9C
  8
0
 66
     1
 10
0.0
 20
0.0
 30
0.0
  0
VERTEX
  5
5E3D
  8
0
 10
34.278087238082207
 20
66.017882470843091
 30
0.0
  0
VERTEX
  5
5E3E
  8
0
 10
34.353143713088123
 20
65.895340986533142
 30
0.0
  0
VERTEX
  5
5E3F
  8
0
 10
34.501994595420001
 20
65.652318541629228
 30
0.0
  0
VERTEX
  5
5E40
  8
0
 10
34.64922722051756
 20
65.411938155834633
 30
0.0
  0
VERTEX
  5
5E41
  8
0
 10
34.722260480613841
 20
65.292699887643977
 30
0.0
  0
SEQEND
  5
5E42
  8
0
  0
LINE
  5
3F9E
  8
0
 10
34.892421557995362
 20
66.853530529328523
 30
0.0
 11
34.922734854190033
 21
66.789941417264572
 31
0.0
  0
POLYLINE
  5
3F9F
  8
0
 66
     1
 10
0.0
 20
0.0
 30
0.0
  0
VERTEX
  5
5E43
  8
0
 10
34.526483763971157
 20
67.621169232926178
 30
0.0
  0
VERTEX
  5
5E44
  8
0
 10
34.588319998712223
 20
67.491453505698274
 30
0.0
  0
VERTEX
  5
5E45
  8
0
 10
34.710952697630887
 20
67.234203209189303
 30
0.0
  0
VERTEX
  5
5E46
  8
0
 10
34.832252174676057
 20
66.979749652255293
 30
0.0
  0
VERTEX
  5
5E47
  8
0
 10
34.892421557995362
 20
66.853530529328523
 30
0.0
  0
SEQEND
  5
5E48
  8
0
  0
LINE
  5
3FA1
  8
0
 10
35.224801703587048
 20
68.388024101518852
 30
0.0
 11
35.248302068208829
 21
68.321614734996416
 31
0.0
  0
POLYLINE
  5
3FA2
  8
0
 66
     1
 10
0.0
 20
0.0
 30
0.0
  0
VERTEX
  5
5E49
  8
0
 10
34.94110864911903
 20
69.189708515239744
 30
0.0
  0
VERTEX
  5
5E4A
  8
0
 10
34.989047152867442
 20
69.054239737746315
 30
0.0
  0
VERTEX
  5
5E4B
  8
0
 10
35.084118078860911
 20
68.785580077713703
 30
0.0
  0
VERTEX
  5
5E4C
  8
0
 10
35.17815542539978
 20
68.51984119605774
 30
0.0
  0
VERTEX
  5
5E4D
  8
0
 10
35.224801703587048
 20
68.388024101518852
 30
0.0
  0
SEQEND
  5
5E4E
  8
0
  0
LINE
  5
3FA4
  8
0
 10
35.715759290958829
 20
69.879368371524635
 30
0.0
 11
35.732189249095143
 21
69.810866345460397
 31
0.0
  0
POLYLINE
  5
3FA5
  8
0
 66
     1
 10
0.0
 20
0.0
 30
0.0
  0
VERTEX
  5
5E4F
  8
0
 10
35.517419176518388
 20
70.70631507316881
 30
0.0
  0
VERTEX
  5
5E50
  8
0
 10
35.550934724995159
 20
70.566577469684603
 30
0.0
  0
VERTEX
  5
5E51
  8
0
 10
35.6174022611034
 20
70.289451937584516
 30
0.0
  0
VERTEX
  5
5E52
  8
0
 10
35.683147184288657
 20
70.015339222003504
 30
0.0
  0
VERTEX
  5
5E53
  8
0
 10
35.715759290958829
 20
69.879368371524635
 30
0.0
  0
SEQEND
  5
5E54
  8
0
  0
LINE
  5
3FA7
  8
0
 10
36.359915286043929
 20
71.311223859439849
 30
0.0
 11
36.369094827635308
 21
71.241379696366323
 31
0.0
  0
POLYLINE
  5
3FA8
  8
0
 66
     1
 10
0.0
 20
0.0
 30
0.0
  0
VERTEX
  5
5E55
  8
0
 10
36.24910116743019
 20
72.15437264789432
 30
0.0
  0
VERTEX
  5
5E56
  8
0
 10
36.26782655727277
 20
72.011897212845156
 30
0.0
  0
VERTEX
  5
5E57
  8
0
 10
36.304962471260872
 20
71.729342053999517
 30
0.0
  0
VERTEX
  5
5E58
  8
0
 10
36.34169465595614
 20
71.449858740767155
 30
0.0
  0
VERTEX
  5
5E59
  8
0
 10
36.359915286043929
 20
71.311223859439849
 30
0.0
  0
SEQEND
  5
5E5A
  8
0
  0
LINE
  5
3FAA
  8
0
 10
37.150212180962001
 20
72.667902856903851
 30
0.0
 11
37.152040733029708
 21
72.597481784087506
 31
0.0
  0
POLYLINE
  5
3FAB
  8
0
 66
     1
 10
0.0
 20
0.0
 30
0.0
  0
VERTEX
  5
5E5B
  8
0
 10
37.128138160847811
 20
73.518016017602093
 30
0.0
  0
VERTEX
  5
5E5C
  8
0
 10
37.131868232766472
 20
73.374363741669299
 30
0.0
  0
VERTEX
  5
5E5D
  8
0
 10
37.1392656557897
 20
73.089474689526753
 30
0.0
  0
VERTEX
  5
5E5E
  8
0
 10
37.146582656492683
 20
72.807682856308389
 30
0.0
  0
VERTEX
  5
5E5F
  8
0
 10
37.150212180962001
 20
72.667902856903851
 30
0.0
  0
SEQEND
  5
5E60
  8
0
  0
LINE
  5
3FAD
  8
0
 10
38.077991317551948
 20
73.934541304917076
 30
0.0
 11
38.072448846097018
 21
73.864314870368275
 31
0.0
  0
POLYLINE
  5
3FAE
  8
0
 66
     1
 10
0.0
 20
0.0
 30
0.0
  0
VERTEX
  5
5E61
  8
0
 10
38.144899243520968
 20
74.782304820172925
 30
0.0
  0
VERTEX
  5
5E62
  8
0
 10
38.133593130067197
 20
74.639049587752851
 30
0.0
  0
VERTEX
  5
5E63
  8
0
 10
38.1111710144109
 20
74.354947946385494
 30
0.0
  0
VERTEX
  5
5E64
  8
0
 10
38.088992664530792
 20
74.073934963474514
 30
0.0
  0
VERTEX
  5
5E65
  8
0
 10
38.077991317551948
 20
73.934541304917076
 30
0.0
  0
SEQEND
  5
5E66
  8
0
  0
LINE
  5
3FB0
  8
0
 10
39.133087753443078
 20
75.097261647582002
 30
0.0
 11
39.12023498294252
 21
75.027999266813453
 31
0.0
  0
POLYLINE
  5
3FB1
  8
0
 66
     1
 10
0.0
 20
0.0
 30
0.0
  0
VERTEX
  5
5E67
  8
0
 10
39.288244568257028
 20
75.933387242916325
 30
0.0
  0
VERTEX
  5
5E68
  8
0
 10
39.262026141575802
 20
75.792098588313024
 30
0.0
  0
VERTEX
  5
5E69
  8
0
 10
39.210030148631169
 20
75.511897034756146
 30
0.0
  0
VERTEX
  5
5E6A
  8
0
 10
39.15859943881037
 20
75.234741739199507
 30
0.0
  0
VERTEX
  5
5E6B
  8
0
 10
39.133087753443078
 20
75.097261647581973
 30
0.0
  0
SEQEND
  5
5E6C
  8
0
  0
LINE
  5
3FB3
  8
0
 10
40.30394163129062
 20
76.143324877509485
 30
0.0
 11
40.283919379387719
 21
76.075785403658983
 31
0.0
  0
POLYLINE
  5
3FB4
  8
0
 66
     1
 10
0.0
 20
0.0
 30
0.0
  0
VERTEX
  5
5E6D
  8
0
 10
40.545647404417757
 20
76.958651785929277
 30
0.0
  0
VERTEX
  5
5E6E
  8
0
 10
40.50480391907837
 20
76.820877697209568
 30
0.0
  0
VERTEX
  5
5E6F
  8
0
 10
40.423803727824968
 20
76.547646178319496
 30
0.0
  0
VERTEX
  5
5E70
  8
0
 10
40.343684143682822
 20
76.277385141533415
 30
0.0
  0
VERTEX
  5
5E71
  8
0
 10
40.30394163129062
 20
76.143324877509485
 30
0.0
  0
SEQEND
  5
5E72
  8
0
  0
LINE
  5
3FB6
  8
0
 10
41.577724830991997
 20
77.061270107049637
 30
0.0
 11
41.550752465668438
 21
76.996193516726237
 31
0.0
  0
POLYLINE
  5
3FB7
  8
0
 66
     1
 10
0.0
 20
0.0
 30
0.0
  0
VERTEX
  5
5E73
  8
0
 10
41.903331383401792
 20
77.846865436328144
 30
0.0
  0
VERTEX
  5
5E74
  8
0
 10
41.848310329176627
 20
77.714115395239133
 30
0.0
  0
VERTEX
  5
5E75
  8
0
 10
41.739193394660219
 20
77.450847492714274
 30
0.0
  0
VERTEX
  5
5E76
  8
0
 10
41.631262743126619
 20
77.190441751173495
 30
0.0
  0
VERTEX
  5
5E77
  8
0
 10
41.577724830991997
 20
77.061270107049637
 30
0.0
  0
SEQEND
  5
5E78
  8
0
  0
LINE
  5
3FB9
  8
0
 10
42.940481517254973
 20
77.841040136175224
 30
0.0
 11
42.906854553389607
 21
77.779139422120664
 31
0.0
  0
POLYLINE
  5
3FBA
  8
0
 66
     1
 10
0.0
 20
0.0
 30
0.0
  0
VERTEX
  5
5E79
  8
0
 10
43.346421435421568
 20
78.588296739488527
 30
0.0
  0
VERTEX
  5
5E7A
  8
0
 10
43.277825634494661
 20
78.462025183259954
 30
0.0
  0
VERTEX
  5
5E7B
  8
0
 10
43.141787464684057
 20
78.211605315332775
 30
0.0
  0
VERTEX
  5
5E7C
  8
0
 10
43.007228256563167
 20
77.96390792883517
 30
0.0
  0
VERTEX
  5
5E7D
  8
0
 10
42.940481517254973
 20
77.841040136175224
 30
0.0
  0
SEQEND
  5
5E7E
  8
0
  0
LINE
  5
3FBC
  8
0
 10
44.377281042649713
 20
78.474091641269837
 30
0.0
 11
44.337367904295547
 21
78.41604500066083
 31
0.0
  0
POLYLINE
  5
3FBD
  8
0
 66
     1
 10
0.0
 20
0.0
 30
0.0
  0
VERTEX
  5
5E7F
  8
0
 10
44.859106763881357
 20
79.174822418898458
 30
0.0
  0
VERTEX
  5
5E80
  8
0
 10
44.777687766202227
 20
79.056412805124396
 30
0.0
  0
VERTEX
  5
5E81
  8
0
 10
44.616218823753627
 20
78.821584624271651
 30
0.0
  0
VERTEX
  5
5E82
  8
0
 10
44.456505317887938
 20
78.589309417217663
 30
0.0
  0
VERTEX
  5
5E83
  8
0
 10
44.377281042649713
 20
78.474091641269837
 30
0.0
  0
SEQEND
  5
5E84
  8
0
  0
LINE
  5
3FBF
  8
0
 10
45.872381530906303
 20
78.953488777569021
 30
0.0
 11
45.82661951475955
 21
78.899932181547143
 31
0.0
  0
POLYLINE
  5
3FC0
  8
0
 66
     1
 10
0.0
 20
0.0
 30
0.0
  0
VERTEX
  5
5E85
  8
0
 10
46.42481407177263
 20
79.600016376475963
 30
0.0
  0
VERTEX
  5
5E86
  8
0
 10
46.331463920917876
 20
79.490766025663731
 30
0.0
  0
VERTEX
  5
5E87
  8
0
 10
46.146333293354353
 20
79.274102358575846
 30
0.0
  0
VERTEX
  5
5E88
  8
0
 10
45.963215344336497
 20
79.059794186740731
 30
0.0
  0
VERTEX
  5
5E89
  8
0
 10
45.872381530906303
 20
78.953488777569021
 30
0.0
  0
SEQEND
  5
5E8A
  8
0
  0
LINE
  5
3FC2
  8
0
 10
47.40940234820556
 20
79.273979169727255
 30
0.0
 11
47.358292832491429
 21
79.225499395565947
 31
0.0
  0
POLYLINE
  5
3FC3
  8
0
 66
     1
 10
0.0
 20
0.0
 30
0.0
  0
VERTEX
  5
5E8B
  8
0
 10
48.026389142184939
 20
79.859220098244265
 30
0.0
  0
VERTEX
  5
5E8C
  8
0
 10
47.922130601942058
 20
79.760325980099481
 30
0.0
  0
VERTEX
  5
5E8D
  8
0
 10
47.715366619160193
 20
79.564200639252732
 30
0.0
  0
VERTEX
  5
5E8E
  8
0
 10
47.510850505559347
 20
79.370207507813888
 30
0.0
  0
VERTEX
  5
5E8F
  8
0
 10
47.40940234820556
 20
79.273979169727255
 30
0.0
  0
SEQEND
  5
5E90
  8
0
  0
LINE
  5
4000
  8
0
 10
48.971503572830777
 20
79.432051457941071
 30
0.0
 11
48.915606524098727
 21
79.389179660191132
 31
0.0
  0
POLYLINE
  5
4001
  8
0
 66
     1
 10
0.0
 20
0.0
 30
0.0
  0
VERTEX
  5
5E91
  8
0
 10
49.646284783495616
 20
79.949593693985804
 30
0.0
  0
VERTEX
  5
5E92
  8
0
 10
49.532260132249007
 20
79.862139313161805
 30
0.0
  0
VERTEX
  5
5E93
  8
0
 10
49.306128143712378
 20
79.68870108883246
 30
0.0
  0
VERTEX
  5
5E94
  8
0
 10
49.082454586866959
 20
79.517148427133691
 30
0.0
  0
VERTEX
  5
5E95
  8
0
 10
48.971503572830777
 20
79.432051457941071
 30
0.0
  0
SEQEND
  5
5E96
  8
0
  0
POLYLINE
  5
4002
  8
0
 66
     1
 10
0.0
 20
0.0
 30
0.0
  0
VERTEX
  5
5E97
  8
0
 10
50.425601286155711
 20
79.432051457941071
 30
0.0
  0
VERTEX
  5
5E98
  8
0
 10
50.314650272119543
 20
79.517148427133691
 30
0.0
  0
VERTEX
  5
5E99
  8
0
 10
50.09097671527411
 20
79.68870108883246
 30
0.0
  0
VERTEX
  5
5E9A
  8
0
 10
49.864844726737481
 20
79.862139313161776
 30
0.0
  0
VERTEX
  5
5E9B
  8
0
 10
49.750820075490878
 20
79.949593693985804
 30
0.0
  0
SEQEND
  5
5E9C
  8
0
  0
LINE
  5
4003
  8
0
 10
50.481498334887704
 20
79.389179660191161
 30
0.0
 11
50.425601286155711
 21
79.432051457941071
 31
0.0
  0
POLYLINE
  5
4005
  8
0
 66
     1
 10
0.0
 20
0.0
 30
0.0
  0
VERTEX
  5
5E9D
  8
0
 10
51.987702510780991
 20
79.273979169727227
 30
0.0
  0
VERTEX
  5
5E9E
  8
0
 10
51.886254353427091
 20
79.370207507814001
 30
0.0
  0
VERTEX
  5
5E9F
  8
0
 10
51.681738239826359
 20
79.564200639252732
 30
0.0
  0
VERTEX
  5
5EA0
  8
0
 10
51.474974257044551
 20
79.760325980099367
 30
0.0
  0
VERTEX
  5
5EA1
  8
0
 10
51.370715716801612
 20
79.859220098244265
 30
0.0
  0
SEQEND
  5
5EA2
  8
0
  0
LINE
  5
4006
  8
0
 10
52.038812026495123
 20
79.225499395566004
 30
0.0
 11
51.987702510780991
 21
79.273979169727227
 31
0.0
  0
POLYLINE
  5
4007
  8
0
 66
     1
 10
0.0
 20
0.0
 30
0.0
  0
VERTEX
  5
5EA3
  8
0
 10
53.524723328080263
 20
78.953488777568992
 30
0.0
  0
VERTEX
  5
5EA4
  8
0
 10
53.433889514650097
 20
79.059794186740646
 30
0.0
  0
VERTEX
  5
5EA5
  8
0
 10
53.250771565632192
 20
79.274102358575774
 30
0.0
  0
VERTEX
  5
5EA6
  8
0
 10
53.065640938068661
 20
79.49076602566376
 30
0.0
  0
VERTEX
  5
5EA7
  8
0
 10
52.972290787213858
 20
79.600016376475963
 30
0.0
  0
SEQEND
  5
5EA8
  8
0
  0
LINE
  5
4008
  8
0
 10
53.570485344226938
 20
78.8999321815472
 30
0.0
 11
53.524723328080263
 21
78.953488777568992
 31
0.0
  0
POLYLINE
  5
4009
  8
0
 66
     1
 10
0.0
 20
0.0
 30
0.0
  0
VERTEX
  5
5EA9
  8
0
 10
55.019823816336839
 20
78.474091641269808
 30
0.0
  0
VERTEX
  5
5EAA
  8
0
 10
54.940599541098607
 20
78.589309417217606
 30
0.0
  0
VERTEX
  5
5EAB
  8
0
 10
54.780886035232982
 20
78.821584624271594
 30
0.0
  0
VERTEX
  5
5EAC
  8
0
 10
54.61941709278431
 20
79.056412805124381
 30
0.0
  0
VERTEX
  5
5EAD
  8
0
 10
54.537998095105202
 20
79.174822418898458
 30
0.0
  0
SEQEND
  5
5EAE
  8
0
  0
LINE
  5
400A
  8
0
 10
55.059736954690941
 20
78.416045000660858
 30
0.0
 11
55.019823816336839
 21
78.474091641269808
 31
0.0
  0
POLYLINE
  5
400B
  8
0
 66
     1
 10
0.0
 20
0.0
 30
0.0
  0
VERTEX
  5
5EAF
  8
0
 10
56.456623341731522
 20
77.841040136175224
 30
0.0
  0
VERTEX
  5
5EB0
  8
0
 10
56.389876602423271
 20
77.963907928835312
 30
0.0
  0
VERTEX
  5
5EB1
  8
0
 10
56.255317394302431
 20
78.211605315332832
 30
0.0
  0
VERTEX
  5
5EB2
  8
0
 10
56.119279224491891
 20
78.462025183259811
 30
0.0
  0
VERTEX
  5
5EB3
  8
0
 10
56.050683423564919
 20
78.588296739488499
 30
0.0
  0
SEQEND
  5
5EB4
  8
0
  0
LINE
  5
400C
  8
0
 10
56.490250305596881
 20
77.779139422120721
 30
0.0
 11
56.456623341731522
 21
77.841040136175224
 31
0.0
  0
POLYLINE
  5
400D
  8
0
 66
     1
 10
0.0
 20
0.0
 30
0.0
  0
VERTEX
  5
5EB5
  8
0
 10
57.819380027994491
 20
77.061270107049594
 30
0.0
  0
VERTEX
  5
5EB6
  8
0
 10
57.765842115859982
 20
77.190441751173381
 30
0.0
  0
VERTEX
  5
5EB7
  8
0
 10
57.657911464326268
 20
77.450847492714217
 30
0.0
  0
VERTEX
  5
5EB8
  8
0
 10
57.548794529809861
 20
77.714115395239162
 30
0.0
  0
VERTEX
  5
5EB9
  8
0
 10
57.49377347558476
 20
77.846865436328144
 30
0.0
  0
SEQEND
  5
5EBA
  8
0
  0
LINE
  5
400E
  8
0
 10
57.84635239331805
 20
76.996193516726265
 30
0.0
 11
57.819380027994491
 21
77.061270107049594
 31
0.0
  0
POLYLINE
  5
400F
  8
0
 66
     1
 10
0.0
 20
0.0
 30
0.0
  0
VERTEX
  5
5EBB
  8
0
 10
59.093163227695868
 20
76.143324877509457
 30
0.0
  0
VERTEX
  5
5EBC
  8
0
 10
59.053420715303673
 20
76.277385141533472
 30
0.0
  0
VERTEX
  5
5EBD
  8
0
 10
58.97330113116152
 20
76.547646178319638
 30
0.0
  0
VERTEX
  5
5EBE
  8
0
 10
58.892300939908118
 20
76.820877697209625
 30
0.0
  0
VERTEX
  5
5EBF
  8
0
 10
58.851457454568731
 20
76.958651785929277
 30
0.0
  0
SEQEND
  5
5EC0
  8
0
  0
LINE
  5
4010
  8
0
 10
59.113185479598833
 20
76.075785403659012
 30
0.0
 11
59.093163227695868
 21
76.143324877509457
 31
0.0
  0
POLYLINE
  5
4011
  8
0
 66
     1
 10
0.0
 20
0.0
 30
0.0
  0
VERTEX
  5
5EC1
  8
0
 10
60.264017105543417
 20
75.097261647581973
 30
0.0
  0
VERTEX
  5
5EC2
  8
0
 10
60.238505420176182
 20
75.234741739199279
 30
0.0
  0
VERTEX
  5
5EC3
  8
0
 10
60.187074710355319
 20
75.511897034756259
 30
0.0
  0
VERTEX
  5
5EC4
  8
0
 10
60.135078717410693
 20
75.792098588313337
 30
0.0
  0
VERTEX
  5
5EC5
  8
0
 10
60.10886029072946
 20
75.933387242916297
 30
0.0
  0
SEQEND
  5
5EC6
  8
0
  0
LINE
  5
4012
  8
0
 10
60.276869876043968
 20
75.027999266813481
 30
0.0
 11
60.264017105543417
 21
75.097261647581973
 31
0.0
  0
POLYLINE
  5
4013
  8
0
 66
     1
 10
0.0
 20
0.0
 30
0.0
  0
VERTEX
  5
5EC7
  8
0
 10
61.319113541434596
 20
73.934541304917033
 30
0.0
  0
VERTEX
  5
5EC8
  8
0
 10
61.308112194455752
 20
74.073934963474557
 30
0.0
  0
VERTEX
  5
5EC9
  8
0
 10
61.285933844575652
 20
74.354947946385437
 30
0.0
  0
VERTEX
  5
5ECA
  8
0
 10
61.263511728919291
 20
74.639049587752723
 30
0.0
  0
VERTEX
  5
5ECB
  8
0
 10
61.25220561546552
 20
74.782304820172868
 30
0.0
  0
SEQEND
  5
5ECC
  8
0
  0
LINE
  5
4014
  8
0
 10
61.324656012889527
 20
73.864314870368304
 30
0.0
 11
61.319113541434596
 21
73.934541304917033
 31
0.0
  0
POLYLINE
  5
4015
  8
0
 66
     1
 10
0.0
 20
0.0
 30
0.0
  0
VERTEX
  5
5ECD
  8
0
 10
62.246892678024551
 20
72.667902856903794
 30
0.0
  0
VERTEX
  5
5ECE
  8
0
 10
62.250522202493812
 20
72.807682856308332
 30
0.0
  0
VERTEX
  5
5ECF
  8
0
 10
62.257839203196852
 20
73.089474689526782
 30
0.0
  0
VERTEX
  5
5ED0
  8
0
 10
62.265236626220087
 20
73.374363741669356
 30
0.0
  0
VERTEX
  5
5ED1
  8
0
 10
62.268966698138676
 20
73.518016017602093
 30
0.0
  0
SEQEND
  5
5ED2
  8
0
  0
LINE
  5
4016
  8
0
 10
62.245064125956787
 20
72.597481784087535
 30
0.0
 11
62.246892678024551
 21
72.667902856903794
 31
0.0
  0
POLYLINE
  5
4017
  8
0
 66
     1
 10
0.0
 20
0.0
 30
0.0
  0
VERTEX
  5
5ED3
  8
0
 10
63.037189572942573
 20
71.311223859439792
 30
0.0
  0
VERTEX
  5
5ED4
  8
0
 10
63.055410203030362
 20
71.449858740766985
 30
0.0
  0
VERTEX
  5
5ED5
  8
0
 10
63.09214238772563
 20
71.729342053999432
 30
0.0
  0
VERTEX
  5
5ED6
  8
0
 10
63.129278301713782
 20
72.011897212845184
 30
0.0
  0
VERTEX
  5
5ED7
  8
0
 10
63.148003691556312
 20
72.154372647894292
 30
0.0
  0
SEQEND
  5
5ED8
  8
0
  0
LINE
  5
4018
  8
0
 10
63.028010031351243
 20
71.241379696366351
 30
0.0
 11
63.037189572942573
 21
71.311223859439792
 31
0.0
  0
POLYLINE
  5
4019
  8
0
 66
     1
 10
0.0
 20
0.0
 30
0.0
  0
VERTEX
  5
5ED9
  8
0
 10
63.681345568027723
 20
69.879368371524606
 30
0.0
  0
VERTEX
  5
5EDA
  8
0
 10
63.713957674697781
 20
70.015339222003405
 30
0.0
  0
VERTEX
  5
5EDB
  8
0
 10
63.779702597883102
 20
70.289451937584516
 30
0.0
  0
VERTEX
  5
5EDC
  8
0
 10
63.846170133991329
 20
70.566577469684674
 30
0.0
  0
VERTEX
  5
5EDD
  8
0
 10
63.879685682468107
 20
70.706315073168781
 30
0.0
  0
SEQEND
  5
5EDE
  8
0
  0
LINE
  5
401A
  8
0
 10
63.664915609891409
 20
69.810866345460425
 30
0.0
 11
63.681345568027723
 21
69.879368371524606
 31
0.0
  0
POLYLINE
  5
401B
  8
0
 66
     1
 10
0.0
 20
0.0
 30
0.0
  0
VERTEX
  5
5EDF
  8
0
 10
64.172303155399447
 20
68.388024101518823
 30
0.0
  0
VERTEX
  5
5EE0
  8
0
 10
64.218949433586772
 20
68.519841196057797
 30
0.0
  0
VERTEX
  5
5EE1
  8
0
 10
64.312986780125698
 20
68.785580077713803
 30
0.0
  0
VERTEX
  5
5EE2
  8
0
 10
64.408057706119109
 20
69.054239737746315
 30
0.0
  0
VERTEX
  5
5EE3
  8
0
 10
64.455996209867465
 20
69.189708515239744
 30
0.0
  0
SEQEND
  5
5EE4
  8
0
  0
LINE
  5
401C
  8
0
 10
64.148802790777722
 20
68.321614734996416
 30
0.0
 11
64.172303155399447
 21
68.388024101518823
 31
0.0
  0
POLYLINE
  5
401D
  8
0
 66
     1
 10
0.0
 20
0.0
 30
0.0
  0
VERTEX
  5
5EE5
  8
0
 10
64.504683300991132
 20
66.853530529328481
 30
0.0
  0
VERTEX
  5
5EE6
  8
0
 10
64.564852684310381
 20
66.97974965225518
 30
0.0
  0
VERTEX
  5
5EE7
  8
0
 10
64.686152161355594
 20
67.234203209189303
 30
0.0
  0
VERTEX
  5
5EE8
  8
0
 10
64.808784860274272
 20
67.49145350569836
 30
0.0
  0
VERTEX
  5
5EE9
  8
0
 10
64.870621095015323
 20
67.621169232926178
 30
0.0
  0
SEQEND
  5
5EEA
  8
0
  0
LINE
  5
401E
  8
0
 10
64.474370004796469
 20
66.789941417264572
 30
0.0
 11
64.504683300991132
 21
66.853530529328481
 31
0.0
  0
POLYLINE
  5
401F
  8
0
 66
     1
 10
0.0
 20
0.0
 30
0.0
  0
VERTEX
  5
5EEB
  8
0
 10
64.674844378372597
 20
65.292699887643948
 30
0.0
  0
VERTEX
  5
5EEC
  8
0
 10
64.747877638468992
 20
65.411938155834662
 30
0.0
  0
VERTEX
  5
5EED
  8
0
 10
64.895110263566437
 20
65.652318541629199
 30
0.0
  0
VERTEX
  5
5EEE
  8
0
 10
65.043961145898365
 20
65.895340986533057
 30
0.0
  0
VERTEX
  5
5EEF
  8
0
 10
65.119017620904273
 20
66.017882470843034
 30
0.0
  0
SEQEND
  5
5EF0
  8
0
  0
LINE
  5
4020
  8
0
 10
64.638050269421683
 20
65.232627725657153
 30
0.0
 11
64.674844378372597
 21
65.292699887643948
 31
0.0
  0
POLYLINE
  5
4021
  8
0
 66
     1
 10
0.0
 20
0.0
 30
0.0
  0
VERTEX
  5
5EF1
  8
0
 10
64.680922067171593
 20
63.722632963600311
 30
0.0
  0
VERTEX
  5
5EF2
  8
0
 10
64.766019036364128
 20
63.83358397763633
 30
0.0
  0
VERTEX
  5
5EF3
  8
0
 10
64.937571698063039
 20
64.05725753448192
 30
0.0
  0
VERTEX
  5
5EF4
  8
0
 10
65.111009922392441
 20
64.283389523018684
 30
0.0
  0
VERTEX
  5
5EF5
  8
0
 10
65.198464303216326
 20
64.397414174265094
 30
0.0
  0
SEQEND
  5
5EF6
  8
0
  0
LINE
  5
4022
  8
0
 10
64.638050269421683
 20
63.666735914868269
 30
0.0
 11
64.680922067171593
 21
63.722632963600311
 31
0.0
  0
POLYLINE
  5
4023
  8
0
 66
     1
 10
0.0
 20
0.0
 30
0.0
  0
VERTEX
  5
5EF7
  8
0
 10
64.52284977895772
 20
62.16053173897501
 30
0.0
  0
VERTEX
  5
5EF8
  8
0
 10
64.619078117044467
 20
62.261979896328832
 30
0.0
  0
VERTEX
  5
5EF9
  8
0
 10
64.813071248483311
 20
62.466496009929671
 30
0.0
  0
VERTEX
  5
5EFA
  8
0
 10
65.009196589330031
 20
62.673259992711543
 30
0.0
  0
VERTEX
  5
5EFB
  8
0
 10
65.108090707474787
 20
62.777518532954389
 30
0.0
  0
SEQEND
  5
5EFC
  8
0
  0
LINE
  5
4024
  8
0
 10
64.474370004796469
 20
62.109422223260879
 30
0.0
 11
64.52284977895772
 21
62.16053173897501
 31
0.0
  0
POLYLINE
  5
4025
  8
0
 66
     1
 10
0.0
 20
0.0
 30
0.0
  0
VERTEX
  5
5EFD
  8
0
 10
64.202359386799571
 20
60.623510921675781
 30
0.0
  0
VERTEX
  5
5EFE
  8
0
 10
64.308664795971254
 20
60.714344735105918
 30
0.0
  0
VERTEX
  5
5EFF
  8
0
 10
64.522972967806368
 20
60.897462684123781
 30
0.0
  0
VERTEX
  5
5F00
  8
0
 10
64.739636634894225
 20
61.082593311687297
 30
0.0
  0
VERTEX
  5
5F01
  8
0
 10
64.848886985706486
 20
61.175943462542108
 30
0.0
  0
SEQEND
  5
5F02
  8
0
  0
LINE
  5
4026
  8
0
 10
64.148802790777722
 20
60.577748905528999
 30
0.0
 11
64.202359386799515
 21
60.623510921675781
 31
0.0
  0
POLYLINE
  5
4027
  8
0
 66
     1
 10
0.0
 20
0.0
 30
0.0
  0
VERTEX
  5
5F03
  8
0
 10
63.722962250500352
 20
59.128410433419162
 30
0.0
  0
VERTEX
  5
5F04
  8
0
 10
63.838180026448192
 20
59.207634708657423
 30
0.0
  0
VERTEX
  5
5F05
  8
0
 10
64.07045523350223
 20
59.367348214523112
 30
0.0
  0
VERTEX
  5
5F06
  8
0
 10
64.30528341435496
 20
59.528817156971712
 30
0.0
  0
VERTEX
  5
5F07
  8
0
 10
64.42369302812898
 20
59.610236154650799
 30
0.0
  0
SEQEND
  5
5F08
  8
0
  0
LINE
  5
4028
  8
0
 10
63.664915609891409
 20
59.088497295065032
 30
0.0
 11
63.722962250500352
 21
59.128410433419162
 31
0.0
  0
POLYLINE
  5
4029
  8
0
 66
     1
 10
0.0
 20
0.0
 30
0.0
  0
VERTEX
  5
5F09
  8
0
 10
63.089910745405753
 20
57.691610908024451
 30
0.0
  0
VERTEX
  5
5F0A
  8
0
 10
63.21277853806567
 20
57.758357647332637
 30
0.0
  0
VERTEX
  5
5F0B
  8
0
 10
63.460475924563291
 20
57.892916855453542
 30
0.0
  0
VERTEX
  5
5F0C
  8
0
 10
63.710895792490533
 20
58.028955025264167
 30
0.0
  0
VERTEX
  5
5F0D
  8
0
 10
63.837167348719049
 20
58.097550826191053
 30
0.0
  0
SEQEND
  5
5F0E
  8
0
  0
LINE
  5
402A
  8
0
 10
63.028010031351187
 20
57.657983944159092
 30
0.0
 11
63.089910745405753
 21
57.691610908024451
 31
0.0
  0
POLYLINE
  5
402B
  8
0
 66
     1
 10
0.0
 20
0.0
 30
0.0
  0
VERTEX
  5
5F0F
  8
0
 10
62.310140716280102
 20
56.328854221761482
 30
0.0
  0
VERTEX
  5
5F10
  8
0
 10
62.439312360404188
 20
56.382392133896161
 30
0.0
  0
VERTEX
  5
5F11
  8
0
 10
62.699718101944832
 20
56.490322785429697
 30
0.0
  0
VERTEX
  5
5F12
  8
0
 10
62.962986004469492
 20
56.59943971994602
 30
0.0
  0
VERTEX
  5
5F13
  8
0
 10
63.095736045558681
 20
56.654460774171213
 30
0.0
  0
SEQEND
  5
5F14
  8
0
  0
LINE
  5
402C
  8
0
 10
62.245064125956787
 20
56.301881856437923
 30
0.0
 11
62.310140716280159
 21
56.328854221761482
 31
0.0
  0
POLYLINE
  5
402D
  8
0
 66
     1
 10
0.0
 20
0.0
 30
0.0
  0
VERTEX
  5
5F15
  8
0
 10
61.392195486739979
 20
55.055071022060098
 30
0.0
  0
VERTEX
  5
5F16
  8
0
 10
61.526255750763937
 20
55.094813534452271
 30
0.0
  0
VERTEX
  5
5F17
  8
0
 10
61.796516787550111
 20
55.174933118594453
 30
0.0
  0
VERTEX
  5
5F18
  8
0
 10
62.06974830644014
 20
55.255933309847848
 30
0.0
  0
VERTEX
  5
5F19
  8
0
 10
62.207522395159799
 20
55.296776795187242
 30
0.0
  0
SEQEND
  5
5F1A
  8
0
  0
LINE
  5
402E
  8
0
 10
61.324656012889527
 20
55.035048770157182
 30
0.0
 11
61.392195486739979
 21
55.055071022060098
 31
0.0
  0
POLYLINE
  5
402F
  8
0
 66
     1
 10
0.0
 20
0.0
 30
0.0
  0
VERTEX
  5
5F1B
  8
0
 10
60.346132256812488
 20
53.884217144212549
 30
0.0
  0
VERTEX
  5
5F1C
  8
0
 10
60.483612348429851
 20
53.909728829579791
 30
0.0
  0
VERTEX
  5
5F1D
  8
0
 10
60.76076764398681
 20
53.961159539400647
 30
0.0
  0
VERTEX
  5
5F1E
  8
0
 10
61.040969197543859
 20
54.013155532345309
 30
0.0
  0
VERTEX
  5
5F1F
  8
0
 10
61.182257852146847
 20
54.039373959026513
 30
0.0
  0
SEQEND
  5
5F20
  8
0
  0
LINE
  5
4030
  8
0
 10
60.276869876043968
 20
53.871364373711998
 30
0.0
 11
60.346132256812488
 21
53.884217144212549
 31
0.0
  0
POLYLINE
  5
4031
  8
0
 66
     1
 10
0.0
 20
0.0
 30
0.0
  0
VERTEX
  5
5F21
  8
0
 10
59.183411914147598
 20
52.829120708321433
 30
0.0
  0
VERTEX
  5
5F22
  8
0
 10
59.322805572705079
 20
52.840122055300242
 30
0.0
  0
VERTEX
  5
5F23
  8
0
 10
59.603818555615931
 20
52.862300405180342
 30
0.0
  0
VERTEX
  5
5F24
  8
0
 10
59.887920196983202
 20
52.884722520836682
 30
0.0
  0
VERTEX
  5
5F25
  8
0
 10
60.03117542940344
 20
52.896028634290452
 30
0.0
  0
SEQEND
  5
5F26
  8
0
  0
LINE
  5
4032
  8
0
 10
59.113185479598769
 20
52.823578236866467
 30
0.0
 11
59.183411914147598
 21
52.829120708321433
 31
0.0
  0
POLYLINE
  5
4033
  8
0
 66
     1
 10
0.0
 20
0.0
 30
0.0
  0
VERTEX
  5
5F27
  8
0
 10
57.916773466134373
 20
51.90134157173145
 30
0.0
  0
VERTEX
  5
5F28
  8
0
 10
58.056553465538848
 20
51.897712047262161
 30
0.0
  0
VERTEX
  5
5F29
  8
0
 10
58.338345298757247
 20
51.890395046559149
 30
0.0
  0
VERTEX
  5
5F2A
  8
0
 10
58.62323435089985
 20
51.882997623535907
 30
0.0
  0
VERTEX
  5
5F2B
  8
0
 10
58.766886626832608
 20
51.879267551617261
 30
0.0
  0
SEQEND
  5
5F2C
  8
0
  0
LINE
  5
4034
  8
0
 10
57.84635239331805
 20
51.903170123799178
 30
0.0
 11
57.916773466134373
 21
51.90134157173145
 31
0.0
  0
POLYLINE
  5
4035
  8
0
 66
     1
 10
0.0
 20
0.0
 30
0.0
  0
VERTEX
  5
5F2D
  8
0
 10
56.560094468670343
 20
51.1110446768134
 30
0.0
  0
VERTEX
  5
5F2E
  8
0
 10
56.698729349997727
 20
51.09282404672561
 30
0.0
  0
VERTEX
  5
5F2F
  8
0
 10
56.978212663230011
 20
51.056091862030343
 30
0.0
  0
VERTEX
  5
5F30
  8
0
 10
57.260767822075529
 20
51.018955948042219
 30
0.0
  0
VERTEX
  5
5F31
  8
0
 10
57.403243257124821
 20
51.000230558199661
 30
0.0
  0
SEQEND
  5
5F32
  8
0
  0
LINE
  5
4036
  8
0
 10
56.490250305596881
 20
51.120224218404751
 30
0.0
 11
56.560094468670343
 21
51.1110446768134
 31
0.0
  0
POLYLINE
  5
4037
  8
0
 66
     1
 10
0.0
 20
0.0
 30
0.0
  0
VERTEX
  5
5F33
  8
0
 10
55.128238980755157
 20
50.466888681728278
 30
0.0
  0
VERTEX
  5
5F34
  8
0
 10
55.264209831234041
 20
50.434276575058128
 30
0.0
  0
VERTEX
  5
5F35
  8
0
 10
55.538322546815088
 20
50.368531651872843
 30
0.0
  0
VERTEX
  5
5F36
  8
0
 10
55.815448078915153
 20
50.302064115764637
 30
0.0
  0
VERTEX
  5
5F37
  8
0
 10
55.955185682399303
 20
50.268548567287837
 30
0.0
  0
SEQEND
  5
5F38
  8
0
  0
LINE
  5
4038
  8
0
 10
55.059736954690941
 20
50.483318639864592
 30
0.0
 11
55.128238980755157
 21
50.466888681728278
 31
0.0
  0
POLYLINE
  5
4039
  8
0
 66
     1
 10
0.0
 20
0.0
 30
0.0
  0
VERTEX
  5
5F39
  8
0
 10
53.636894710749338
 20
49.975931094356518
 30
0.0
  0
VERTEX
  5
5F3A
  8
0
 10
53.768711805288319
 20
49.929284816169201
 30
0.0
  0
VERTEX
  5
5F3B
  8
0
 10
54.03445068694441
 20
49.835247469630268
 30
0.0
  0
VERTEX
  5
5F3C
  8
0
 10
54.30311034697695
 20
49.740176543636842
 30
0.0
  0
VERTEX
  5
5F3D
  8
0
 10
54.438579124470259
 20
49.692238039888501
 30
0.0
  0
SEQEND
  5
5F3E
  8
0
  0
LINE
  5
403A
  8
0
 10
53.570485344226938
 20
49.999431458978279
 30
0.0
 11
53.636894710749338
 21
49.975931094356518
 31
0.0
  0
POLYLINE
  5
403B
  8
0
 66
     1
 10
0.0
 20
0.0
 30
0.0
  0
VERTEX
  5
5F3F
  8
0
 10
52.102401138559003
 20
49.64355094876484
 30
0.0
  0
VERTEX
  5
5F40
  8
0
 10
52.228620261485609
 20
49.58338156544562
 30
0.0
  0
VERTEX
  5
5F41
  8
0
 10
52.483073818419768
 20
49.462082088400372
 30
0.0
  0
VERTEX
  5
5F42
  8
0
 10
52.74032411492891
 20
49.339449389481672
 30
0.0
  0
VERTEX
  5
5F43
  8
0
 10
52.8700398421567
 20
49.277613154740642
 30
0.0
  0
SEQEND
  5
5F44
  8
0
  0
LINE
  5
403C
  8
0
 10
52.038812026495059
 20
49.673864244959482
 30
0.0
 11
52.102401138559003
 21
49.64355094876484
 31
0.0
  0
POLYLINE
  5
403D
  8
0
 66
     1
 10
0.0
 20
0.0
 30
0.0
  0
VERTEX
  5
5F45
  8
0
 10
50.541570496874442
 20
49.473389871383368
 30
0.0
  0
VERTEX
  5
5F46
  8
0
 10
50.660808765065148
 20
49.400356611287009
 30
0.0
  0
VERTEX
  5
5F47
  8
0
 10
50.9011891508597
 20
49.253123986189529
 30
0.0
  0
VERTEX
  5
5F48
  8
0
 10
51.144211595763579
 20
49.104273103857622
 30
0.0
  0
VERTEX
  5
5F49
  8
0
 10
51.266753080073613
 20
49.029216628851692
 30
0.0
  0
SEQEND
  5
5F4A
  8
0
  0
LINE
  5
403E
  8
0
 10
50.48149833488764
 20
49.510183980334318
 30
0.0
 11
50.541570496874442
 21
49.473389871383368
 31
0.0
  0
POLYLINE
  5
403F
  8
0
 66
     1
 10
0.0
 20
0.0
 30
0.0
  0
VERTEX
  5
5F4B
  8
0
 10
48.971503572830841
 20
49.467312182584379
 30
0.0
  0
VERTEX
  5
5F4C
  8
0
 10
49.082454586867073
 20
49.382215213391667
 30
0.0
  0
VERTEX
  5
5F4D
  8
0
 10
49.306128143712499
 20
49.210662551692927
 30
0.0
  0
VERTEX
  5
5F4E
  8
0
 10
49.532260132249007
 20
49.037224327363667
 30
0.0
  0
VERTEX
  5
5F4F
  8
0
 10
49.646284783495616
 20
48.949769946539647
 30
0.0
  0
SEQEND
  5
5F50
  8
0
  0
LINE
  5
4040
  8
0
 10
48.915606524098791
 20
49.510183980334318
 30
0.0
 11
48.971503572830841
 21
49.467312182584379
 31
0.0
  0
POLYLINE
  5
4041
  8
0
 66
     1
 10
0.0
 20
0.0
 30
0.0
  0
VERTEX
  5
5F51
  8
0
 10
47.40940234820556
 20
49.625384470798217
 30
0.0
  0
VERTEX
  5
5F52
  8
0
 10
47.510850505559453
 20
49.529156132711393
 30
0.0
  0
VERTEX
  5
5F53
  8
0
 10
47.71536661916025
 20
49.335163001272662
 30
0.0
  0
VERTEX
  5
5F54
  8
0
 10
47.922130601941937
 20
49.139037660426048
 30
0.0
  0
VERTEX
  5
5F55
  8
0
 10
48.026389142184939
 20
49.040143542281179
 30
0.0
  0
SEQEND
  5
5F56
  8
0
  0
LINE
  5
4042
  8
0
 10
47.358292832491372
 20
49.673864244959482
 30
0.0
 11
47.40940234820556
 21
49.625384470798188
 31
0.0
  0
POLYLINE
  5
4043
  8
0
 66
     1
 10
0.0
 20
0.0
 30
0.0
  0
VERTEX
  5
5F57
  8
0
 10
45.872381530906303
 20
49.945874862956423
 30
0.0
  0
VERTEX
  5
5F58
  8
0
 10
45.96321534433639
 20
49.839569453784797
 30
0.0
  0
VERTEX
  5
5F59
  8
0
 10
46.146333293354353
 20
49.625261281949598
 30
0.0
  0
VERTEX
  5
5F5A
  8
0
 10
46.33146392091794
 20
49.408597614861662
 30
0.0
  0
VERTEX
  5
5F5B
  8
0
 10
46.42481407177263
 20
49.29934726404948
 30
0.0
  0
SEQEND
  5
5F5C
  8
0
  0
LINE
  5
4044
  8
0
 10
45.8266195147595
 20
49.999431458978279
 30
0.0
 11
45.872381530906303
 21
49.945874862956423
 31
0.0
  0
POLYLINE
  5
4045
  8
0
 66
     1
 10
0.0
 20
0.0
 30
0.0
  0
VERTEX
  5
5F5D
  8
0
 10
44.377281042649713
 20
50.425271999255642
 30
0.0
  0
VERTEX
  5
5F5E
  8
0
 10
44.456505317887938
 20
50.31005422330778
 30
0.0
  0
VERTEX
  5
5F5F
  8
0
 10
44.616218823753563
 20
50.077779016253771
 30
0.0
  0
VERTEX
  5
5F60
  8
0
 10
44.777687766202227
 20
49.842950835401012
 30
0.0
  0
VERTEX
  5
5F61
  8
0
 10
44.8591067638813
 20
49.724541221626993
 30
0.0
  0
SEQEND
  5
5F62
  8
0
  0
LINE
  5
4046
  8
0
 10
44.337367904295547
 20
50.483318639864621
 30
0.0
 11
44.377281042649713
 21
50.425271999255621
 31
0.0
  0
POLYLINE
  5
4047
  8
0
 66
     1
 10
0.0
 20
0.0
 30
0.0
  0
VERTEX
  5
5F63
  8
0
 10
42.940481517254973
 20
51.05832350435022
 30
0.0
  0
VERTEX
  5
5F64
  8
0
 10
43.00722825656328
 20
50.93545571169016
 30
0.0
  0
VERTEX
  5
5F65
  8
0
 10
43.141787464684057
 20
50.68775832519259
 30
0.0
  0
VERTEX
  5
5F66
  8
0
 10
43.277825634494661
 20
50.437338457265547
 30
0.0
  0
VERTEX
  5
5F67
  8
0
 10
43.346421435421568
 20
50.311066901036916
 30
0.0
  0
SEQEND
  5
5F68
  8
0
  0
LINE
  5
4048
  8
0
 10
42.906854553389607
 20
51.120224218404751
 30
0.0
 11
42.940481517254973
 21
51.05832350435022
 31
0.0
  0
POLYLINE
  5
4049
  8
0
 66
     1
 10
0.0
 20
0.0
 30
0.0
  0
VERTEX
  5
5F69
  8
0
 10
41.577724830991997
 20
51.838093533475814
 30
0.0
  0
VERTEX
  5
5F6A
  8
0
 10
41.631262743126683
 20
51.708921889351778
 30
0.0
  0
VERTEX
  5
5F6B
  8
0
 10
41.739193394660219
 20
51.448516147811141
 30
0.0
  0
VERTEX
  5
5F6C
  8
0
 10
41.84831032917657
 20
51.185248245286459
 30
0.0
  0
VERTEX
  5
5F6D
  8
0
 10
41.903331383401792
 20
51.052498204197292
 30
0.0
  0
SEQEND
  5
5F6E
  8
0
  0
LINE
  5
404A
  8
0
 10
41.550752465668438
 20
51.903170123799207
 30
0.0
 11
41.577724830991997
 21
51.838093533475814
 31
0.0
  0
POLYLINE
  5
404B
  8
0
 66
     1
 10
0.0
 20
0.0
 30
0.0
  0
VERTEX
  5
5F6F
  8
0
 10
40.30394163129062
 20
52.756038763015987
 30
0.0
  0
VERTEX
  5
5F70
  8
0
 10
40.343684143682822
 20
52.621978498992007
 30
0.0
  0
VERTEX
  5
5F71
  8
0
 10
40.423803727824968
 20
52.351717462205862
 30
0.0
  0
VERTEX
  5
5F72
  8
0
 10
40.50480391907837
 20
52.078485943315833
 30
0.0
  0
VERTEX
  5
5F73
  8
0
 10
40.545647404417757
 20
51.940711854596138
 30
0.0
  0
SEQEND
  5
5F74
  8
0
  0
LINE
  5
404C
  8
0
 10
40.283919379387719
 20
52.823578236866467
 30
0.0
 11
40.30394163129062
 21
52.756038763015958
 31
0.0
  0
POLYLINE
  5
404D
  8
0
 66
     1
 10
0.0
 20
0.0
 30
0.0
  0
VERTEX
  5
5F75
  8
0
 10
39.133087753443078
 20
53.802101992943477
 30
0.0
  0
VERTEX
  5
5F76
  8
0
 10
39.15859943881037
 20
53.664621901325937
 30
0.0
  0
VERTEX
  5
5F77
  8
0
 10
39.210030148631169
 20
53.38746660576922
 30
0.0
  0
VERTEX
  5
5F78
  8
0
 10
39.262026141575802
 20
53.107265052212313
 30
0.0
  0
VERTEX
  5
5F79
  8
0
 10
39.288244568257028
 20
52.965976397609118
 30
0.0
  0
SEQEND
  5
5F7A
  8
0
  0
LINE
  5
404E
  8
0
 10
39.12023498294252
 20
53.871364373711998
 30
0.0
 11
39.133087753443078
 21
53.802101992943477
 31
0.0
  0
POLYLINE
  5
404F
  8
0
 66
     1
 10
0.0
 20
0.0
 30
0.0
  0
VERTEX
  5
5F7B
  8
0
 10
38.077991317551948
 20
54.964822335608368
 30
0.0
  0
VERTEX
  5
5F7C
  8
0
 10
38.088992664530792
 20
54.825428677051008
 30
0.0
  0
VERTEX
  5
5F7D
  8
0
 10
38.111171014410843
 20
54.544415694140007
 30
0.0
  0
VERTEX
  5
5F7E
  8
0
 10
38.133593130067197
 20
54.260314052772628
 30
0.0
  0
VERTEX
  5
5F7F
  8
0
 10
38.144899243520968
 20
54.117058820352533
 30
0.0
  0
SEQEND
  5
5F80
  8
0
  0
LINE
  5
4050
  8
0
 10
38.072448846097018
 20
55.035048770157182
 30
0.0
 11
38.077991317551948
 21
54.964822335608368
 31
0.0
  0
POLYLINE
  5
4051
  8
0
 66
     1
 10
0.0
 20
0.0
 30
0.0
  0
VERTEX
  5
5F81
  8
0
 10
37.150212180961951
 20
56.231460783621628
 30
0.0
  0
VERTEX
  5
5F82
  8
0
 10
37.146582656492683
 20
56.091680784216969
 30
0.0
  0
VERTEX
  5
5F83
  8
0
 10
37.1392656557897
 20
55.809888950998563
 30
0.0
  0
VERTEX
  5
5F84
  8
0
 10
37.131868232766472
 20
55.524999898856088
 30
0.0
  0
VERTEX
  5
5F85
  8
0
 10
37.128138160847811
 20
55.381347622923329
 30
0.0
  0
SEQEND
  5
5F86
  8
0
  0
LINE
  5
4052
  8
0
 10
37.152040733029708
 20
56.301881856437937
 30
0.0
 11
37.150212180961951
 21
56.231460783621628
 31
0.0
  0
POLYLINE
  5
4053
  8
0
 66
     1
 10
0.0
 20
0.0
 30
0.0
  0
VERTEX
  5
5F87
  8
0
 10
36.359915286043929
 20
57.588139781085601
 30
0.0
  0
VERTEX
  5
5F88
  8
0
 10
36.341694655956189
 20
57.449504899758459
 30
0.0
  0
VERTEX
  5
5F89
  8
0
 10
36.304962471260872
 20
57.170021586526019
 30
0.0
  0
VERTEX
  5
5F8A
  8
0
 10
36.26782655727277
 20
56.887466427680209
 30
0.0
  0
VERTEX
  5
5F8B
  8
0
 10
36.24910116743019
 20
56.744990992631102
 30
0.0
  0
SEQEND
  5
5F8C
  8
0
  0
LINE
  5
4054
  8
0
 10
36.369094827635308
 20
57.657983944159128
 30
0.0
 11
36.359915286043929
 21
57.588139781085601
 31
0.0
  0
POLYLINE
  5
4055
  8
0
 66
     1
 10
0.0
 20
0.0
 30
0.0
  0
VERTEX
  5
5F8D
  8
0
 10
35.715759290958772
 20
59.019995269000809
 30
0.0
  0
VERTEX
  5
5F8E
  8
0
 10
35.683147184288657
 20
58.884024418521847
 30
0.0
  0
VERTEX
  5
5F8F
  8
0
 10
35.6174022611034
 20
58.609911702940877
 30
0.0
  0
VERTEX
  5
5F90
  8
0
 10
35.550934724995159
 20
58.332786170840869
 30
0.0
  0
VERTEX
  5
5F91
  8
0
 10
35.517419176518388
 20
58.193048567356641
 30
0.0
  0
SEQEND
  5
5F92
  8
0
  0
LINE
  5
4056
  8
0
 10
35.732189249095143
 20
59.088497295065054
 30
0.0
 11
35.715759290958772
 21
59.019995269000809
 31
0.0
  0
POLYLINE
  5
4057
  8
0
 66
     1
 10
0.0
 20
0.0
 30
0.0
  0
VERTEX
  5
5F93
  8
0
 10
35.224801703587048
 20
60.511339539006592
 30
0.0
  0
VERTEX
  5
5F94
  8
0
 10
35.17815542539973
 20
60.379522444467597
 30
0.0
  0
VERTEX
  5
5F95
  8
0
 10
35.084118078860911
 20
60.11378356281174
 30
0.0
  0
VERTEX
  5
5F96
  8
0
 10
34.989047152867442
 20
59.845123902779271
 30
0.0
  0
VERTEX
  5
5F97
  8
0
 10
34.941108649119087
 20
59.709655125285678
 30
0.0
  0
SEQEND
  5
5F98
  8
0
  0
LINE
  5
4058
  8
0
 10
35.248302068208773
 20
60.577748905529027
 30
0.0
 11
35.224801703587048
 21
60.511339539006592
 31
0.0
  0
POLYLINE
  5
4059
  8
0
 66
     1
 10
0.0
 20
0.0
 30
0.0
  0
VERTEX
  5
5F99
  8
0
 10
34.892421557995362
 20
62.045833111196941
 30
0.0
  0
VERTEX
  5
5F9A
  8
0
 10
34.832252174676057
 20
61.919613988270179
 30
0.0
  0
VERTEX
  5
5F9B
  8
0
 10
34.71095269763083
 20
61.665160431336062
 30
0.0
  0
VERTEX
  5
5F9C
  8
0
 10
34.588319998712223
 20
61.407910134827063
 30
0.0
  0
VERTEX
  5
5F9D
  8
0
 10
34.526483763971157
 20
61.278194407599251
 30
0.0
  0
SEQEND
  5
5F9E
  8
0
  0
LINE
  5
405A
  8
0
 10
34.922734854190033
 20
62.109422223260879
 30
0.0
 11
34.892421557995362
 21
62.045833111196913
 31
0.0
  0
POLYLINE
  5
405B
  8
0
 66
     1
 10
0.0
 20
0.0
 30
0.0
  0
VERTEX
  5
5F9F
  8
0
 10
34.722260480613841
 20
63.606663752881467
 30
0.0
  0
VERTEX
  5
5FA0
  8
0
 10
34.64922722051756
 20
63.487425484690817
 30
0.0
  0
VERTEX
  5
5FA1
  8
0
 10
34.501994595420001
 20
63.247045098896223
 30
0.0
  0
VERTEX
  5
5FA2
  8
0
 10
34.353143713088123
 20
63.004022653992308
 30
0.0
  0
VERTEX
  5
5FA3
  8
0
 10
34.278087238082207
 20
62.88148116968236
 30
0.0
  0
SEQEND
  5
5FA4
  8
0
  0
LINE
  5
405C
  8
0
 10
34.759054589564812
 20
63.666735914868291
 30
0.0
 11
34.722260480613897
 21
63.606663752881467
 31
0.0
  0
POLYLINE
  5
405D
  8
0
 66
     1
 10
0.0
 20
0.0
 30
0.0
  0
VERTEX
  5
5FA5
  8
0
 10
34.716182791814902
 20
65.176730676925104
 30
0.0
  0
VERTEX
  5
5FA6
  8
0
 10
34.631085822622367
 20
65.065779662889042
 30
0.0
  0
VERTEX
  5
5FA7
  8
0
 10
34.459533160923463
 20
64.842106106043531
 30
0.0
  0
VERTEX
  5
5FA8
  8
0
 10
34.286094936594111
 20
64.615974117506795
 30
0.0
  0
VERTEX
  5
5FA9
  8
0
 10
34.198640555770169
 20
64.501949466260328
 30
0.0
  0
SEQEND
  5
5FAA
  8
0
  0
LINE
  5
405E
  8
0
 10
34.759054589564812
 20
65.232627725657181
 30
0.0
 11
34.716182791814902
 21
65.176730676925104
 31
0.0
  0
POLYLINE
  5
405F
  8
0
 66
     1
 10
0.0
 20
0.0
 30
0.0
  0
VERTEX
  5
5FAB
  8
0
 10
34.874255080028718
 20
66.738831901550412
 30
0.0
  0
VERTEX
  5
5FAC
  8
0
 10
34.778026741941972
 20
66.637383744196541
 30
0.0
  0
VERTEX
  5
5FAD
  8
0
 10
34.584033610503191
 20
66.432867630595695
 30
0.0
  0
VERTEX
  5
5FAE
  8
0
 10
34.387908269656471
 20
66.226103647813886
 30
0.0
  0
VERTEX
  5
5FAF
  8
0
 10
34.289014151511708
 20
66.121845107571005
 30
0.0
  0
SEQEND
  5
5FB0
  8
0
  0
LINE
  5
4060
  8
0
 10
34.922734854190033
 20
66.789941417264572
 30
0.0
 11
34.874255080028718
 21
66.738831901550412
 31
0.0
  0
POLYLINE
  5
4061
  8
0
 66
     1
 10
0.0
 20
0.0
 30
0.0
  0
VERTEX
  5
5FB1
  8
0
 10
35.194745472186924
 20
68.275852718849649
 30
0.0
  0
VERTEX
  5
5FB2
  8
0
 10
35.088440063015241
 20
68.185018905419497
 30
0.0
  0
VERTEX
  5
5FB3
  8
0
 10
34.874131891180127
 20
68.001900956401641
 30
0.0
  0
VERTEX
  5
5FB4
  8
0
 10
34.65746822409227
 20
67.816770328838118
 30
0.0
  0
VERTEX
  5
5FB5
  8
0
 10
34.548217873280009
 20
67.723420177983314
 30
0.0
  0
SEQEND
  5
5FB6
  8
0
  0
LINE
  5
4062
  8
0
 10
35.248302068208773
 20
68.321614734996416
 30
0.0
 11
35.194745472186924
 21
68.275852718849649
 31
0.0
  0
POLYLINE
  5
4063
  8
0
 66
     1
 10
0.0
 20
0.0
 30
0.0
  0
VERTEX
  5
5FB7
  8
0
 10
35.674142608486143
 20
69.77095320710626
 30
0.0
  0
VERTEX
  5
5FB8
  8
0
 10
35.55892483253831
 20
69.691728931867971
 30
0.0
  0
VERTEX
  5
5FB9
  8
0
 10
35.326649625484272
 20
69.532015426002346
 30
0.0
  0
VERTEX
  5
5FBA
  8
0
 10
35.091821444631478
 20
69.37054648355371
 30
0.0
  0
VERTEX
  5
5FBB
  8
0
 10
34.973411830857508
 20
69.289127485874616
 30
0.0
  0
SEQEND
  5
5FBC
  8
0
  0
LINE
  5
4064
  8
0
 10
35.732189249095143
 20
69.810866345460397
 30
0.0
 11
35.674142608486143
 21
69.77095320710626
 31
0.0
  0
POLYLINE
  5
4065
  8
0
 66
     1
 10
0.0
 20
0.0
 30
0.0
  0
VERTEX
  5
5FBD
  8
0
 10
36.307194113580749
 20
71.207752732500978
 30
0.0
  0
VERTEX
  5
5FBE
  8
0
 10
36.184326320920611
 20
71.141005993192664
 30
0.0
  0
VERTEX
  5
5FBF
  8
0
 10
35.93662893442314
 20
71.006446785071887
 30
0.0
  0
VERTEX
  5
5FC0
  8
0
 10
35.68620906649619
 20
70.870408615261326
 30
0.0
  0
VERTEX
  5
5FC1
  8
0
 10
35.559937510267453
 20
70.801812814334369
 30
0.0
  0
SEQEND
  5
5FC2
  8
0
  0
LINE
  5
4066
  8
0
 10
36.369094827635308
 20
71.241379696366323
 30
0.0
 11
36.307194113580749
 21
71.207752732500978
 31
0.0
  0
POLYLINE
  5
4067
  8
0
 66
     1
 10
0.0
 20
0.0
 30
0.0
  0
VERTEX
  5
5FC3
  8
0
 10
37.086964142706343
 20
72.570509418763947
 30
0.0
  0
VERTEX
  5
5FC4
  8
0
 10
36.957792498582307
 20
72.516971506629261
 30
0.0
  0
VERTEX
  5
5FC5
  8
0
 10
36.69738675704162
 20
72.409040855095697
 30
0.0
  0
VERTEX
  5
5FC6
  8
0
 10
36.43411885451701
 20
72.299923920579403
 30
0.0
  0
VERTEX
  5
5FC7
  8
0
 10
36.301368813427757
 20
72.244902866354181
 30
0.0
  0
SEQEND
  5
5FC8
  8
0
  0
LINE
  5
4068
  8
0
 10
37.152040733029708
 20
72.597481784087506
 30
0.0
 11
37.086964142706343
 21
72.570509418763947
 31
0.0
  0
POLYLINE
  5
4069
  8
0
 66
     1
 10
0.0
 20
0.0
 30
0.0
  0
VERTEX
  5
5FC9
  8
0
 10
38.004909372246509
 20
73.844292618465303
 30
0.0
  0
VERTEX
  5
5FCA
  8
0
 10
37.870849108222437
 20
73.804550106073123
 30
0.0
  0
VERTEX
  5
5FCB
  8
0
 10
37.600588071436277
 20
73.724430521930941
 30
0.0
  0
VERTEX
  5
5FCC
  8
0
 10
37.327356552546348
 20
73.643430330677575
 30
0.0
  0
VERTEX
  5
5FCD
  8
0
 10
37.189582463826703
 20
73.602586845338152
 30
0.0
  0
SEQEND
  5
5FCE
  8
0
  0
LINE
  5
406A
  8
0
 10
38.072448846097018
 20
73.864314870368275
 30
0.0
 11
38.004909372246509
 21
73.844292618465303
 31
0.0
  0
POLYLINE
  5
406B
  8
0
 66
     1
 10
0.0
 20
0.0
 30
0.0
  0
VERTEX
  5
5FCF
  8
0
 10
39.050972602173943
 20
75.015146496312894
 30
0.0
  0
VERTEX
  5
5FD0
  8
0
 10
38.91349251055658
 20
74.989634810945603
 30
0.0
  0
VERTEX
  5
5FD1
  8
0
 10
38.636337214999742
 20
74.938204101124754
 30
0.0
  0
VERTEX
  5
5FD2
  8
0
 10
38.356135661442693
 20
74.886208108180114
 30
0.0
  0
VERTEX
  5
5FD3
  8
0
 10
38.214847006839591
 20
74.859989681498888
 30
0.0
  0
SEQEND
  5
5FD4
  8
0
  0
LINE
  5
406C
  8
0
 10
39.12023498294252
 20
75.027999266813453
 30
0.0
 11
39.050972602173943
 21
75.015146496312894
 31
0.0
  0
POLYLINE
  5
406D
  8
0
 66
     1
 10
0.0
 20
0.0
 30
0.0
  0
VERTEX
  5
5FD5
  8
0
 10
40.21369294483889
 20
76.070242932204025
 30
0.0
  0
VERTEX
  5
5FD6
  8
0
 10
40.074299286281409
 20
76.05924158522518
 30
0.0
  0
VERTEX
  5
5FD7
  8
0
 10
39.793286303370557
 20
76.037063235345073
 30
0.0
  0
VERTEX
  5
5FD8
  8
0
 10
39.509184662003243
 20
76.014641119688747
 30
0.0
  0
VERTEX
  5
5FD9
  8
0
 10
39.365929429583048
 20
76.003335006234977
 30
0.0
  0
SEQEND
  5
5FDA
  8
0
  0
LINE
  5
406E
  8
0
 10
40.283919379387719
 20
76.075785403658983
 30
0.0
 11
40.21369294483889
 21
76.070242932204025
 31
0.0
  0
POLYLINE
  5
406F
  8
0
 66
     1
 10
0.0
 20
0.0
 30
0.0
  0
VERTEX
  5
5FDB
  8
0
 10
41.480331392852122
 20
76.998022068793972
 30
0.0
  0
VERTEX
  5
5FDC
  8
0
 10
41.34055139344764
 20
77.001651593263261
 30
0.0
  0
VERTEX
  5
5FDD
  8
0
 10
41.058759560229127
 20
77.008968593966273
 30
0.0
  0
VERTEX
  5
5FDE
  8
0
 10
40.773870508086532
 20
77.016366016989494
 30
0.0
  0
VERTEX
  5
5FDF
  8
0
 10
40.630218232153879
 20
77.020096088908161
 30
0.0
  0
SEQEND
  5
5FE0
  8
0
  0
LINE
  5
4070
  8
0
 10
41.550752465668438
 20
76.996193516726237
 30
0.0
 11
41.480331392852122
 21
76.998022068793972
 31
0.0
  0
POLYLINE
  5
4071
  8
0
 66
     1
 10
0.0
 20
0.0
 30
0.0
  0
VERTEX
  5
5FE1
  8
0
 10
42.837010390316088
 20
77.788318963712015
 30
0.0
  0
VERTEX
  5
5FE2
  8
0
 10
42.698375508988867
 20
77.806539593799812
 30
0.0
  0
VERTEX
  5
5FE3
  8
0
 10
42.418892195756541
 20
77.843271778495051
 30
0.0
  0
VERTEX
  5
5FE4
  8
0
 10
42.136337036910838
 20
77.880407692483203
 30
0.0
  0
VERTEX
  5
5FE5
  8
0
 10
41.993861601861617
 20
77.899133082325761
 30
0.0
  0
SEQEND
  5
5FE6
  8
0
  0
LINE
  5
4072
  8
0
 10
42.906854553389607
 20
77.779139422120664
 30
0.0
 11
42.837010390316088
 21
77.788318963712015
 31
0.0
  0
POLYLINE
  5
4073
  8
0
 66
     1
 10
0.0
 20
0.0
 30
0.0
  0
VERTEX
  5
5FE7
  8
0
 10
44.268865878231331
 20
78.432474958797144
 30
0.0
  0
VERTEX
  5
5FE8
  8
0
 10
44.13289502775234
 20
78.465087065467316
 30
0.0
  0
VERTEX
  5
5FE9
  8
0
 10
43.858782312171449
 20
78.530831988652579
 30
0.0
  0
VERTEX
  5
5FEA
  8
0
 10
43.581656780071462
 20
78.597299524760757
 30
0.0
  0
VERTEX
  5
5FEB
  8
0
 10
43.441919176587128
 20
78.630815073237585
 30
0.0
  0
SEQEND
  5
5FEC
  8
0
  0
LINE
  5
4074
  8
0
 10
44.337367904295547
 20
78.41604500066083
 30
0.0
 11
44.268865878231331
 21
78.432474958797144
 31
0.0
  0
POLYLINE
  5
4075
  8
0
 66
     1
 10
0.0
 20
0.0
 30
0.0
  0
VERTEX
  5
5FED
  8
0
 10
45.760210148237093
 20
78.923432546168925
 30
0.0
  0
VERTEX
  5
5FEE
  8
0
 10
45.628393053697998
 20
78.97007882435625
 30
0.0
  0
VERTEX
  5
5FEF
  8
0
 10
45.362654172042191
 20
79.064116170895119
 30
0.0
  0
VERTEX
  5
5FF0
  8
0
 10
45.093994512009772
 20
79.159187096888502
 30
0.0
  0
VERTEX
  5
5FF1
  8
0
 10
44.958525734516172
 20
79.207125600636914
 30
0.0
  0
SEQEND
  5
5FF2
  8
0
  0
LINE
  5
4076
  8
0
 10
45.82661951475955
 20
78.899932181547143
 30
0.0
 11
45.760210148237093
 21
78.923432546168925
 31
0.0
  0
POLYLINE
  5
4077
  8
0
 66
     1
 10
0.0
 20
0.0
 30
0.0
  0
VERTEX
  5
5FF3
  8
0
 10
47.294703720427428
 20
79.25581269176061
 30
0.0
  0
VERTEX
  5
5FF4
  8
0
 10
47.168484597500878
 20
79.315982075079802
 30
0.0
  0
VERTEX
  5
5FF5
  8
0
 10
46.91403104056667
 20
79.437281552125086
 30
0.0
  0
VERTEX
  5
5FF6
  8
0
 10
46.656780744057528
 20
79.559914251043779
 30
0.0
  0
VERTEX
  5
5FF7
  8
0
 10
46.527065016829731
 20
79.621750485784816
 30
0.0
  0
SEQEND
  5
5FF8
  8
0
  0
LINE
  5
4078
  8
0
 10
47.358292832491429
 20
79.225499395565947
 30
0.0
 11
47.294703720427428
 21
79.25581269176061
 31
0.0
  0
POLYLINE
  5
4079
  8
0
 66
     1
 10
0.0
 20
0.0
 30
0.0
  0
VERTEX
  5
5FF9
  8
0
 10
48.855534362111939
 20
79.425973769142075
 30
0.0
  0
VERTEX
  5
5FFA
  8
0
 10
48.736296093921219
 20
79.49900702923847
 30
0.0
  0
VERTEX
  5
5FFB
  8
0
 10
48.495915708126688
 20
79.646239654335943
 30
0.0
  0
VERTEX
  5
5FFC
  8
0
 10
48.252893263222859
 20
79.795090536667828
 30
0.0
  0
VERTEX
  5
5FFD
  8
0
 10
48.130351778912882
 20
79.870147011673765
 30
0.0
  0
SEQEND
  5
5FFE
  8
0
  0
LINE
  5
407A
  8
0
 10
48.915606524098727
 20
79.389179660191132
 30
0.0
 11
48.855534362111939
 21
79.425973769142075
 31
0.0
  0
ARC
  5
407B
  8
0
 10
49.698552429493247
 20
64.449681820262612
 30
0.0
 40
14.999999999999901
 50
261.22178938536638
 51
266.77821061463368
  0
ARC
  5
407C
  8
0
 10
49.698552429493247
 20
64.449681820261958
 30
0.0
 40
14.99999999999927
 50
267.22178938536649
 51
272.7782106146343
  0
ARC
  5
407D
  8
0
 10
49.69855242949302
 20
64.449681820261333
 30
0.0
 40
14.9999999999986
 50
255.22178938536629
 51
260.77821061463391
  0
ARC
  5
407E
  8
0
 10
49.698552429493361
 20
64.449681820261844
 30
0.0
 40
14.999999999999149
 50
273.22178938536621
 51
278.77821061463442
  0
ARC
  5
407F
  8
0
 10
49.698552429493589
 20
64.44968182026355
 30
0.0
 40
15.000000000000909
 50
249.22178938536589
 51
254.77821061463339
  0
ARC
  5
4080
  8
0
 10
49.698552429493127
 20
64.449681820263351
 30
0.0
 40
15.000000000000661
 50
279.22178938536598
 51
284.778210614633
  0
ARC
  5
4081
  8
0
 10
49.698552429493468
 20
64.449681820263237
 30
0.0
 40
15.00000000000059
 50
243.2217893853668
 51
248.7782106146332
  0
ARC
  5
4082
  8
0
 10
49.698552429493418
 20
64.449681820262185
 30
0.0
 40
14.999999999999449
 50
285.22178938536581
 51
290.77821061463402
  0
ARC
  5
4083
  8
0
 10
49.69855242949285
 20
64.449681820262043
 30
0.0
 40
14.999999999999231
 50
237.22178938536601
 51
242.77821061463351
  0
ARC
  5
4084
  8
0
 10
49.698552429493638
 20
64.449681820261731
 30
0.0
 40
14.99999999999897
 50
291.22178938536598
 51
296.77821061463402
  0
ARC
  5
4085
  8
0
 10
49.698552429492331
 20
64.449681820261404
 30
0.0
 40
14.9999999999984
 50
231.22178938536609
 51
236.77821061463371
  0
ARC
  5
4086
  8
0
 10
49.69855242949297
 20
64.449681820263208
 30
0.0
 40
15.000000000000581
 50
297.22178938536649
 51
302.77821061463402
  0
ARC
  5
4087
  8
0
 10
49.698552429491649
 20
64.449681820260906
 30
0.0
 40
14.99999999999762
 50
225.22178938536589
 51
230.77821061463419
  0
ARC
  5
4088
  8
0
 10
49.698552429493191
 20
64.449681820262754
 30
0.0
 40
15.000000000000069
 50
303.22178938536632
 51
308.77821061463391
  0
ARC
  5
4089
  8
0
 10
49.698552429493468
 20
64.449681820262924
 30
0.0
 40
15.000000000000339
 50
219.22178938536629
 51
224.778210614633
  0
ARC
  5
408A
  8
0
 10
49.698552429491542
 20
64.44968182026463
 30
0.0
 40
15.00000000000257
 50
309.22178938536678
 51
314.77821061463362
  0
ARC
  5
408B
  8
0
 10
49.698552429493638
 20
64.449681820262981
 30
0.0
 40
15.00000000000048
 50
213.22178938536561
 51
218.77821061463391
  0
ARC
  5
408C
  8
0
 10
49.69855242949307
 20
64.449681820262853
 30
0.0
 40
15.000000000000259
 50
315.22178938536638
 51
320.77821061463368
  0
ARC
  5
408D
  8
0
 10
49.698552429494491
 20
64.449681820263436
 30
0.0
 40
15.00000000000146
 50
207.2217893853657
 51
212.77821061463291
  0
ARC
  5
408E
  8
0
 10
49.698552429493247
 20
64.449681820262668
 30
0.0
 40
14.999999999999959
 50
321.22178938536609
 51
326.778210614633
  0
ARC
  5
408F
  8
0
 10
49.698552429494391
 20
64.449681820263208
 30
0.0
 40
15.00000000000122
 50
201.2217893853668
 51
206.77821061463391
  0
ARC
  5
4090
  8
0
 10
49.698552429490739
 20
64.449681820264104
 30
0.0
 40
15.000000000002901
 50
327.22178938536712
 51
332.77821061463283
  0
ARC
  5
4091
  8
0
 10
49.698552429494669
 20
64.449681820263152
 30
0.0
 40
15.00000000000148
 50
195.22178938536729
 51
200.77821061463379
  0
ARC
  5
4092
  8
0
 10
49.698552429493127
 20
64.449681820262725
 30
0.0
 40
15.00000000000013
 50
333.22178938536598
 51
338.77821061463322
  0
ARC
  5
4093
  8
0
 10
49.6985524294941
 20
64.449681820262839
 30
0.0
 40
15.00000000000086
 50
189.2217893853668
 51
194.77821061463391
  0
ARC
  5
4094
  8
0
 10
49.698552429494043
 20
64.449681820262413
 30
0.0
 40
14.99999999999916
 50
339.22178938536592
 51
344.77821061463419
  0
ARC
  5
4095
  8
0
 10
49.698552429491478
 20
64.449681820262526
 30
0.0
 40
14.999999999998231
 50
183.22178938536621
 51
188.77821061463371
  0
ARC
  5
4096
  8
0
 10
49.698552429492217
 20
64.449681820262924
 30
0.0
 40
15.000000000001039
 50
345.22178938536598
 51
350.77821061463322
  0
ARC
  5
4097
  8
0
 10
49.698552429493191
 20
64.449681820262697
 30
0.0
 40
14.999999999999959
 50
177.2217893853657
 51
182.7782106146343
  0
ARC
  5
4098
  8
0
 10
49.698552429492452
 20
64.449681820262754
 30
0.0
 40
15.00000000000081
 50
351.22178938536632
 51
356.77821061463368
  0
ARC
  5
4099
  8
0
 10
49.698552429493532
 20
64.449681820262668
 30
0.0
 40
15.000000000000281
 50
171.22178938536629
 51
176.77821061463371
  0
ARC
  5
409A
  8
0
 10
49.698552429494953
 20
64.449681820262697
 30
0.0
 40
14.99999999999833
 50
357.2217893853657
 51
2.7782106146343311
  0
ARC
  5
409B
  8
0
 10
49.698552429493702
 20
64.449681820262583
 30
0.0
 40
15.00000000000049
 50
165.22178938536601
 51
170.77821061463311
  0
ARC
  5
409C
  8
0
 10
49.698552429494839
 20
64.449681820262853
 30
0.0
 40
14.9999999999984
 50
3.2217893853662369
 51
8.7782106146336787
  0
ARC
  5
409D
  8
0
 10
49.698552429493589
 20
64.449681820262583
 30
0.0
 40
15.000000000000339
 50
159.22178938536601
 51
164.77821061463419
  0
ARC
  5
409E
  8
0
 10
49.698552429492331
 20
64.449681820262526
 30
0.0
 40
15.000000000000901
 50
9.2217893853668311
 51
14.778210614633929
  0
ARC
  5
409F
  8
0
 10
49.698552429492793
 20
64.449681820262853
 30
0.0
 40
14.999999999999551
 50
153.22178938536601
 51
158.7782106146332
  0
ARC
  5
40A0
  8
0
 10
49.69855242949177
 20
64.449681820262214
 30
0.0
 40
15.000000000001579
 50
15.221789385367311
 51
20.778210614633739
  0
ARC
  5
40A1
  8
0
 10
49.698552429493532
 20
64.449681820262526
 30
0.0
 40
15.000000000000339
 50
147.22178938536709
 51
152.7782106146343
  0
ARC
  5
40A2
  8
0
 10
49.698552429493994
 20
64.449681820263038
 30
0.0
 40
14.999999999999179
 50
21.221789385364939
 51
26.778210614633949
  0
ARC
  5
40A3
  8
0
 10
49.698552429492899
 20
64.449681820262896
 30
0.0
 40
14.999999999999609
 50
141.22178938536601
 51
146.778210614633
  0
ARC
  5
40A4
  8
0
 10
49.698552429493702
 20
64.449681820262981
 30
0.0
 40
14.99999999999943
 50
27.221789385365721
 51
32.77821061463424
  0
ARC
  5
40A5
  8
0
 10
49.698552429491201
 20
64.449681820264544
 30
0.0
 40
14.99999999999724
 50
135.22178938536521
 51
140.77821061463371
  0
ARC
  5
40A6
  8
0
 10
49.698552429492047
 20
64.449681820261816
 30
0.0
 40
15.00000000000148
 50
33.221789385366982
 51
38.778210614633892
  0
ARC
  5
40A7
  8
0
 10
49.698552429495351
 20
64.449681820260295
 30
0.0
 40
15.000000000003171
 50
129.2217893853674
 51
134.77821061463351
  0
ARC
  5
40A8
  8
0
 10
49.698552429494718
 20
64.449681820264033
 30
0.0
 40
14.999999999997989
 50
39.221789385365767
 51
44.778210614634709
  0
ARC
  5
40A9
  8
0
 10
49.698552429491997
 20
64.449681820264459
 30
0.0
 40
14.99999999999781
 50
123.22178938536619
 51
128.77821061463391
  0
ARC
  5
40AA
  8
0
 10
49.698552429493468
 20
64.449681820262924
 30
0.0
 40
14.999999999999661
 50
45.221789385365852
 51
50.778210614634212
  0
ARC
  5
40AB
  8
0
 10
49.698552429493127
 20
64.449681820262924
 30
0.0
 40
14.999999999999741
 50
117.22178938536641
 51
122.77821061463401
  0
ARC
  5
40AC
  8
0
 10
49.698552429493247
 20
64.44968182026264
 30
0.0
 40
15.00000000000005
 50
51.221789385366087
 51
56.778210614633679
  0
ARC
  5
40AD
  8
0
 10
49.698552429493191
 20
64.449681820262782
 30
0.0
 40
14.999999999999879
 50
111.22178938536671
 51
116.77821061463391
  0
ARC
  5
40AE
  8
0
 10
49.698552429494043
 20
64.449681820264033
 30
0.0
 40
14.999999999998449
 50
57.221789385365298
 51
62.77821061463424
  0
ARC
  5
40AF
  8
0
 10
49.698552429492899
 20
64.449681820263834
 30
0.0
 40
14.999999999998799
 50
105.2217893853657
 51
110.77821061463401
  0
ARC
  5
40B0
  8
0
 10
49.698552429493127
 20
64.449681820262498
 30
0.0
 40
15.00000000000022
 50
63.22178938536603
 51
68.778210614633238
  0
ARC
  5
40B1
  8
0
 10
49.698552429493418
 20
64.449681820261731
 30
0.0
 40
15.000000000000981
 50
99.221789385366847
 51
104.7782106146329
  0
ARC
  5
40B2
  8
0
 10
49.698552429493702
 20
64.449681820264004
 30
0.0
 40
14.99999999999862
 50
69.221789385365923
 51
74.778210614634219
  0
ARC
  5
40B3
  8
0
 10
49.69855242949307
 20
64.449681820264317
 30
0.0
 40
14.999999999998369
 50
93.221789385365454
 51
98.778210614633565
  0
ARC
  5
40B4
  8
0
 10
49.698552429493418
 20
64.449681820263564
 30
0.0
 40
14.99999999999911
 50
75.221789385366222
 51
80.778210614633934
  0
ARC
  5
40B5
  8
0
 10
49.698552429493247
 20
64.449681820263521
 30
0.0
 40
14.999999999999179
 50
87.221789385365653
 51
92.778210614634318
  0
ARC
  5
40B6
  8
0
 10
49.698552429493361
 20
64.44968182026426
 30
0.0
 40
14.999999999998421
 50
81.221789385365625
 51
86.778210614633693
  0
CIRCLE
  5
507D
  8
0
 10
49.698552429493247
 20
64.449681820262725
 30
0.0
 40
3.8106755876987961
  0
CIRCLE
  5
507E
  8
0
 10
49.698552429493247
 20
64.449681820262725
 30
0.0
 40
4.0000000000000284
  0
CIRCLE
  5
5081
  8
3
 10
49.698552429493247
 20
64.449681820262725
 30
0.0
 40
7.0800000000000116
  0
CIRCLE
  5
5082
  8
0
 10
49.698552429493247
 20
64.449681820262725
 30
0.0
 40
8.0000000000000284
  0
LINE
  5
50B5
  8
0
 10
59.198552429493283
 20
69.934509377564211
 30
0.0
 11
59.198552429493283
 21
58.964854262961232
 31
0.0
  0
LINE
  5
50B6
  8
0
 10
59.198552429493283
 20
69.934509377564211
 30
0.0
 11
49.698552429493247
 21
75.419336934865626
 31
0.0
  0
LINE
  5
50B8
  8
0
 10
40.198552429493212
 20
69.934509377564211
 30
0.0
 11
40.198552429493212
 21
58.964854262961232
 31
0.0
  0
LINE
  5
50B9
  8
0
 10
49.698552429493247
 20
75.419336934865626
 30
0.0
 11
40.198552429493212
 21
69.934509377564211
 31
0.0
  0
LINE
  5
50BA
  8
0
 10
59.198552429493283
 20
58.964854262961232
 30
0.0
 11
49.698552429493247
 21
53.480026705659817
 31
0.0
  0
LINE
  5
50BB
  8
0
 10
49.698552429493247
 20
53.480026705659817
 30
0.0
 11
40.198552429493212
 21
58.964854262961232
 31
0.0
  0
ARC
  5
50E4
  8
0
 10
245.5965622935428
 20
64.44968182026426
 30
0.0
 40
14.999999999998421
 50
81.221789385365625
 51
86.778210614633693
  0
ARC
  5
50E5
  8
0
 10
245.59656229354269
 20
64.449681820263521
 30
0.0
 40
14.999999999999179
 50
87.221789385365653
 51
92.778210614634318
  0
ARC
  5
50E6
  8
0
 10
245.5965622935428
 20
64.449681820263564
 30
0.0
 40
14.99999999999911
 50
75.221789385366222
 51
80.778210614633934
  0
ARC
  5
50E7
  8
0
 10
245.59656229354249
 20
64.449681820264317
 30
0.0
 40
14.999999999998369
 50
93.221789385365454
 51
98.778210614633565
  0
ARC
  5
50E8
  8
0
 10
245.59656229354309
 20
64.449681820264004
 30
0.0
 40
14.99999999999862
 50
69.221789385365923
 51
74.778210614634219
  0
ARC
  5
50E9
  8
0
 10
245.5965622935428
 20
64.449681820261731
 30
0.0
 40
15.000000000000981
 50
99.221789385366847
 51
104.7782106146329
  0
ARC
  5
50EA
  8
0
 10
245.59656229354249
 20
64.449681820262498
 30
0.0
 40
15.00000000000022
 50
63.22178938536603
 51
68.778210614633238
  0
ARC
  5
50EB
  8
0
 10
245.59656229354229
 20
64.449681820263834
 30
0.0
 40
14.999999999998799
 50
105.2217893853657
 51
110.77821061463401
  0
ARC
  5
50EC
  8
0
 10
245.59656229354351
 20
64.449681820264033
 30
0.0
 40
14.999999999998449
 50
57.221789385365298
 51
62.77821061463424
  0
ARC
  5
50ED
  8
0
 10
245.5965622935426
 20
64.449681820262782
 30
0.0
 40
14.999999999999879
 50
111.22178938536671
 51
116.77821061463391
  0
ARC
  5
50EE
  8
0
 10
245.59656229354269
 20
64.44968182026264
 30
0.0
 40
15.00000000000005
 50
51.221789385366087
 51
56.778210614633679
  0
ARC
  5
50EF
  8
0
 10
245.59656229354249
 20
64.449681820262924
 30
0.0
 40
14.999999999999741
 50
117.22178938536641
 51
122.77821061463401
  0
ARC
  5
50F0
  8
0
 10
245.59656229354289
 20
64.449681820262924
 30
0.0
 40
14.999999999999661
 50
45.221789385365852
 51
50.778210614634212
  0
ARC
  5
50F1
  8
0
 10
245.59656229354141
 20
64.449681820264459
 30
0.0
 40
14.99999999999781
 50
123.22178938536619
 51
128.77821061463391
  0
ARC
  5
50F2
  8
0
 10
245.59656229354411
 20
64.449681820264033
 30
0.0
 40
14.999999999997989
 50
39.221789385365767
 51
44.778210614634709
  0
ARC
  5
50F3
  8
0
 10
245.59656229354479
 20
64.449681820260295
 30
0.0
 40
15.000000000003171
 50
129.2217893853674
 51
134.77821061463351
  0
ARC
  5
50F4
  8
0
 10
245.5965622935415
 20
64.449681820261816
 30
0.0
 40
15.00000000000148
 50
33.221789385366982
 51
38.778210614633892
  0
ARC
  5
50F5
  8
0
 10
245.59656229354059
 20
64.449681820264544
 30
0.0
 40
14.99999999999724
 50
135.22178938536521
 51
140.77821061463371
  0
ARC
  5
50F6
  8
0
 10
245.59656229354309
 20
64.449681820262981
 30
0.0
 40
14.99999999999943
 50
27.221789385365721
 51
32.77821061463424
  0
ARC
  5
50F7
  8
0
 10
245.59656229354229
 20
64.449681820262896
 30
0.0
 40
14.999999999999609
 50
141.22178938536601
 51
146.778210614633
  0
ARC
  5
50F8
  8
0
 10
245.5965622935434
 20
64.449681820263038
 30
0.0
 40
14.999999999999179
 50
21.221789385364939
 51
26.778210614633949
  0
ARC
  5
50F9
  8
0
 10
245.59656229354289
 20
64.449681820262526
 30
0.0
 40
15.000000000000339
 50
147.22178938536709
 51
152.7782106146343
  0
ARC
  5
50FA
  8
0
 10
245.59656229354121
 20
64.449681820262214
 30
0.0
 40
15.000000000001579
 50
15.221789385367311
 51
20.778210614633739
  0
ARC
  5
50FB
  8
0
 10
245.59656229354221
 20
64.449681820262853
 30
0.0
 40
14.999999999999551
 50
153.22178938536601
 51
158.7782106146332
  0
ARC
  5
50FC
  8
0
 10
245.59656229354169
 20
64.449681820262526
 30
0.0
 40
15.000000000000901
 50
9.2217893853668311
 51
14.778210614633929
  0
ARC
  5
50FD
  8
0
 10
245.596562293543
 20
64.449681820262583
 30
0.0
 40
15.000000000000339
 50
159.22178938536601
 51
164.77821061463419
  0
ARC
  5
50FE
  8
0
 10
245.59656229354431
 20
64.449681820262853
 30
0.0
 40
14.9999999999984
 50
3.2217893853662369
 51
8.7782106146336787
  0
ARC
  5
50FF
  8
0
 10
245.59656229354309
 20
64.449681820262583
 30
0.0
 40
15.00000000000049
 50
165.22178938536601
 51
170.77821061463311
  0
ARC
  5
5100
  8
0
 10
245.59656229354439
 20
64.449681820262697
 30
0.0
 40
14.99999999999833
 50
357.2217893853657
 51
2.7782106146343311
  0
ARC
  5
5101
  8
0
 10
245.59656229354289
 20
64.449681820262668
 30
0.0
 40
15.000000000000281
 50
171.22178938536629
 51
176.77821061463371
  0
ARC
  5
5102
  8
0
 10
245.59656229354189
 20
64.449681820262754
 30
0.0
 40
15.00000000000081
 50
351.22178938536632
 51
356.77821061463368
  0
ARC
  5
5103
  8
0
 10
245.5965622935426
 20
64.449681820262697
 30
0.0
 40
14.999999999999959
 50
177.2217893853657
 51
182.7782106146343
  0
ARC
  5
5104
  8
0
 10
245.59656229354161
 20
64.449681820262924
 30
0.0
 40
15.000000000001039
 50
345.22178938536598
 51
350.77821061463322
  0
ARC
  5
5105
  8
0
 10
245.5965622935409
 20
64.449681820262526
 30
0.0
 40
14.999999999998231
 50
183.22178938536621
 51
188.77821061463371
  0
ARC
  5
5106
  8
0
 10
245.59656229354351
 20
64.449681820262413
 30
0.0
 40
14.99999999999916
 50
339.22178938536592
 51
344.77821061463419
  0
ARC
  5
5107
  8
0
 10
245.59656229354351
 20
64.449681820262839
 30
0.0
 40
15.00000000000086
 50
189.2217893853668
 51
194.77821061463391
  0
ARC
  5
5108
  8
0
 10
245.59656229354249
 20
64.449681820262725
 30
0.0
 40
15.00000000000013
 50
333.22178938536598
 51
338.77821061463322
  0
ARC
  5
5109
  8
0
 10
245.59656229354411
 20
64.449681820263152
 30
0.0
 40
15.00000000000148
 50
195.22178938536729
 51
200.77821061463379
  0
ARC
  5
510A
  8
0
 10
245.5965622935401
 20
64.449681820264104
 30
0.0
 40
15.000000000002901
 50
327.22178938536712
 51
332.77821061463283
  0
ARC
  5
510B
  8
0
 10
245.5965622935438
 20
64.449681820263208
 30
0.0
 40
15.00000000000122
 50
201.2217893853668
 51
206.77821061463391
  0
ARC
  5
510C
  8
0
 10
245.59656229354269
 20
64.449681820262668
 30
0.0
 40
14.999999999999959
 50
321.22178938536609
 51
326.778210614633
  0
ARC
  5
510D
  8
0
 10
245.59656229354391
 20
64.449681820263436
 30
0.0
 40
15.00000000000146
 50
207.2217893853657
 51
212.77821061463291
  0
ARC
  5
510E
  8
0
 10
245.59656229354249
 20
64.449681820262853
 30
0.0
 40
15.000000000000259
 50
315.22178938536638
 51
320.77821061463368
  0
ARC
  5
510F
  8
0
 10
245.59656229354309
 20
64.449681820262981
 30
0.0
 40
15.00000000000048
 50
213.22178938536561
 51
218.77821061463391
  0
ARC
  5
5110
  8
0
 10
245.5965622935409
 20
64.44968182026463
 30
0.0
 40
15.00000000000257
 50
309.22178938536678
 51
314.77821061463362
  0
ARC
  5
5111
  8
0
 10
245.59656229354289
 20
64.449681820262924
 30
0.0
 40
15.000000000000339
 50
219.22178938536629
 51
224.778210614633
  0
ARC
  5
5112
  8
0
 10
245.5965622935426
 20
64.449681820262754
 30
0.0
 40
15.000000000000069
 50
303.22178938536632
 51
308.77821061463391
  0
ARC
  5
5113
  8
0
 10
245.5965622935411
 20
64.449681820260906
 30
0.0
 40
14.99999999999762
 50
225.22178938536589
 51
230.77821061463419
  0
ARC
  5
5114
  8
0
 10
245.59656229354241
 20
64.449681820263208
 30
0.0
 40
15.000000000000581
 50
297.22178938536649
 51
302.77821061463402
  0
ARC
  5
5115
  8
0
 10
245.59656229354169
 20
64.449681820261404
 30
0.0
 40
14.9999999999984
 50
231.22178938536609
 51
236.77821061463371
  0
ARC
  5
5116
  8
0
 10
245.59656229354309
 20
64.449681820261731
 30
0.0
 40
14.99999999999897
 50
291.22178938536598
 51
296.77821061463402
  0
ARC
  5
5117
  8
0
 10
245.59656229354229
 20
64.449681820262043
 30
0.0
 40
14.999999999999231
 50
237.22178938536601
 51
242.77821061463351
  0
ARC
  5
5118
  8
0
 10
245.5965622935428
 20
64.449681820262185
 30
0.0
 40
14.999999999999449
 50
285.22178938536581
 51
290.77821061463402
  0
ARC
  5
5119
  8
0
 10
245.59656229354289
 20
64.449681820263237
 30
0.0
 40
15.00000000000059
 50
243.2217893853668
 51
248.7782106146332
  0
ARC
  5
511A
  8
0
 10
245.59656229354249
 20
64.449681820263351
 30
0.0
 40
15.000000000000661
 50
279.22178938536598
 51
284.778210614633
  0
ARC
  5
511B
  8
0
 10
245.596562293543
 20
64.44968182026355
 30
0.0
 40
15.000000000000909
 50
249.22178938536589
 51
254.77821061463339
  0
ARC
  5
511C
  8
0
 10
245.5965622935428
 20
64.449681820261844
 30
0.0
 40
14.999999999999149
 50
273.22178938536621
 51
278.77821061463442
  0
ARC
  5
511D
  8
0
 10
245.59656229354241
 20
64.449681820261333
 30
0.0
 40
14.9999999999986
 50
255.22178938536629
 51
260.77821061463391
  0
ARC
  5
511E
  8
0
 10
245.59656229354269
 20
64.449681820261958
 30
0.0
 40
14.99999999999927
 50
267.22178938536649
 51
272.7782106146343
  0
ARC
  5
511F
  8
0
 10
245.59656229354269
 20
64.449681820262612
 30
0.0
 40
14.999999999999901
 50
261.22178938536638
 51
266.77821061463368
  0
LINE
  5
5120
  8
0
 10
244.8136163881482
 20
79.389179660191132
 30
0.0
 11
244.75354422616141
 21
79.425973769142075
 31
0.0
  0
POLYLINE
  5
5121
  8
0
 66
     1
 10
0.0
 20
0.0
 30
0.0
  0
VERTEX
  5
5FFF
  8
0
 10
244.75354422616141
 20
79.425973769142075
 30
0.0
  0
VERTEX
  5
6000
  8
0
 10
244.6343059579707
 20
79.49900702923847
 30
0.0
  0
VERTEX
  5
6001
  8
0
 10
244.3939255721761
 20
79.646239654335943
 30
0.0
  0
VERTEX
  5
6002
  8
0
 10
244.1509031272723
 20
79.795090536667828
 30
0.0
  0
VERTEX
  5
6003
  8
0
 10
244.0283616429623
 20
79.870147011673765
 30
0.0
  0
SEQEND
  5
6004
  8
0
  0
LINE
  5
5122
  8
0
 10
243.2563026965409
 20
79.225499395565947
 30
0.0
 11
243.19271358447691
 21
79.25581269176061
 31
0.0
  0
POLYLINE
  5
5123
  8
0
 66
     1
 10
0.0
 20
0.0
 30
0.0
  0
VERTEX
  5
6005
  8
0
 10
243.19271358447691
 20
79.25581269176061
 30
0.0
  0
VERTEX
  5
6006
  8
0
 10
243.06649446155029
 20
79.315982075079802
 30
0.0
  0
VERTEX
  5
6007
  8
0
 10
242.81204090461611
 20
79.437281552125086
 30
0.0
  0
VERTEX
  5
6008
  8
0
 10
242.554790608107
 20
79.559914251043779
 30
0.0
  0
VERTEX
  5
6009
  8
0
 10
242.42507488087921
 20
79.621750485784816
 30
0.0
  0
SEQEND
  5
600A
  8
0
  0
LINE
  5
5124
  8
0
 10
241.724629378809
 20
78.899932181547143
 30
0.0
 11
241.65822001228651
 21
78.923432546168925
 31
0.0
  0
POLYLINE
  5
5125
  8
0
 66
     1
 10
0.0
 20
0.0
 30
0.0
  0
VERTEX
  5
600B
  8
0
 10
241.65822001228651
 20
78.923432546168925
 30
0.0
  0
VERTEX
  5
600C
  8
0
 10
241.52640291774739
 20
78.97007882435625
 30
0.0
  0
VERTEX
  5
600D
  8
0
 10
241.26066403609161
 20
79.064116170895119
 30
0.0
  0
VERTEX
  5
600E
  8
0
 10
240.99200437605921
 20
79.159187096888502
 30
0.0
  0
VERTEX
  5
600F
  8
0
 10
240.85653559856561
 20
79.207125600636914
 30
0.0
  0
SEQEND
  5
6010
  8
0
  0
LINE
  5
5126
  8
0
 10
240.23537776834499
 20
78.41604500066083
 30
0.0
 11
240.16687574228069
 21
78.432474958797144
 31
0.0
  0
POLYLINE
  5
5127
  8
0
 66
     1
 10
0.0
 20
0.0
 30
0.0
  0
VERTEX
  5
6011
  8
0
 10
240.16687574228069
 20
78.432474958797144
 30
0.0
  0
VERTEX
  5
6012
  8
0
 10
240.03090489180181
 20
78.465087065467316
 30
0.0
  0
VERTEX
  5
6013
  8
0
 10
239.7567921762209
 20
78.530831988652579
 30
0.0
  0
VERTEX
  5
6014
  8
0
 10
239.4796666441209
 20
78.597299524760757
 30
0.0
  0
VERTEX
  5
6015
  8
0
 10
239.3399290406366
 20
78.630815073237585
 30
0.0
  0
SEQEND
  5
6016
  8
0
  0
LINE
  5
5128
  8
0
 10
238.80486441743901
 20
77.779139422120664
 30
0.0
 11
238.73502025436551
 21
77.788318963712015
 31
0.0
  0
POLYLINE
  5
5129
  8
0
 66
     1
 10
0.0
 20
0.0
 30
0.0
  0
VERTEX
  5
6017
  8
0
 10
238.73502025436551
 20
77.788318963712015
 30
0.0
  0
VERTEX
  5
6018
  8
0
 10
238.59638537303829
 20
77.806539593799812
 30
0.0
  0
VERTEX
  5
6019
  8
0
 10
238.31690205980601
 20
77.843271778495051
 30
0.0
  0
VERTEX
  5
601A
  8
0
 10
238.03434690096029
 20
77.880407692483203
 30
0.0
  0
VERTEX
  5
601B
  8
0
 10
237.89187146591109
 20
77.899133082325761
 30
0.0
  0
SEQEND
  5
601C
  8
0
  0
LINE
  5
512A
  8
0
 10
237.44876232971779
 20
76.996193516726237
 30
0.0
 11
237.37834125690151
 21
76.998022068793972
 31
0.0
  0
POLYLINE
  5
512B
  8
0
 66
     1
 10
0.0
 20
0.0
 30
0.0
  0
VERTEX
  5
601D
  8
0
 10
237.37834125690151
 20
76.998022068793972
 30
0.0
  0
VERTEX
  5
601E
  8
0
 10
237.23856125749711
 20
77.001651593263261
 30
0.0
  0
VERTEX
  5
601F
  8
0
 10
236.95676942427849
 20
77.008968593966273
 30
0.0
  0
VERTEX
  5
6020
  8
0
 10
236.67188037213589
 20
77.016366016989494
 30
0.0
  0
VERTEX
  5
6021
  8
0
 10
236.52822809620329
 20
77.020096088908161
 30
0.0
  0
SEQEND
  5
6022
  8
0
  0
LINE
  5
512C
  8
0
 10
236.18192924343711
 20
76.075785403658983
 30
0.0
 11
236.11170280888831
 21
76.070242932204025
 31
0.0
  0
POLYLINE
  5
512D
  8
0
 66
     1
 10
0.0
 20
0.0
 30
0.0
  0
VERTEX
  5
6023
  8
0
 10
236.11170280888831
 20
76.070242932204025
 30
0.0
  0
VERTEX
  5
6024
  8
0
 10
235.9723091503308
 20
76.05924158522518
 30
0.0
  0
VERTEX
  5
6025
  8
0
 10
235.69129616742001
 20
76.037063235345073
 30
0.0
  0
VERTEX
  5
6026
  8
0
 10
235.40719452605259
 20
76.014641119688747
 30
0.0
  0
VERTEX
  5
6027
  8
0
 10
235.26393929363249
 20
76.003335006234977
 30
0.0
  0
SEQEND
  5
6028
  8
0
  0
LINE
  5
512E
  8
0
 10
235.01824484699191
 20
75.027999266813453
 30
0.0
 11
234.94898246622341
 21
75.015146496312894
 31
0.0
  0
POLYLINE
  5
512F
  8
0
 66
     1
 10
0.0
 20
0.0
 30
0.0
  0
VERTEX
  5
6029
  8
0
 10
234.94898246622341
 20
75.015146496312894
 30
0.0
  0
VERTEX
  5
602A
  8
0
 10
234.81150237460599
 20
74.989634810945603
 30
0.0
  0
VERTEX
  5
602B
  8
0
 10
234.53434707904921
 20
74.938204101124754
 30
0.0
  0
VERTEX
  5
602C
  8
0
 10
234.25414552549211
 20
74.886208108180114
 30
0.0
  0
VERTEX
  5
602D
  8
0
 10
234.112856870889
 20
74.859989681498888
 30
0.0
  0
SEQEND
  5
602E
  8
0
  0
LINE
  5
5130
  8
0
 10
233.97045871014649
 20
73.864314870368275
 30
0.0
 11
233.9029192362959
 21
73.844292618465303
 31
0.0
  0
POLYLINE
  5
5131
  8
0
 66
     1
 10
0.0
 20
0.0
 30
0.0
  0
VERTEX
  5
602F
  8
0
 10
233.9029192362959
 20
73.844292618465303
 30
0.0
  0
VERTEX
  5
6030
  8
0
 10
233.76885897227189
 20
73.804550106073123
 30
0.0
  0
VERTEX
  5
6031
  8
0
 10
233.49859793548569
 20
73.724430521930941
 30
0.0
  0
VERTEX
  5
6032
  8
0
 10
233.2253664165957
 20
73.643430330677575
 30
0.0
  0
VERTEX
  5
6033
  8
0
 10
233.08759232787611
 20
73.602586845338152
 30
0.0
  0
SEQEND
  5
6034
  8
0
  0
LINE
  5
5132
  8
0
 10
233.05005059707909
 20
72.597481784087506
 30
0.0
 11
232.98497400675581
 21
72.570509418763947
 31
0.0
  0
POLYLINE
  5
5133
  8
0
 66
     1
 10
0.0
 20
0.0
 30
0.0
  0
VERTEX
  5
6035
  8
0
 10
232.98497400675581
 20
72.570509418763947
 30
0.0
  0
VERTEX
  5
6036
  8
0
 10
232.85580236263169
 20
72.516971506629261
 30
0.0
  0
VERTEX
  5
6037
  8
0
 10
232.595396621091
 20
72.409040855095697
 30
0.0
  0
VERTEX
  5
6038
  8
0
 10
232.33212871856639
 20
72.299923920579403
 30
0.0
  0
VERTEX
  5
6039
  8
0
 10
232.1993786774772
 20
72.244902866354181
 30
0.0
  0
SEQEND
  5
603A
  8
0
  0
LINE
  5
5134
  8
0
 10
232.26710469168469
 20
71.241379696366323
 30
0.0
 11
232.20520397763019
 21
71.207752732500978
 31
0.0
  0
POLYLINE
  5
5135
  8
0
 66
     1
 10
0.0
 20
0.0
 30
0.0
  0
VERTEX
  5
603B
  8
0
 10
232.20520397763019
 20
71.207752732500978
 30
0.0
  0
VERTEX
  5
603C
  8
0
 10
232.08233618496999
 20
71.141005993192664
 30
0.0
  0
VERTEX
  5
603D
  8
0
 10
231.83463879847261
 20
71.006446785071887
 30
0.0
  0
VERTEX
  5
603E
  8
0
 10
231.5842189305456
 20
70.870408615261326
 30
0.0
  0
VERTEX
  5
603F
  8
0
 10
231.45794737431689
 20
70.801812814334369
 30
0.0
  0
SEQEND
  5
6040
  8
0
  0
LINE
  5
5136
  8
0
 10
231.6301991131445
 20
69.810866345460397
 30
0.0
 11
231.57215247253549
 21
69.77095320710626
 31
0.0
  0
POLYLINE
  5
5137
  8
0
 66
     1
 10
0.0
 20
0.0
 30
0.0
  0
VERTEX
  5
6041
  8
0
 10
231.57215247253549
 20
69.77095320710626
 30
0.0
  0
VERTEX
  5
6042
  8
0
 10
231.45693469658769
 20
69.691728931867971
 30
0.0
  0
VERTEX
  5
6043
  8
0
 10
231.22465948953371
 20
69.532015426002346
 30
0.0
  0
VERTEX
  5
6044
  8
0
 10
230.98983130868089
 20
69.37054648355371
 30
0.0
  0
VERTEX
  5
6045
  8
0
 10
230.8714216949069
 20
69.289127485874616
 30
0.0
  0
SEQEND
  5
6046
  8
0
  0
LINE
  5
5138
  8
0
 10
231.14631193225819
 20
68.321614734996416
 30
0.0
 11
231.09275533623631
 21
68.275852718849649
 31
0.0
  0
POLYLINE
  5
5139
  8
0
 66
     1
 10
0.0
 20
0.0
 30
0.0
  0
VERTEX
  5
6047
  8
0
 10
231.09275533623631
 20
68.275852718849649
 30
0.0
  0
VERTEX
  5
6048
  8
0
 10
230.98644992706471
 20
68.185018905419497
 30
0.0
  0
VERTEX
  5
6049
  8
0
 10
230.77214175522951
 20
68.001900956401641
 30
0.0
  0
VERTEX
  5
604A
  8
0
 10
230.55547808814171
 20
67.816770328838118
 30
0.0
  0
VERTEX
  5
604B
  8
0
 10
230.44622773732939
 20
67.723420177983314
 30
0.0
  0
SEQEND
  5
604C
  8
0
  0
LINE
  5
513A
  8
0
 10
230.8207447182395
 20
66.789941417264572
 30
0.0
 11
230.7722649440781
 21
66.738831901550412
 31
0.0
  0
POLYLINE
  5
513B
  8
0
 66
     1
 10
0.0
 20
0.0
 30
0.0
  0
VERTEX
  5
604D
  8
0
 10
230.7722649440781
 20
66.738831901550412
 30
0.0
  0
VERTEX
  5
604E
  8
0
 10
230.67603660599141
 20
66.637383744196541
 30
0.0
  0
VERTEX
  5
604F
  8
0
 10
230.4820434745526
 20
66.432867630595695
 30
0.0
  0
VERTEX
  5
6050
  8
0
 10
230.28591813370591
 20
66.226103647813886
 30
0.0
  0
VERTEX
  5
6051
  8
0
 10
230.18702401556109
 20
66.121845107571005
 30
0.0
  0
SEQEND
  5
6052
  8
0
  0
LINE
  5
513C
  8
0
 10
230.6570644536142
 20
65.232627725657181
 30
0.0
 11
230.61419265586429
 21
65.176730676925104
 31
0.0
  0
POLYLINE
  5
513D
  8
0
 66
     1
 10
0.0
 20
0.0
 30
0.0
  0
VERTEX
  5
6053
  8
0
 10
230.61419265586429
 20
65.176730676925104
 30
0.0
  0
VERTEX
  5
6054
  8
0
 10
230.52909568667181
 20
65.065779662889042
 30
0.0
  0
VERTEX
  5
6055
  8
0
 10
230.3575430249729
 20
64.842106106043531
 30
0.0
  0
VERTEX
  5
6056
  8
0
 10
230.1841048006435
 20
64.615974117506795
 30
0.0
  0
VERTEX
  5
6057
  8
0
 10
230.09665041981961
 20
64.501949466260328
 30
0.0
  0
SEQEND
  5
6058
  8
0
  0
LINE
  5
513E
  8
0
 10
230.6570644536142
 20
63.666735914868291
 30
0.0
 11
230.62027034466331
 21
63.606663752881467
 31
0.0
  0
POLYLINE
  5
513F
  8
0
 66
     1
 10
0.0
 20
0.0
 30
0.0
  0
VERTEX
  5
6059
  8
0
 10
230.62027034466331
 20
63.606663752881467
 30
0.0
  0
VERTEX
  5
605A
  8
0
 10
230.547237084567
 20
63.487425484690817
 30
0.0
  0
VERTEX
  5
605B
  8
0
 10
230.40000445946939
 20
63.247045098896223
 30
0.0
  0
VERTEX
  5
605C
  8
0
 10
230.2511535771375
 20
63.004022653992308
 30
0.0
  0
VERTEX
  5
605D
  8
0
 10
230.17609710213159
 20
62.88148116968236
 30
0.0
  0
SEQEND
  5
605E
  8
0
  0
LINE
  5
5140
  8
0
 10
230.8207447182395
 20
62.109422223260879
 30
0.0
 11
230.7904314220448
 21
62.045833111196913
 31
0.0
  0
POLYLINE
  5
5141
  8
0
 66
     1
 10
0.0
 20
0.0
 30
0.0
  0
VERTEX
  5
605F
  8
0
 10
230.7904314220448
 20
62.045833111196941
 30
0.0
  0
VERTEX
  5
6060
  8
0
 10
230.7302620387255
 20
61.919613988270179
 30
0.0
  0
VERTEX
  5
6061
  8
0
 10
230.60896256168019
 20
61.665160431336062
 30
0.0
  0
VERTEX
  5
6062
  8
0
 10
230.48632986276161
 20
61.407910134827063
 30
0.0
  0
VERTEX
  5
6063
  8
0
 10
230.42449362802051
 20
61.278194407599251
 30
0.0
  0
SEQEND
  5
6064
  8
0
  0
LINE
  5
5142
  8
0
 10
231.14631193225819
 20
60.577748905529027
 30
0.0
 11
231.12281156763649
 21
60.511339539006592
 31
0.0
  0
POLYLINE
  5
5143
  8
0
 66
     1
 10
0.0
 20
0.0
 30
0.0
  0
VERTEX
  5
6065
  8
0
 10
231.12281156763649
 20
60.511339539006592
 30
0.0
  0
VERTEX
  5
6066
  8
0
 10
231.07616528944911
 20
60.379522444467597
 30
0.0
  0
VERTEX
  5
6067
  8
0
 10
230.9821279429103
 20
60.11378356281174
 30
0.0
  0
VERTEX
  5
6068
  8
0
 10
230.8870570169168
 20
59.845123902779271
 30
0.0
  0
VERTEX
  5
6069
  8
0
 10
230.8391185131685
 20
59.709655125285678
 30
0.0
  0
SEQEND
  5
606A
  8
0
  0
LINE
  5
5144
  8
0
 10
231.6301991131445
 20
59.088497295065054
 30
0.0
 11
231.61376915500821
 21
59.019995269000809
 31
0.0
  0
POLYLINE
  5
5145
  8
0
 66
     1
 10
0.0
 20
0.0
 30
0.0
  0
VERTEX
  5
606B
  8
0
 10
231.61376915500821
 20
59.019995269000809
 30
0.0
  0
VERTEX
  5
606C
  8
0
 10
231.5811570483381
 20
58.884024418521847
 30
0.0
  0
VERTEX
  5
606D
  8
0
 10
231.51541212515281
 20
58.609911702940877
 30
0.0
  0
VERTEX
  5
606E
  8
0
 10
231.4489445890446
 20
58.332786170840869
 30
0.0
  0
VERTEX
  5
606F
  8
0
 10
231.4154290405678
 20
58.193048567356641
 30
0.0
  0
SEQEND
  5
6070
  8
0
  0
LINE
  5
5146
  8
0
 10
232.26710469168469
 20
57.657983944159128
 30
0.0
 11
232.2579251500934
 21
57.588139781085601
 31
0.0
  0
POLYLINE
  5
5147
  8
0
 66
     1
 10
0.0
 20
0.0
 30
0.0
  0
VERTEX
  5
6071
  8
0
 10
232.2579251500934
 20
57.588139781085601
 30
0.0
  0
VERTEX
  5
6072
  8
0
 10
232.2397045200056
 20
57.449504899758459
 30
0.0
  0
VERTEX
  5
6073
  8
0
 10
232.20297233531031
 20
57.170021586526019
 30
0.0
  0
VERTEX
  5
6074
  8
0
 10
232.16583642132221
 20
56.887466427680209
 30
0.0
  0
VERTEX
  5
6075
  8
0
 10
232.1471110314796
 20
56.744990992631102
 30
0.0
  0
SEQEND
  5
6076
  8
0
  0
LINE
  5
5148
  8
0
 10
233.05005059707909
 20
56.301881856437937
 30
0.0
 11
233.04822204501141
 21
56.231460783621628
 31
0.0
  0
POLYLINE
  5
5149
  8
0
 66
     1
 10
0.0
 20
0.0
 30
0.0
  0
VERTEX
  5
6077
  8
0
 10
233.04822204501141
 20
56.231460783621628
 30
0.0
  0
VERTEX
  5
6078
  8
0
 10
233.0445925205421
 20
56.091680784216969
 30
0.0
  0
VERTEX
  5
6079
  8
0
 10
233.03727551983911
 20
55.809888950998563
 30
0.0
  0
VERTEX
  5
607A
  8
0
 10
233.02987809681591
 20
55.524999898856088
 30
0.0
  0
VERTEX
  5
607B
  8
0
 10
233.0261480248972
 20
55.381347622923329
 30
0.0
  0
SEQEND
  5
607C
  8
0
  0
LINE
  5
514A
  8
0
 10
233.97045871014649
 20
55.035048770157182
 30
0.0
 11
233.97600118160139
 21
54.964822335608368
 31
0.0
  0
POLYLINE
  5
514B
  8
0
 66
     1
 10
0.0
 20
0.0
 30
0.0
  0
VERTEX
  5
607D
  8
0
 10
233.97600118160139
 20
54.964822335608368
 30
0.0
  0
VERTEX
  5
607E
  8
0
 10
233.98700252858021
 20
54.825428677051008
 30
0.0
  0
VERTEX
  5
607F
  8
0
 10
234.0091808784602
 20
54.544415694140007
 30
0.0
  0
VERTEX
  5
6080
  8
0
 10
234.03160299411661
 20
54.260314052772628
 30
0.0
  0
VERTEX
  5
6081
  8
0
 10
234.04290910757041
 20
54.117058820352533
 30
0.0
  0
SEQEND
  5
6082
  8
0
  0
LINE
  5
514C
  8
0
 10
235.01824484699191
 20
53.871364373711998
 30
0.0
 11
235.03109761749249
 21
53.802101992943477
 31
0.0
  0
POLYLINE
  5
514D
  8
0
 66
     1
 10
0.0
 20
0.0
 30
0.0
  0
VERTEX
  5
6083
  8
0
 10
235.03109761749249
 20
53.802101992943477
 30
0.0
  0
VERTEX
  5
6084
  8
0
 10
235.05660930285981
 20
53.664621901325937
 30
0.0
  0
VERTEX
  5
6085
  8
0
 10
235.10804001268059
 20
53.38746660576922
 30
0.0
  0
VERTEX
  5
6086
  8
0
 10
235.16003600562519
 20
53.107265052212313
 30
0.0
  0
VERTEX
  5
6087
  8
0
 10
235.18625443230641
 20
52.965976397609118
 30
0.0
  0
SEQEND
  5
6088
  8
0
  0
LINE
  5
514E
  8
0
 10
236.18192924343711
 20
52.823578236866467
 30
0.0
 11
236.20195149534001
 21
52.756038763015958
 31
0.0
  0
POLYLINE
  5
514F
  8
0
 66
     1
 10
0.0
 20
0.0
 30
0.0
  0
VERTEX
  5
6089
  8
0
 10
236.20195149534001
 20
52.756038763015987
 30
0.0
  0
VERTEX
  5
608A
  8
0
 10
236.24169400773221
 20
52.621978498992007
 30
0.0
  0
VERTEX
  5
608B
  8
0
 10
236.32181359187439
 20
52.351717462205862
 30
0.0
  0
VERTEX
  5
608C
  8
0
 10
236.40281378312781
 20
52.078485943315833
 30
0.0
  0
VERTEX
  5
608D
  8
0
 10
236.44365726846721
 20
51.940711854596138
 30
0.0
  0
SEQEND
  5
608E
  8
0
  0
LINE
  5
5150
  8
0
 10
237.44876232971779
 20
51.903170123799207
 30
0.0
 11
237.47573469504141
 21
51.838093533475814
 31
0.0
  0
POLYLINE
  5
5151
  8
0
 66
     1
 10
0.0
 20
0.0
 30
0.0
  0
VERTEX
  5
608F
  8
0
 10
237.47573469504141
 20
51.838093533475814
 30
0.0
  0
VERTEX
  5
6090
  8
0
 10
237.5292726071761
 20
51.708921889351778
 30
0.0
  0
VERTEX
  5
6091
  8
0
 10
237.6372032587096
 20
51.448516147811141
 30
0.0
  0
VERTEX
  5
6092
  8
0
 10
237.74632019322601
 20
51.185248245286459
 30
0.0
  0
VERTEX
  5
6093
  8
0
 10
237.80134124745121
 20
51.052498204197292
 30
0.0
  0
SEQEND
  5
6094
  8
0
  0
LINE
  5
5152
  8
0
 10
238.80486441743901
 20
51.120224218404751
 30
0.0
 11
238.83849138130441
 21
51.05832350435022
 31
0.0
  0
POLYLINE
  5
5153
  8
0
 66
     1
 10
0.0
 20
0.0
 30
0.0
  0
VERTEX
  5
6095
  8
0
 10
238.83849138130441
 20
51.05832350435022
 30
0.0
  0
VERTEX
  5
6096
  8
0
 10
238.90523812061269
 20
50.93545571169016
 30
0.0
  0
VERTEX
  5
6097
  8
0
 10
239.0397973287335
 20
50.68775832519259
 30
0.0
  0
VERTEX
  5
6098
  8
0
 10
239.1758354985441
 20
50.437338457265547
 30
0.0
  0
VERTEX
  5
6099
  8
0
 10
239.24443129947099
 20
50.311066901036916
 30
0.0
  0
SEQEND
  5
609A
  8
0
  0
LINE
  5
5154
  8
0
 10
240.23537776834499
 20
50.483318639864621
 30
0.0
 11
240.2752909066991
 21
50.425271999255621
 31
0.0
  0
POLYLINE
  5
5155
  8
0
 66
     1
 10
0.0
 20
0.0
 30
0.0
  0
VERTEX
  5
609B
  8
0
 10
240.2752909066991
 20
50.425271999255642
 30
0.0
  0
VERTEX
  5
609C
  8
0
 10
240.35451518193739
 20
50.31005422330778
 30
0.0
  0
VERTEX
  5
609D
  8
0
 10
240.51422868780301
 20
50.077779016253771
 30
0.0
  0
VERTEX
  5
609E
  8
0
 10
240.6756976302517
 20
49.842950835401012
 30
0.0
  0
VERTEX
  5
609F
  8
0
 10
240.75711662793071
 20
49.724541221626993
 30
0.0
  0
SEQEND
  5
60A0
  8
0
  0
LINE
  5
5156
  8
0
 10
241.72462937880891
 20
49.999431458978279
 30
0.0
 11
241.77039139495571
 21
49.945874862956423
 31
0.0
  0
POLYLINE
  5
5157
  8
0
 66
     1
 10
0.0
 20
0.0
 30
0.0
  0
VERTEX
  5
60A1
  8
0
 10
241.77039139495571
 20
49.945874862956423
 30
0.0
  0
VERTEX
  5
60A2
  8
0
 10
241.8612252083858
 20
49.839569453784797
 30
0.0
  0
VERTEX
  5
60A3
  8
0
 10
242.0443431574038
 20
49.625261281949598
 30
0.0
  0
VERTEX
  5
60A4
  8
0
 10
242.22947378496741
 20
49.408597614861662
 30
0.0
  0
VERTEX
  5
60A5
  8
0
 10
242.32282393582199
 20
49.29934726404948
 30
0.0
  0
SEQEND
  5
60A6
  8
0
  0
LINE
  5
5158
  8
0
 10
243.25630269654081
 20
49.673864244959482
 30
0.0
 11
243.307412212255
 21
49.625384470798188
 31
0.0
  0
POLYLINE
  5
5159
  8
0
 66
     1
 10
0.0
 20
0.0
 30
0.0
  0
VERTEX
  5
60A7
  8
0
 10
243.307412212255
 20
49.625384470798217
 30
0.0
  0
VERTEX
  5
60A8
  8
0
 10
243.4088603696089
 20
49.529156132711393
 30
0.0
  0
VERTEX
  5
60A9
  8
0
 10
243.61337648320969
 20
49.335163001272662
 30
0.0
  0
VERTEX
  5
60AA
  8
0
 10
243.8201404659913
 20
49.139037660426048
 30
0.0
  0
VERTEX
  5
60AB
  8
0
 10
243.9243990062343
 20
49.040143542281179
 30
0.0
  0
SEQEND
  5
60AC
  8
0
  0
LINE
  5
515A
  8
0
 10
244.8136163881482
 20
49.510183980334318
 30
0.0
 11
244.86951343688031
 21
49.467312182584379
 31
0.0
  0
POLYLINE
  5
515B
  8
0
 66
     1
 10
0.0
 20
0.0
 30
0.0
  0
VERTEX
  5
60AD
  8
0
 10
244.86951343688031
 20
49.467312182584379
 30
0.0
  0
VERTEX
  5
60AE
  8
0
 10
244.98046445091649
 20
49.382215213391667
 30
0.0
  0
VERTEX
  5
60AF
  8
0
 10
245.20413800776191
 20
49.210662551692927
 30
0.0
  0
VERTEX
  5
60B0
  8
0
 10
245.43026999629839
 20
49.037224327363667
 30
0.0
  0
VERTEX
  5
60B1
  8
0
 10
245.544294647545
 20
48.949769946539647
 30
0.0
  0
SEQEND
  5
60B2
  8
0
  0
LINE
  5
515C
  8
0
 10
246.37950819893709
 20
49.510183980334318
 30
0.0
 11
246.43958036092391
 21
49.473389871383368
 31
0.0
  0
POLYLINE
  5
515D
  8
0
 66
     1
 10
0.0
 20
0.0
 30
0.0
  0
VERTEX
  5
60B3
  8
0
 10
246.43958036092391
 20
49.473389871383368
 30
0.0
  0
VERTEX
  5
60B4
  8
0
 10
246.5588186291146
 20
49.400356611287009
 30
0.0
  0
VERTEX
  5
60B5
  8
0
 10
246.79919901490911
 20
49.253123986189529
 30
0.0
  0
VERTEX
  5
60B6
  8
0
 10
247.04222145981299
 20
49.104273103857622
 30
0.0
  0
VERTEX
  5
60B7
  8
0
 10
247.164762944123
 20
49.029216628851692
 30
0.0
  0
SEQEND
  5
60B8
  8
0
  0
LINE
  5
515E
  8
0
 10
247.93682189054451
 20
49.673864244959482
 30
0.0
 11
248.00041100260839
 21
49.64355094876484
 31
0.0
  0
POLYLINE
  5
515F
  8
0
 66
     1
 10
0.0
 20
0.0
 30
0.0
  0
VERTEX
  5
60B9
  8
0
 10
248.00041100260839
 20
49.64355094876484
 30
0.0
  0
VERTEX
  5
60BA
  8
0
 10
248.126630125535
 20
49.58338156544562
 30
0.0
  0
VERTEX
  5
60BB
  8
0
 10
248.38108368246921
 20
49.462082088400372
 30
0.0
  0
VERTEX
  5
60BC
  8
0
 10
248.6383339789783
 20
49.339449389481672
 30
0.0
  0
VERTEX
  5
60BD
  8
0
 10
248.76804970620611
 20
49.277613154740642
 30
0.0
  0
SEQEND
  5
60BE
  8
0
  0
LINE
  5
5160
  8
0
 10
249.46849520827641
 20
49.999431458978279
 30
0.0
 11
249.53490457479879
 21
49.975931094356518
 31
0.0
  0
POLYLINE
  5
5161
  8
0
 66
     1
 10
0.0
 20
0.0
 30
0.0
  0
VERTEX
  5
60BF
  8
0
 10
249.53490457479879
 20
49.975931094356518
 30
0.0
  0
VERTEX
  5
60C0
  8
0
 10
249.6667216693377
 20
49.929284816169201
 30
0.0
  0
VERTEX
  5
60C1
  8
0
 10
249.9324605509938
 20
49.835247469630268
 30
0.0
  0
VERTEX
  5
60C2
  8
0
 10
250.20112021102639
 20
49.740176543636842
 30
0.0
  0
VERTEX
  5
60C3
  8
0
 10
250.33658898851971
 20
49.692238039888501
 30
0.0
  0
SEQEND
  5
60C4
  8
0
  0
LINE
  5
5162
  8
0
 10
250.95774681874039
 20
50.483318639864592
 30
0.0
 11
251.0262488448046
 21
50.466888681728278
 31
0.0
  0
POLYLINE
  5
5163
  8
0
 66
     1
 10
0.0
 20
0.0
 30
0.0
  0
VERTEX
  5
60C5
  8
0
 10
251.0262488448046
 20
50.466888681728278
 30
0.0
  0
VERTEX
  5
60C6
  8
0
 10
251.1622196952834
 20
50.434276575058128
 30
0.0
  0
VERTEX
  5
60C7
  8
0
 10
251.43633241086451
 20
50.368531651872843
 30
0.0
  0
VERTEX
  5
60C8
  8
0
 10
251.7134579429646
 20
50.302064115764637
 30
0.0
  0
VERTEX
  5
60C9
  8
0
 10
251.85319554644869
 20
50.268548567287837
 30
0.0
  0
SEQEND
  5
60CA
  8
0
  0
LINE
  5
5164
  8
0
 10
252.38826016964629
 20
51.120224218404751
 30
0.0
 11
252.45810433271981
 21
51.1110446768134
 31
0.0
  0
POLYLINE
  5
5165
  8
0
 66
     1
 10
0.0
 20
0.0
 30
0.0
  0
VERTEX
  5
60CB
  8
0
 10
252.45810433271981
 20
51.1110446768134
 30
0.0
  0
VERTEX
  5
60CC
  8
0
 10
252.5967392140472
 20
51.09282404672561
 30
0.0
  0
VERTEX
  5
60CD
  8
0
 10
252.8762225272794
 20
51.056091862030343
 30
0.0
  0
VERTEX
  5
60CE
  8
0
 10
253.15877768612501
 20
51.018955948042219
 30
0.0
  0
VERTEX
  5
60CF
  8
0
 10
253.3012531211742
 20
51.000230558199661
 30
0.0
  0
SEQEND
  5
60D0
  8
0
  0
LINE
  5
5166
  8
0
 10
253.7443622573675
 20
51.903170123799178
 30
0.0
 11
253.81478333018379
 21
51.90134157173145
 31
0.0
  0
POLYLINE
  5
5167
  8
0
 66
     1
 10
0.0
 20
0.0
 30
0.0
  0
VERTEX
  5
60D1
  8
0
 10
253.81478333018379
 20
51.90134157173145
 30
0.0
  0
VERTEX
  5
60D2
  8
0
 10
253.9545633295883
 20
51.897712047262161
 30
0.0
  0
VERTEX
  5
60D3
  8
0
 10
254.23635516280669
 20
51.890395046559149
 30
0.0
  0
VERTEX
  5
60D4
  8
0
 10
254.52124421494929
 20
51.882997623535907
 30
0.0
  0
VERTEX
  5
60D5
  8
0
 10
254.664896490882
 20
51.879267551617261
 30
0.0
  0
SEQEND
  5
60D6
  8
0
  0
LINE
  5
5168
  8
0
 10
255.01119534364821
 20
52.823578236866467
 30
0.0
 11
255.08142177819701
 21
52.829120708321433
 31
0.0
  0
POLYLINE
  5
5169
  8
0
 66
     1
 10
0.0
 20
0.0
 30
0.0
  0
VERTEX
  5
60D7
  8
0
 10
255.08142177819701
 20
52.829120708321433
 30
0.0
  0
VERTEX
  5
60D8
  8
0
 10
255.22081543675449
 20
52.840122055300242
 30
0.0
  0
VERTEX
  5
60D9
  8
0
 10
255.50182841966529
 20
52.862300405180342
 30
0.0
  0
VERTEX
  5
60DA
  8
0
 10
255.78593006103259
 20
52.884722520836682
 30
0.0
  0
VERTEX
  5
60DB
  8
0
 10
255.92918529345289
 20
52.896028634290452
 30
0.0
  0
SEQEND
  5
60DC
  8
0
  0
LINE
  5
516A
  8
0
 10
256.17487974009339
 20
53.871364373711998
 30
0.0
 11
256.24414212086191
 21
53.884217144212549
 31
0.0
  0
POLYLINE
  5
516B
  8
0
 66
     1
 10
0.0
 20
0.0
 30
0.0
  0
VERTEX
  5
60DD
  8
0
 10
256.24414212086191
 20
53.884217144212549
 30
0.0
  0
VERTEX
  5
60DE
  8
0
 10
256.38162221247927
 20
53.909728829579791
 30
0.0
  0
VERTEX
  5
60DF
  8
0
 10
256.65877750803622
 20
53.961159539400647
 30
0.0
  0
VERTEX
  5
60E0
  8
0
 10
256.93897906159327
 20
54.013155532345309
 30
0.0
  0
VERTEX
  5
60E1
  8
0
 10
257.0802677161962
 20
54.039373959026513
 30
0.0
  0
SEQEND
  5
60E2
  8
0
  0
LINE
  5
516C
  8
0
 10
257.22266587693889
 20
55.035048770157182
 30
0.0
 11
257.29020535078939
 21
55.055071022060098
 31
0.0
  0
POLYLINE
  5
516D
  8
0
 66
     1
 10
0.0
 20
0.0
 30
0.0
  0
VERTEX
  5
60E3
  8
0
 10
257.29020535078939
 20
55.055071022060098
 30
0.0
  0
VERTEX
  5
60E4
  8
0
 10
257.42426561481329
 20
55.094813534452271
 30
0.0
  0
VERTEX
  5
60E5
  8
0
 10
257.69452665159952
 20
55.174933118594453
 30
0.0
  0
VERTEX
  5
60E6
  8
0
 10
257.96775817048962
 20
55.255933309847848
 30
0.0
  0
VERTEX
  5
60E7
  8
0
 10
258.10553225920921
 20
55.296776795187242
 30
0.0
  0
SEQEND
  5
60E8
  8
0
  0
LINE
  5
516E
  8
0
 10
258.1430739900062
 20
56.301881856437923
 30
0.0
 11
258.20815058032957
 21
56.328854221761482
 31
0.0
  0
POLYLINE
  5
516F
  8
0
 66
     1
 10
0.0
 20
0.0
 30
0.0
  0
VERTEX
  5
60E9
  8
0
 10
258.20815058032952
 20
56.328854221761482
 30
0.0
  0
VERTEX
  5
60EA
  8
0
 10
258.3373222244536
 20
56.382392133896161
 30
0.0
  0
VERTEX
  5
60EB
  8
0
 10
258.59772796599418
 20
56.490322785429697
 30
0.0
  0
VERTEX
  5
60EC
  8
0
 10
258.8609958685189
 20
56.59943971994602
 30
0.0
  0
VERTEX
  5
60ED
  8
0
 10
258.99374590960809
 20
56.654460774171213
 30
0.0
  0
SEQEND
  5
60EE
  8
0
  0
LINE
  5
5170
  8
0
 10
258.9260198954006
 20
57.657983944159092
 30
0.0
 11
258.9879206094551
 21
57.691610908024451
 31
0.0
  0
POLYLINE
  5
5171
  8
0
 66
     1
 10
0.0
 20
0.0
 30
0.0
  0
VERTEX
  5
60EF
  8
0
 10
258.9879206094551
 20
57.691610908024451
 30
0.0
  0
VERTEX
  5
60F0
  8
0
 10
259.11078840211508
 20
57.758357647332637
 30
0.0
  0
VERTEX
  5
60F1
  8
0
 10
259.35848578861271
 20
57.892916855453542
 30
0.0
  0
VERTEX
  5
60F2
  8
0
 10
259.60890565654
 20
58.028955025264167
 30
0.0
  0
VERTEX
  5
60F3
  8
0
 10
259.73517721276852
 20
58.097550826191053
 30
0.0
  0
SEQEND
  5
60F4
  8
0
  0
LINE
  5
5172
  8
0
 10
259.56292547394082
 20
59.088497295065032
 30
0.0
 11
259.62097211454977
 21
59.128410433419162
 31
0.0
  0
POLYLINE
  5
5173
  8
0
 66
     1
 10
0.0
 20
0.0
 30
0.0
  0
VERTEX
  5
60F5
  8
0
 10
259.62097211454977
 20
59.128410433419162
 30
0.0
  0
VERTEX
  5
60F6
  8
0
 10
259.7361898904976
 20
59.207634708657423
 30
0.0
  0
VERTEX
  5
60F7
  8
0
 10
259.96846509755159
 20
59.367348214523112
 30
0.0
  0
VERTEX
  5
60F8
  8
0
 10
260.20329327840437
 20
59.528817156971712
 30
0.0
  0
VERTEX
  5
60F9
  8
0
 10
260.32170289217839
 20
59.610236154650799
 30
0.0
  0
SEQEND
  5
60FA
  8
0
  0
LINE
  5
5174
  8
0
 10
260.04681265482708
 20
60.577748905528999
 30
0.0
 11
260.10036925084893
 21
60.623510921675781
 31
0.0
  0
POLYLINE
  5
5175
  8
0
 66
     1
 10
0.0
 20
0.0
 30
0.0
  0
VERTEX
  5
60FB
  8
0
 10
260.10036925084898
 20
60.623510921675781
 30
0.0
  0
VERTEX
  5
60FC
  8
0
 10
260.20667466002072
 20
60.714344735105918
 30
0.0
  0
VERTEX
  5
60FD
  8
0
 10
260.42098283185578
 20
60.897462684123781
 30
0.0
  0
VERTEX
  5
60FE
  8
0
 10
260.63764649894358
 20
61.082593311687297
 30
0.0
  0
VERTEX
  5
60FF
  8
0
 10
260.7468968497559
 20
61.175943462542108
 30
0.0
  0
SEQEND
  5
6100
  8
0
  0
LINE
  5
5176
  8
0
 10
260.37237986884588
 20
62.109422223260879
 30
0.0
 11
260.42085964300708
 21
62.16053173897501
 31
0.0
  0
POLYLINE
  5
5177
  8
0
 66
     1
 10
0.0
 20
0.0
 30
0.0
  0
VERTEX
  5
6101
  8
0
 10
260.42085964300708
 20
62.16053173897501
 30
0.0
  0
VERTEX
  5
6102
  8
0
 10
260.51708798109388
 20
62.261979896328832
 30
0.0
  0
VERTEX
  5
6103
  8
0
 10
260.71108111253272
 20
62.466496009929671
 30
0.0
  0
VERTEX
  5
6104
  8
0
 10
260.9072064533795
 20
62.673259992711543
 30
0.0
  0
VERTEX
  5
6105
  8
0
 10
261.0061005715242
 20
62.777518532954389
 30
0.0
  0
SEQEND
  5
6106
  8
0
  0
LINE
  5
5178
  8
0
 10
260.5360601334711
 20
63.666735914868269
 30
0.0
 11
260.57893193122101
 21
63.722632963600311
 31
0.0
  0
POLYLINE
  5
5179
  8
0
 66
     1
 10
0.0
 20
0.0
 30
0.0
  0
VERTEX
  5
6107
  8
0
 10
260.57893193122101
 20
63.722632963600311
 30
0.0
  0
VERTEX
  5
6108
  8
0
 10
260.66402890041348
 20
63.83358397763633
 30
0.0
  0
VERTEX
  5
6109
  8
0
 10
260.8355815621124
 20
64.05725753448192
 30
0.0
  0
VERTEX
  5
610A
  8
0
 10
261.00901978644191
 20
64.283389523018684
 30
0.0
  0
VERTEX
  5
610B
  8
0
 10
261.0964741672658
 20
64.397414174265094
 30
0.0
  0
SEQEND
  5
610C
  8
0
  0
LINE
  5
517A
  8
0
 10
260.5360601334711
 20
65.232627725657153
 30
0.0
 11
260.57285424242201
 21
65.292699887643948
 31
0.0
  0
POLYLINE
  5
517B
  8
0
 66
     1
 10
0.0
 20
0.0
 30
0.0
  0
VERTEX
  5
610D
  8
0
 10
260.57285424242201
 20
65.292699887643948
 30
0.0
  0
VERTEX
  5
610E
  8
0
 10
260.64588750251841
 20
65.411938155834662
 30
0.0
  0
VERTEX
  5
610F
  8
0
 10
260.79312012761591
 20
65.652318541629199
 30
0.0
  0
VERTEX
  5
6110
  8
0
 10
260.94197100994779
 20
65.895340986533057
 30
0.0
  0
VERTEX
  5
6111
  8
0
 10
261.0170274849537
 20
66.017882470843034
 30
0.0
  0
SEQEND
  5
6112
  8
0
  0
LINE
  5
517C
  8
0
 10
260.37237986884588
 20
66.789941417264572
 30
0.0
 11
260.40269316504049
 21
66.853530529328481
 31
0.0
  0
POLYLINE
  5
517D
  8
0
 66
     1
 10
0.0
 20
0.0
 30
0.0
  0
VERTEX
  5
6113
  8
0
 10
260.40269316504049
 20
66.853530529328481
 30
0.0
  0
VERTEX
  5
6114
  8
0
 10
260.46286254835979
 20
66.97974965225518
 30
0.0
  0
VERTEX
  5
6115
  8
0
 10
260.58416202540502
 20
67.234203209189303
 30
0.0
  0
VERTEX
  5
6116
  8
0
 10
260.70679472432369
 20
67.49145350569836
 30
0.0
  0
VERTEX
  5
6117
  8
0
 10
260.76863095906469
 20
67.621169232926178
 30
0.0
  0
SEQEND
  5
6118
  8
0
  0
LINE
  5
517E
  8
0
 10
260.04681265482708
 20
68.321614734996416
 30
0.0
 11
260.07031301944892
 21
68.388024101518823
 31
0.0
  0
POLYLINE
  5
517F
  8
0
 66
     1
 10
0.0
 20
0.0
 30
0.0
  0
VERTEX
  5
6119
  8
0
 10
260.07031301944892
 20
68.388024101518823
 30
0.0
  0
VERTEX
  5
611A
  8
0
 10
260.11695929763619
 20
68.519841196057797
 30
0.0
  0
VERTEX
  5
611B
  8
0
 10
260.21099664417511
 20
68.785580077713803
 30
0.0
  0
VERTEX
  5
611C
  8
0
 10
260.30606757016852
 20
69.054239737746315
 30
0.0
  0
VERTEX
  5
611D
  8
0
 10
260.35400607391688
 20
69.189708515239744
 30
0.0
  0
SEQEND
  5
611E
  8
0
  0
LINE
  5
5180
  8
0
 10
259.56292547394082
 20
69.810866345460425
 30
0.0
 11
259.57935543207708
 21
69.879368371524606
 31
0.0
  0
POLYLINE
  5
5181
  8
0
 66
     1
 10
0.0
 20
0.0
 30
0.0
  0
VERTEX
  5
611F
  8
0
 10
259.57935543207708
 20
69.879368371524606
 30
0.0
  0
VERTEX
  5
6120
  8
0
 10
259.61196753874719
 20
70.015339222003405
 30
0.0
  0
VERTEX
  5
6121
  8
0
 10
259.67771246193251
 20
70.289451937584516
 30
0.0
  0
VERTEX
  5
6122
  8
0
 10
259.74417999804081
 20
70.566577469684674
 30
0.0
  0
VERTEX
  5
6123
  8
0
 10
259.77769554651752
 20
70.706315073168781
 30
0.0
  0
SEQEND
  5
6124
  8
0
  0
LINE
  5
5182
  8
0
 10
258.9260198954006
 20
71.241379696366351
 30
0.0
 11
258.93519943699198
 21
71.311223859439792
 31
0.0
  0
POLYLINE
  5
5183
  8
0
 66
     1
 10
0.0
 20
0.0
 30
0.0
  0
VERTEX
  5
6125
  8
0
 10
258.93519943699198
 20
71.311223859439792
 30
0.0
  0
VERTEX
  5
6126
  8
0
 10
258.95342006707978
 20
71.449858740766985
 30
0.0
  0
VERTEX
  5
6127
  8
0
 10
258.9901522517751
 20
71.729342053999432
 30
0.0
  0
VERTEX
  5
6128
  8
0
 10
259.0272881657632
 20
72.011897212845184
 30
0.0
  0
VERTEX
  5
6129
  8
0
 10
259.04601355560573
 20
72.154372647894292
 30
0.0
  0
SEQEND
  5
612A
  8
0
  0
LINE
  5
5184
  8
0
 10
258.1430739900062
 20
72.597481784087535
 30
0.0
 11
258.14490254207402
 21
72.667902856903794
 31
0.0
  0
POLYLINE
  5
5185
  8
0
 66
     1
 10
0.0
 20
0.0
 30
0.0
  0
VERTEX
  5
612B
  8
0
 10
258.14490254207402
 20
72.667902856903794
 30
0.0
  0
VERTEX
  5
612C
  8
0
 10
258.14853206654323
 20
72.807682856308332
 30
0.0
  0
VERTEX
  5
612D
  8
0
 10
258.15584906724632
 20
73.089474689526782
 30
0.0
  0
VERTEX
  5
612E
  8
0
 10
258.1632464902695
 20
73.374363741669356
 30
0.0
  0
VERTEX
  5
612F
  8
0
 10
258.1669765621881
 20
73.518016017602093
 30
0.0
  0
SEQEND
  5
6130
  8
0
  0
LINE
  5
5186
  8
0
 10
257.22266587693889
 20
73.864314870368304
 30
0.0
 11
257.21712340548402
 21
73.934541304917033
 31
0.0
  0
POLYLINE
  5
5187
  8
0
 66
     1
 10
0.0
 20
0.0
 30
0.0
  0
VERTEX
  5
6131
  8
0
 10
257.21712340548402
 20
73.934541304917033
 30
0.0
  0
VERTEX
  5
6132
  8
0
 10
257.20612205850517
 20
74.073934963474557
 30
0.0
  0
VERTEX
  5
6133
  8
0
 10
257.18394370862501
 20
74.354947946385437
 30
0.0
  0
VERTEX
  5
6134
  8
0
 10
257.16152159296871
 20
74.639049587752723
 30
0.0
  0
VERTEX
  5
6135
  8
0
 10
257.15021547951488
 20
74.782304820172868
 30
0.0
  0
SEQEND
  5
6136
  8
0
  0
LINE
  5
5188
  8
0
 10
256.17487974009339
 20
75.027999266813481
 30
0.0
 11
256.16202696959277
 21
75.097261647581973
 31
0.0
  0
POLYLINE
  5
5189
  8
0
 66
     1
 10
0.0
 20
0.0
 30
0.0
  0
VERTEX
  5
6137
  8
0
 10
256.16202696959277
 20
75.097261647581973
 30
0.0
  0
VERTEX
  5
6138
  8
0
 10
256.1365152842256
 20
75.234741739199279
 30
0.0
  0
VERTEX
  5
6139
  8
0
 10
256.08508457440468
 20
75.511897034756259
 30
0.0
  0
VERTEX
  5
613A
  8
0
 10
256.03308858146011
 20
75.792098588313337
 30
0.0
  0
VERTEX
  5
613B
  8
0
 10
256.00687015477888
 20
75.933387242916297
 30
0.0
  0
SEQEND
  5
613C
  8
0
  0
LINE
  5
518A
  8
0
 10
255.01119534364821
 20
76.075785403659012
 30
0.0
 11
254.99117309174531
 21
76.143324877509457
 31
0.0
  0
POLYLINE
  5
518B
  8
0
 66
     1
 10
0.0
 20
0.0
 30
0.0
  0
VERTEX
  5
613D
  8
0
 10
254.99117309174531
 20
76.143324877509457
 30
0.0
  0
VERTEX
  5
613E
  8
0
 10
254.95143057935309
 20
76.277385141533472
 30
0.0
  0
VERTEX
  5
613F
  8
0
 10
254.87131099521091
 20
76.547646178319638
 30
0.0
  0
VERTEX
  5
6140
  8
0
 10
254.79031080395751
 20
76.820877697209625
 30
0.0
  0
VERTEX
  5
6141
  8
0
 10
254.74946731861809
 20
76.958651785929277
 30
0.0
  0
SEQEND
  5
6142
  8
0
  0
LINE
  5
518C
  8
0
 10
253.7443622573675
 20
76.996193516726265
 30
0.0
 11
253.71738989204391
 21
77.061270107049594
 31
0.0
  0
POLYLINE
  5
518D
  8
0
 66
     1
 10
0.0
 20
0.0
 30
0.0
  0
VERTEX
  5
6143
  8
0
 10
253.71738989204391
 20
77.061270107049594
 30
0.0
  0
VERTEX
  5
6144
  8
0
 10
253.6638519799094
 20
77.190441751173381
 30
0.0
  0
VERTEX
  5
6145
  8
0
 10
253.55592132837569
 20
77.450847492714217
 30
0.0
  0
VERTEX
  5
6146
  8
0
 10
253.44680439385931
 20
77.714115395239162
 30
0.0
  0
VERTEX
  5
6147
  8
0
 10
253.3917833396342
 20
77.846865436328144
 30
0.0
  0
SEQEND
  5
6148
  8
0
  0
LINE
  5
518E
  8
0
 10
252.38826016964629
 20
77.779139422120721
 30
0.0
 11
252.35463320578091
 21
77.841040136175224
 31
0.0
  0
POLYLINE
  5
518F
  8
0
 66
     1
 10
0.0
 20
0.0
 30
0.0
  0
VERTEX
  5
6149
  8
0
 10
252.35463320578091
 20
77.841040136175224
 30
0.0
  0
VERTEX
  5
614A
  8
0
 10
252.28788646647271
 20
77.963907928835312
 30
0.0
  0
VERTEX
  5
614B
  8
0
 10
252.15332725835191
 20
78.211605315332832
 30
0.0
  0
VERTEX
  5
614C
  8
0
 10
252.0172890885413
 20
78.462025183259811
 30
0.0
  0
VERTEX
  5
614D
  8
0
 10
251.94869328761439
 20
78.588296739488499
 30
0.0
  0
SEQEND
  5
614E
  8
0
  0
LINE
  5
5190
  8
0
 10
250.95774681874039
 20
78.416045000660858
 30
0.0
 11
250.9178336803862
 21
78.474091641269808
 31
0.0
  0
POLYLINE
  5
5191
  8
0
 66
     1
 10
0.0
 20
0.0
 30
0.0
  0
VERTEX
  5
614F
  8
0
 10
250.9178336803862
 20
78.474091641269808
 30
0.0
  0
VERTEX
  5
6150
  8
0
 10
250.83860940514799
 20
78.589309417217606
 30
0.0
  0
VERTEX
  5
6151
  8
0
 10
250.6788958992824
 20
78.821584624271594
 30
0.0
  0
VERTEX
  5
6152
  8
0
 10
250.5174269568337
 20
79.056412805124381
 30
0.0
  0
VERTEX
  5
6153
  8
0
 10
250.43600795915461
 20
79.174822418898458
 30
0.0
  0
SEQEND
  5
6154
  8
0
  0
LINE
  5
5192
  8
0
 10
249.46849520827641
 20
78.8999321815472
 30
0.0
 11
249.4227331921297
 21
78.953488777568992
 31
0.0
  0
POLYLINE
  5
5193
  8
0
 66
     1
 10
0.0
 20
0.0
 30
0.0
  0
VERTEX
  5
6155
  8
0
 10
249.4227331921297
 20
78.953488777568992
 30
0.0
  0
VERTEX
  5
6156
  8
0
 10
249.33189937869949
 20
79.059794186740646
 30
0.0
  0
VERTEX
  5
6157
  8
0
 10
249.14878142968161
 20
79.274102358575774
 30
0.0
  0
VERTEX
  5
6158
  8
0
 10
248.96365080211811
 20
79.49076602566376
 30
0.0
  0
VERTEX
  5
6159
  8
0
 10
248.87030065126331
 20
79.600016376475963
 30
0.0
  0
SEQEND
  5
615A
  8
0
  0
LINE
  5
5194
  8
0
 10
247.93682189054451
 20
79.225499395566004
 30
0.0
 11
247.8857123748304
 21
79.273979169727227
 31
0.0
  0
POLYLINE
  5
5195
  8
0
 66
     1
 10
0.0
 20
0.0
 30
0.0
  0
VERTEX
  5
615B
  8
0
 10
247.8857123748304
 20
79.273979169727227
 30
0.0
  0
VERTEX
  5
615C
  8
0
 10
247.7842642174765
 20
79.370207507814001
 30
0.0
  0
VERTEX
  5
615D
  8
0
 10
247.5797481038758
 20
79.564200639252732
 30
0.0
  0
VERTEX
  5
615E
  8
0
 10
247.37298412109399
 20
79.760325980099367
 30
0.0
  0
VERTEX
  5
615F
  8
0
 10
247.268725580851
 20
79.859220098244265
 30
0.0
  0
SEQEND
  5
6160
  8
0
  0
LINE
  5
5196
  8
0
 10
246.37950819893709
 20
79.389179660191161
 30
0.0
 11
246.3236111502051
 21
79.432051457941071
 31
0.0
  0
POLYLINE
  5
5197
  8
0
 66
     1
 10
0.0
 20
0.0
 30
0.0
  0
VERTEX
  5
6161
  8
0
 10
246.3236111502051
 20
79.432051457941071
 30
0.0
  0
VERTEX
  5
6162
  8
0
 10
246.21266013616889
 20
79.517148427133691
 30
0.0
  0
VERTEX
  5
6163
  8
0
 10
245.98898657932349
 20
79.68870108883246
 30
0.0
  0
VERTEX
  5
6164
  8
0
 10
245.7628545907869
 20
79.862139313161776
 30
0.0
  0
VERTEX
  5
6165
  8
0
 10
245.64882993954029
 20
79.949593693985804
 30
0.0
  0
SEQEND
  5
6166
  8
0
  0
POLYLINE
  5
5198
  8
0
 66
     1
 10
0.0
 20
0.0
 30
0.0
  0
VERTEX
  5
6167
  8
0
 10
245.544294647545
 20
79.949593693985804
 30
0.0
  0
VERTEX
  5
6168
  8
0
 10
245.43026999629839
 20
79.862139313161805
 30
0.0
  0
VERTEX
  5
6169
  8
0
 10
245.2041380077618
 20
79.68870108883246
 30
0.0
  0
VERTEX
  5
616A
  8
0
 10
244.9804644509164
 20
79.517148427133691
 30
0.0
  0
VERTEX
  5
616B
  8
0
 10
244.8695134368802
 20
79.432051457941071
 30
0.0
  0
SEQEND
  5
616C
  8
0
  0
LINE
  5
5199
  8
0
 10
244.8695134368802
 20
79.432051457941071
 30
0.0
 11
244.8136163881482
 21
79.389179660191132
 31
0.0
  0
POLYLINE
  5
519A
  8
0
 66
     1
 10
0.0
 20
0.0
 30
0.0
  0
VERTEX
  5
616D
  8
0
 10
243.9243990062343
 20
79.859220098244265
 30
0.0
  0
VERTEX
  5
616E
  8
0
 10
243.8201404659915
 20
79.760325980099481
 30
0.0
  0
VERTEX
  5
616F
  8
0
 10
243.61337648320961
 20
79.564200639252732
 30
0.0
  0
VERTEX
  5
6170
  8
0
 10
243.40886036960879
 20
79.370207507813888
 30
0.0
  0
VERTEX
  5
6171
  8
0
 10
243.307412212255
 20
79.273979169727255
 30
0.0
  0
SEQEND
  5
6172
  8
0
  0
LINE
  5
519B
  8
0
 10
243.307412212255
 20
79.273979169727255
 30
0.0
 11
243.2563026965409
 21
79.225499395565947
 31
0.0
  0
POLYLINE
  5
519C
  8
0
 66
     1
 10
0.0
 20
0.0
 30
0.0
  0
VERTEX
  5
6173
  8
0
 10
242.32282393582199
 20
79.600016376475963
 30
0.0
  0
VERTEX
  5
6174
  8
0
 10
242.2294737849673
 20
79.490766025663731
 30
0.0
  0
VERTEX
  5
6175
  8
0
 10
242.0443431574038
 20
79.274102358575846
 30
0.0
  0
VERTEX
  5
6176
  8
0
 10
241.86122520838589
 20
79.059794186740731
 30
0.0
  0
VERTEX
  5
6177
  8
0
 10
241.77039139495571
 20
78.953488777569021
 30
0.0
  0
SEQEND
  5
6178
  8
0
  0
LINE
  5
519D
  8
0
 10
241.77039139495571
 20
78.953488777569021
 30
0.0
 11
241.724629378809
 21
78.899932181547143
 31
0.0
  0
POLYLINE
  5
519E
  8
0
 66
     1
 10
0.0
 20
0.0
 30
0.0
  0
VERTEX
  5
6179
  8
0
 10
240.7571166279308
 20
79.174822418898458
 30
0.0
  0
VERTEX
  5
617A
  8
0
 10
240.6756976302517
 20
79.056412805124396
 30
0.0
  0
VERTEX
  5
617B
  8
0
 10
240.51422868780301
 20
78.821584624271651
 30
0.0
  0
VERTEX
  5
617C
  8
0
 10
240.35451518193739
 20
78.589309417217663
 30
0.0
  0
VERTEX
  5
617D
  8
0
 10
240.2752909066991
 20
78.474091641269837
 30
0.0
  0
SEQEND
  5
617E
  8
0
  0
LINE
  5
519F
  8
0
 10
240.2752909066991
 20
78.474091641269837
 30
0.0
 11
240.23537776834499
 21
78.41604500066083
 31
0.0
  0
POLYLINE
  5
51A0
  8
0
 66
     1
 10
0.0
 20
0.0
 30
0.0
  0
VERTEX
  5
617F
  8
0
 10
239.24443129947099
 20
78.588296739488527
 30
0.0
  0
VERTEX
  5
6180
  8
0
 10
239.1758354985441
 20
78.462025183259954
 30
0.0
  0
VERTEX
  5
6181
  8
0
 10
239.0397973287335
 20
78.211605315332775
 30
0.0
  0
VERTEX
  5
6182
  8
0
 10
238.90523812061261
 20
77.96390792883517
 30
0.0
  0
VERTEX
  5
6183
  8
0
 10
238.83849138130441
 20
77.841040136175224
 30
0.0
  0
SEQEND
  5
6184
  8
0
  0
LINE
  5
51A1
  8
0
 10
238.83849138130441
 20
77.841040136175224
 30
0.0
 11
238.80486441743901
 21
77.779139422120664
 31
0.0
  0
POLYLINE
  5
51A2
  8
0
 66
     1
 10
0.0
 20
0.0
 30
0.0
  0
VERTEX
  5
6185
  8
0
 10
237.80134124745121
 20
77.846865436328144
 30
0.0
  0
VERTEX
  5
6186
  8
0
 10
237.74632019322601
 20
77.714115395239133
 30
0.0
  0
VERTEX
  5
6187
  8
0
 10
237.6372032587096
 20
77.450847492714274
 30
0.0
  0
VERTEX
  5
6188
  8
0
 10
237.52927260717601
 20
77.190441751173495
 30
0.0
  0
VERTEX
  5
6189
  8
0
 10
237.47573469504141
 20
77.061270107049637
 30
0.0
  0
SEQEND
  5
618A
  8
0
  0
LINE
  5
51A3
  8
0
 10
237.47573469504141
 20
77.061270107049637
 30
0.0
 11
237.44876232971779
 21
76.996193516726237
 31
0.0
  0
POLYLINE
  5
51A4
  8
0
 66
     1
 10
0.0
 20
0.0
 30
0.0
  0
VERTEX
  5
618B
  8
0
 10
236.44365726846721
 20
76.958651785929277
 30
0.0
  0
VERTEX
  5
618C
  8
0
 10
236.40281378312781
 20
76.820877697209568
 30
0.0
  0
VERTEX
  5
618D
  8
0
 10
236.32181359187439
 20
76.547646178319496
 30
0.0
  0
VERTEX
  5
618E
  8
0
 10
236.24169400773221
 20
76.277385141533415
 30
0.0
  0
VERTEX
  5
618F
  8
0
 10
236.20195149534001
 20
76.143324877509485
 30
0.0
  0
SEQEND
  5
6190
  8
0
  0
LINE
  5
51A5
  8
0
 10
236.20195149534001
 20
76.143324877509485
 30
0.0
 11
236.18192924343711
 21
76.075785403658983
 31
0.0
  0
POLYLINE
  5
51A6
  8
0
 66
     1
 10
0.0
 20
0.0
 30
0.0
  0
VERTEX
  5
6191
  8
0
 10
235.18625443230641
 20
75.933387242916325
 30
0.0
  0
VERTEX
  5
6192
  8
0
 10
235.16003600562519
 20
75.792098588313024
 30
0.0
  0
VERTEX
  5
6193
  8
0
 10
235.10804001268059
 20
75.511897034756146
 30
0.0
  0
VERTEX
  5
6194
  8
0
 10
235.05660930285981
 20
75.234741739199507
 30
0.0
  0
VERTEX
  5
6195
  8
0
 10
235.03109761749249
 20
75.097261647581973
 30
0.0
  0
SEQEND
  5
6196
  8
0
  0
LINE
  5
51A7
  8
0
 10
235.03109761749249
 20
75.097261647582002
 30
0.0
 11
235.01824484699191
 21
75.027999266813453
 31
0.0
  0
POLYLINE
  5
51A8
  8
0
 66
     1
 10
0.0
 20
0.0
 30
0.0
  0
VERTEX
  5
6197
  8
0
 10
234.04290910757041
 20
74.782304820172925
 30
0.0
  0
VERTEX
  5
6198
  8
0
 10
234.03160299411661
 20
74.639049587752851
 30
0.0
  0
VERTEX
  5
6199
  8
0
 10
234.00918087846031
 20
74.354947946385494
 30
0.0
  0
VERTEX
  5
619A
  8
0
 10
233.98700252858021
 20
74.073934963474514
 30
0.0
  0
VERTEX
  5
619B
  8
0
 10
233.97600118160139
 20
73.934541304917076
 30
0.0
  0
SEQEND
  5
619C
  8
0
  0
LINE
  5
51A9
  8
0
 10
233.97600118160139
 20
73.934541304917076
 30
0.0
 11
233.97045871014649
 21
73.864314870368275
 31
0.0
  0
POLYLINE
  5
51AA
  8
0
 66
     1
 10
0.0
 20
0.0
 30
0.0
  0
VERTEX
  5
619D
  8
0
 10
233.0261480248972
 20
73.518016017602093
 30
0.0
  0
VERTEX
  5
619E
  8
0
 10
233.02987809681591
 20
73.374363741669299
 30
0.0
  0
VERTEX
  5
619F
  8
0
 10
233.03727551983911
 20
73.089474689526753
 30
0.0
  0
VERTEX
  5
61A0
  8
0
 10
233.0445925205421
 20
72.807682856308389
 30
0.0
  0
VERTEX
  5
61A1
  8
0
 10
233.04822204501141
 20
72.667902856903851
 30
0.0
  0
SEQEND
  5
61A2
  8
0
  0
LINE
  5
51AB
  8
0
 10
233.04822204501141
 20
72.667902856903851
 30
0.0
 11
233.05005059707909
 21
72.597481784087506
 31
0.0
  0
POLYLINE
  5
51AC
  8
0
 66
     1
 10
0.0
 20
0.0
 30
0.0
  0
VERTEX
  5
61A3
  8
0
 10
232.1471110314796
 20
72.15437264789432
 30
0.0
  0
VERTEX
  5
61A4
  8
0
 10
232.16583642132221
 20
72.011897212845156
 30
0.0
  0
VERTEX
  5
61A5
  8
0
 10
232.20297233531031
 20
71.729342053999517
 30
0.0
  0
VERTEX
  5
61A6
  8
0
 10
232.23970452000549
 20
71.449858740767155
 30
0.0
  0
VERTEX
  5
61A7
  8
0
 10
232.2579251500934
 20
71.311223859439849
 30
0.0
  0
SEQEND
  5
61A8
  8
0
  0
LINE
  5
51AD
  8
0
 10
232.2579251500934
 20
71.311223859439849
 30
0.0
 11
232.26710469168469
 21
71.241379696366323
 31
0.0
  0
POLYLINE
  5
51AE
  8
0
 66
     1
 10
0.0
 20
0.0
 30
0.0
  0
VERTEX
  5
61A9
  8
0
 10
231.4154290405678
 20
70.70631507316881
 30
0.0
  0
VERTEX
  5
61AA
  8
0
 10
231.4489445890446
 20
70.566577469684603
 30
0.0
  0
VERTEX
  5
61AB
  8
0
 10
231.51541212515281
 20
70.289451937584516
 30
0.0
  0
VERTEX
  5
61AC
  8
0
 10
231.5811570483381
 20
70.015339222003504
 30
0.0
  0
VERTEX
  5
61AD
  8
0
 10
231.61376915500821
 20
69.879368371524635
 30
0.0
  0
SEQEND
  5
61AE
  8
0
  0
LINE
  5
51AF
  8
0
 10
231.61376915500821
 20
69.879368371524635
 30
0.0
 11
231.6301991131445
 21
69.810866345460397
 31
0.0
  0
POLYLINE
  5
51B0
  8
0
 66
     1
 10
0.0
 20
0.0
 30
0.0
  0
VERTEX
  5
61AF
  8
0
 10
230.83911851316839
 20
69.189708515239744
 30
0.0
  0
VERTEX
  5
61B0
  8
0
 10
230.8870570169168
 20
69.054239737746315
 30
0.0
  0
VERTEX
  5
61B1
  8
0
 10
230.9821279429103
 20
68.785580077713703
 30
0.0
  0
VERTEX
  5
61B2
  8
0
 10
231.07616528944919
 20
68.51984119605774
 30
0.0
  0
VERTEX
  5
61B3
  8
0
 10
231.12281156763649
 20
68.388024101518852
 30
0.0
  0
SEQEND
  5
61B4
  8
0
  0
LINE
  5
51B1
  8
0
 10
231.12281156763649
 20
68.388024101518852
 30
0.0
 11
231.14631193225819
 21
68.321614734996416
 31
0.0
  0
POLYLINE
  5
51B2
  8
0
 66
     1
 10
0.0
 20
0.0
 30
0.0
  0
VERTEX
  5
61B5
  8
0
 10
230.42449362802051
 20
67.621169232926178
 30
0.0
  0
VERTEX
  5
61B6
  8
0
 10
230.48632986276161
 20
67.491453505698274
 30
0.0
  0
VERTEX
  5
61B7
  8
0
 10
230.6089625616803
 20
67.234203209189303
 30
0.0
  0
VERTEX
  5
61B8
  8
0
 10
230.7302620387255
 20
66.979749652255293
 30
0.0
  0
VERTEX
  5
61B9
  8
0
 10
230.7904314220448
 20
66.853530529328523
 30
0.0
  0
SEQEND
  5
61BA
  8
0
  0
LINE
  5
51B3
  8
0
 10
230.7904314220448
 20
66.853530529328523
 30
0.0
 11
230.8207447182395
 21
66.789941417264572
 31
0.0
  0
POLYLINE
  5
51B4
  8
0
 66
     1
 10
0.0
 20
0.0
 30
0.0
  0
VERTEX
  5
61BB
  8
0
 10
230.17609710213159
 20
66.017882470843091
 30
0.0
  0
VERTEX
  5
61BC
  8
0
 10
230.2511535771375
 20
65.895340986533142
 30
0.0
  0
VERTEX
  5
61BD
  8
0
 10
230.40000445946939
 20
65.652318541629228
 30
0.0
  0
VERTEX
  5
61BE
  8
0
 10
230.547237084567
 20
65.411938155834633
 30
0.0
  0
VERTEX
  5
61BF
  8
0
 10
230.62027034466331
 20
65.292699887643977
 30
0.0
  0
SEQEND
  5
61C0
  8
0
  0
LINE
  5
51B5
  8
0
 10
230.62027034466331
 20
65.292699887643977
 30
0.0
 11
230.6570644536142
 21
65.232627725657153
 31
0.0
  0
POLYLINE
  5
51B6
  8
0
 66
     1
 10
0.0
 20
0.0
 30
0.0
  0
VERTEX
  5
61C1
  8
0
 10
230.09665041981961
 20
64.397414174265123
 30
0.0
  0
VERTEX
  5
61C2
  8
0
 10
230.18410480064369
 20
64.283389523018514
 30
0.0
  0
VERTEX
  5
61C3
  8
0
 10
230.35754302497301
 20
64.057257534481892
 30
0.0
  0
VERTEX
  5
61C4
  8
0
 10
230.5290956866717
 20
63.833583977636494
 30
0.0
  0
VERTEX
  5
61C5
  8
0
 10
230.61419265586429
 20
63.722632963600347
 30
0.0
  0
SEQEND
  5
61C6
  8
0
  0
LINE
  5
51B7
  8
0
 10
230.61419265586429
 20
63.722632963600347
 30
0.0
 11
230.6570644536142
 21
63.666735914868291
 31
0.0
  0
POLYLINE
  5
51B8
  8
0
 66
     1
 10
0.0
 20
0.0
 30
0.0
  0
VERTEX
  5
61C7
  8
0
 10
230.18702401556109
 20
62.77751853295441
 30
0.0
  0
VERTEX
  5
61C8
  8
0
 10
230.28591813370579
 20
62.673259992711621
 30
0.0
  0
VERTEX
  5
61C9
  8
0
 10
230.48204347455271
 20
62.466496009929671
 30
0.0
  0
VERTEX
  5
61CA
  8
0
 10
230.6760366059915
 20
62.261979896328711
 30
0.0
  0
VERTEX
  5
61CB
  8
0
 10
230.7722649440781
 20
62.160531738975038
 30
0.0
  0
SEQEND
  5
61CC
  8
0
  0
LINE
  5
51B9
  8
0
 10
230.7722649440781
 20
62.160531738975038
 30
0.0
 11
230.8207447182395
 21
62.109422223260879
 31
0.0
  0
POLYLINE
  5
51BA
  8
0
 66
     1
 10
0.0
 20
0.0
 30
0.0
  0
VERTEX
  5
61CD
  8
0
 10
230.44622773732939
 20
61.175943462542143
 30
0.0
  0
VERTEX
  5
61CE
  8
0
 10
230.5554780881416
 20
61.082593311687418
 30
0.0
  0
VERTEX
  5
61CF
  8
0
 10
230.7721417552296
 20
60.897462684123781
 30
0.0
  0
VERTEX
  5
61D0
  8
0
 10
230.9864499270648
 20
60.714344735105783
 30
0.0
  0
VERTEX
  5
61D1
  8
0
 10
231.09275533623631
 20
60.623510921675781
 30
0.0
  0
SEQEND
  5
61D2
  8
0
  0
LINE
  5
51BB
  8
0
 10
231.09275533623631
 20
60.623510921675781
 30
0.0
 11
231.14631193225819
 21
60.577748905529027
 31
0.0
  0
POLYLINE
  5
51BC
  8
0
 66
     1
 10
0.0
 20
0.0
 30
0.0
  0
VERTEX
  5
61D3
  8
0
 10
230.8714216949069
 20
59.610236154650799
 30
0.0
  0
VERTEX
  5
61D4
  8
0
 10
230.98983130868089
 20
59.528817156971712
 30
0.0
  0
VERTEX
  5
61D5
  8
0
 10
231.22465948953371
 20
59.367348214523133
 30
0.0
  0
VERTEX
  5
61D6
  8
0
 10
231.45693469658769
 20
59.20763470865748
 30
0.0
  0
VERTEX
  5
61D7
  8
0
 10
231.57215247253549
 20
59.128410433419191
 30
0.0
  0
SEQEND
  5
61D8
  8
0
  0
LINE
  5
51BD
  8
0
 10
231.57215247253549
 20
59.128410433419191
 30
0.0
 11
231.6301991131445
 21
59.088497295065054
 31
0.0
  0
POLYLINE
  5
51BE
  8
0
 66
     1
 10
0.0
 20
0.0
 30
0.0
  0
VERTEX
  5
61D9
  8
0
 10
231.45794737431689
 20
58.097550826191053
 30
0.0
  0
VERTEX
  5
61DA
  8
0
 10
231.58421893054549
 20
58.028955025264139
 30
0.0
  0
VERTEX
  5
61DB
  8
0
 10
231.83463879847261
 20
57.892916855453556
 30
0.0
  0
VERTEX
  5
61DC
  8
0
 10
232.0823361849701
 20
57.758357647332723
 30
0.0
  0
VERTEX
  5
61DD
  8
0
 10
232.20520397763019
 20
57.691610908024472
 30
0.0
  0
SEQEND
  5
61DE
  8
0
  0
LINE
  5
51BF
  8
0
 10
232.20520397763019
 20
57.691610908024472
 30
0.0
 11
232.26710469168469
 21
57.657983944159128
 31
0.0
  0
POLYLINE
  5
51C0
  8
0
 66
     1
 10
0.0
 20
0.0
 30
0.0
  0
VERTEX
  5
61DF
  8
0
 10
232.1993786774772
 20
56.654460774171241
 30
0.0
  0
VERTEX
  5
61E0
  8
0
 10
232.33212871856631
 20
56.599439719946069
 30
0.0
  0
VERTEX
  5
61E1
  8
0
 10
232.59539662109111
 20
56.490322785429697
 30
0.0
  0
VERTEX
  5
61E2
  8
0
 10
232.85580236263181
 20
56.382392133896097
 30
0.0
  0
VERTEX
  5
61E3
  8
0
 10
232.98497400675581
 20
56.328854221761482
 30
0.0
  0
SEQEND
  5
61E4
  8
0
  0
LINE
  5
51C1
  8
0
 10
232.98497400675581
 20
56.328854221761482
 30
0.0
 11
233.05005059707909
 21
56.301881856437937
 31
0.0
  0
POLYLINE
  5
51C2
  8
0
 66
     1
 10
0.0
 20
0.0
 30
0.0
  0
VERTEX
  5
61E5
  8
0
 10
233.08759232787611
 20
55.296776795187242
 30
0.0
  0
VERTEX
  5
61E6
  8
0
 10
233.2253664165957
 20
55.255933309847869
 30
0.0
  0
VERTEX
  5
61E7
  8
0
 10
233.4985979354858
 20
55.174933118594481
 30
0.0
  0
VERTEX
  5
61E8
  8
0
 10
233.768858972272
 20
55.094813534452243
 30
0.0
  0
VERTEX
  5
61E9
  8
0
 10
233.9029192362959
 20
55.05507102206014
 30
0.0
  0
SEQEND
  5
61EA
  8
0
  0
LINE
  5
51C3
  8
0
 10
233.9029192362959
 20
55.05507102206014
 30
0.0
 11
233.97045871014649
 21
55.035048770157182
 31
0.0
  0
POLYLINE
  5
51C4
  8
0
 66
     1
 10
0.0
 20
0.0
 30
0.0
  0
VERTEX
  5
61EB
  8
0
 10
234.112856870889
 20
54.039373959026513
 30
0.0
  0
VERTEX
  5
61EC
  8
0
 10
234.25414552549231
 20
54.01315553234528
 30
0.0
  0
VERTEX
  5
61ED
  8
0
 10
234.53434707904921
 20
53.961159539400647
 30
0.0
  0
VERTEX
  5
61EE
  8
0
 10
234.81150237460591
 20
53.909728829579848
 30
0.0
  0
VERTEX
  5
61EF
  8
0
 10
234.94898246622341
 20
53.884217144212549
 30
0.0
  0
SEQEND
  5
61F0
  8
0
  0
LINE
  5
51C5
  8
0
 10
234.94898246622341
 20
53.884217144212549
 30
0.0
 11
235.01824484699191
 21
53.871364373711998
 31
0.0
  0
POLYLINE
  5
51C6
  8
0
 66
     1
 10
0.0
 20
0.0
 30
0.0
  0
VERTEX
  5
61F1
  8
0
 10
235.26393929363249
 20
52.896028634290452
 30
0.0
  0
VERTEX
  5
61F2
  8
0
 10
235.40719452605279
 20
52.884722520836682
 30
0.0
  0
VERTEX
  5
61F3
  8
0
 10
235.69129616741989
 20
52.862300405180378
 30
0.0
  0
VERTEX
  5
61F4
  8
0
 10
235.9723091503306
 20
52.84012205530027
 30
0.0
  0
VERTEX
  5
61F5
  8
0
 10
236.11170280888831
 20
52.829120708321433
 30
0.0
  0
SEQEND
  5
61F6
  8
0
  0
LINE
  5
51C7
  8
0
 10
236.11170280888831
 20
52.829120708321433
 30
0.0
 11
236.18192924343711
 21
52.823578236866467
 31
0.0
  0
POLYLINE
  5
51C8
  8
0
 66
     1
 10
0.0
 20
0.0
 30
0.0
  0
VERTEX
  5
61F7
  8
0
 10
236.52822809620329
 20
51.879267551617261
 30
0.0
  0
VERTEX
  5
61F8
  8
0
 10
236.671880372136
 20
51.882997623535907
 30
0.0
  0
VERTEX
  5
61F9
  8
0
 10
236.9567694242786
 20
51.890395046559149
 30
0.0
  0
VERTEX
  5
61FA
  8
0
 10
237.23856125749711
 20
51.897712047262161
 30
0.0
  0
VERTEX
  5
61FB
  8
0
 10
237.37834125690151
 20
51.90134157173145
 30
0.0
  0
SEQEND
  5
61FC
  8
0
  0
LINE
  5
51C9
  8
0
 10
237.37834125690151
 20
51.90134157173145
 30
0.0
 11
237.44876232971779
 21
51.903170123799207
 31
0.0
  0
POLYLINE
  5
51CA
  8
0
 66
     1
 10
0.0
 20
0.0
 30
0.0
  0
VERTEX
  5
61FD
  8
0
 10
237.89187146591109
 20
51.000230558199661
 30
0.0
  0
VERTEX
  5
61FE
  8
0
 10
238.0343469009602
 20
51.018955948042219
 30
0.0
  0
VERTEX
  5
61FF
  8
0
 10
238.31690205980601
 20
51.056091862030371
 30
0.0
  0
VERTEX
  5
6200
  8
0
 10
238.5963853730384
 20
51.092824046725639
 30
0.0
  0
VERTEX
  5
6201
  8
0
 10
238.73502025436551
 20
51.111044676813428
 30
0.0
  0
SEQEND
  5
6202
  8
0
  0
LINE
  5
51CB
  8
0
 10
238.73502025436551
 20
51.111044676813428
 30
0.0
 11
238.80486441743901
 21
51.120224218404751
 31
0.0
  0
POLYLINE
  5
51CC
  8
0
 66
     1
 10
0.0
 20
0.0
 30
0.0
  0
VERTEX
  5
6203
  8
0
 10
239.3399290406366
 20
50.268548567287837
 30
0.0
  0
VERTEX
  5
6204
  8
0
 10
239.4796666441207
 20
50.302064115764637
 30
0.0
  0
VERTEX
  5
6205
  8
0
 10
239.7567921762207
 20
50.368531651872843
 30
0.0
  0
VERTEX
  5
6206
  8
0
 10
240.0309048918019
 20
50.434276575058163
 30
0.0
  0
VERTEX
  5
6207
  8
0
 10
240.16687574228069
 20
50.466888681728307
 30
0.0
  0
SEQEND
  5
6208
  8
0
  0
LINE
  5
51CD
  8
0
 10
240.16687574228069
 20
50.466888681728307
 30
0.0
 11
240.23537776834499
 21
50.483318639864621
 31
0.0
  0
POLYLINE
  5
51CE
  8
0
 66
     1
 10
0.0
 20
0.0
 30
0.0
  0
VERTEX
  5
6209
  8
0
 10
240.85653559856561
 20
49.692238039888501
 30
0.0
  0
VERTEX
  5
620A
  8
0
 10
240.99200437605899
 20
49.740176543636863
 30
0.0
  0
VERTEX
  5
620B
  8
0
 10
241.26066403609161
 20
49.83524746963031
 30
0.0
  0
VERTEX
  5
620C
  8
0
 10
241.52640291774759
 20
49.929284816169229
 30
0.0
  0
VERTEX
  5
620D
  8
0
 10
241.65822001228651
 20
49.975931094356518
 30
0.0
  0
SEQEND
  5
620E
  8
0
  0
LINE
  5
51CF
  8
0
 10
241.65822001228651
 20
49.975931094356518
 30
0.0
 11
241.72462937880891
 21
49.999431458978279
 31
0.0
  0
POLYLINE
  5
51D0
  8
0
 66
     1
 10
0.0
 20
0.0
 30
0.0
  0
VERTEX
  5
620F
  8
0
 10
242.42507488087921
 20
49.277613154740642
 30
0.0
  0
VERTEX
  5
6210
  8
0
 10
242.55479060810691
 20
49.339449389481643
 30
0.0
  0
VERTEX
  5
6211
  8
0
 10
242.812040904616
 20
49.462082088400329
 30
0.0
  0
VERTEX
  5
6212
  8
0
 10
243.06649446155021
 20
49.58338156544562
 30
0.0
  0
VERTEX
  5
6213
  8
0
 10
243.19271358447691
 20
49.64355094876484
 30
0.0
  0
SEQEND
  5
6214
  8
0
  0
LINE
  5
51D1
  8
0
 10
243.19271358447691
 20
49.64355094876484
 30
0.0
 11
243.25630269654081
 21
49.673864244959503
 31
0.0
  0
POLYLINE
  5
51D2
  8
0
 66
     1
 10
0.0
 20
0.0
 30
0.0
  0
VERTEX
  5
6215
  8
0
 10
244.0283616429623
 20
49.029216628851692
 30
0.0
  0
VERTEX
  5
6216
  8
0
 10
244.15090312727219
 20
49.104273103857558
 30
0.0
  0
VERTEX
  5
6217
  8
0
 10
244.39392557217619
 20
49.253123986189529
 30
0.0
  0
VERTEX
  5
6218
  8
0
 10
244.63430595797081
 20
49.400356611287073
 30
0.0
  0
VERTEX
  5
6219
  8
0
 10
244.75354422616141
 20
49.473389871383368
 30
0.0
  0
SEQEND
  5
621A
  8
0
  0
LINE
  5
51D3
  8
0
 10
244.75354422616141
 20
49.47338987138334
 30
0.0
 11
244.8136163881482
 21
49.510183980334318
 31
0.0
  0
POLYLINE
  5
51D4
  8
0
 66
     1
 10
0.0
 20
0.0
 30
0.0
  0
VERTEX
  5
621B
  8
0
 10
245.64882993954029
 20
48.949769946539647
 30
0.0
  0
VERTEX
  5
621C
  8
0
 10
245.76285459078679
 20
49.037224327363617
 30
0.0
  0
VERTEX
  5
621D
  8
0
 10
245.98898657932349
 20
49.210662551692991
 30
0.0
  0
VERTEX
  5
621E
  8
0
 10
246.21266013616901
 20
49.382215213391838
 30
0.0
  0
VERTEX
  5
621F
  8
0
 10
246.3236111502051
 20
49.467312182584379
 30
0.0
  0
SEQEND
  5
6220
  8
0
  0
LINE
  5
51D5
  8
0
 10
246.3236111502051
 20
49.467312182584379
 30
0.0
 11
246.37950819893709
 21
49.510183980334318
 31
0.0
  0
POLYLINE
  5
51D6
  8
0
 66
     1
 10
0.0
 20
0.0
 30
0.0
  0
VERTEX
  5
6221
  8
0
 10
247.268725580851
 20
49.040143542281179
 30
0.0
  0
VERTEX
  5
6222
  8
0
 10
247.37298412109371
 20
49.139037660425878
 30
0.0
  0
VERTEX
  5
6223
  8
0
 10
247.5797481038756
 20
49.335163001272583
 30
0.0
  0
VERTEX
  5
6224
  8
0
 10
247.7842642174765
 20
49.529156132711478
 30
0.0
  0
VERTEX
  5
6225
  8
0
 10
247.8857123748304
 20
49.625384470798217
 30
0.0
  0
SEQEND
  5
6226
  8
0
  0
LINE
  5
51D7
  8
0
 10
247.8857123748304
 20
49.625384470798188
 30
0.0
 11
247.93682189054451
 21
49.673864244959482
 31
0.0
  0
POLYLINE
  5
51D8
  8
0
 66
     1
 10
0.0
 20
0.0
 30
0.0
  0
VERTEX
  5
6227
  8
0
 10
248.87030065126331
 20
49.29934726404948
 30
0.0
  0
VERTEX
  5
6228
  8
0
 10
248.963650802118
 20
49.408597614861691
 30
0.0
  0
VERTEX
  5
6229
  8
0
 10
249.14878142968161
 20
49.625261281949662
 30
0.0
  0
VERTEX
  5
622A
  8
0
 10
249.33189937869949
 20
49.839569453784833
 30
0.0
  0
VERTEX
  5
622B
  8
0
 10
249.42273319212961
 20
49.945874862956423
 30
0.0
  0
SEQEND
  5
622C
  8
0
  0
LINE
  5
51D9
  8
0
 10
249.42273319212961
 20
49.945874862956423
 30
0.0
 11
249.46849520827641
 21
49.999431458978279
 31
0.0
  0
POLYLINE
  5
51DA
  8
0
 66
     1
 10
0.0
 20
0.0
 30
0.0
  0
VERTEX
  5
622D
  8
0
 10
250.43600795915449
 20
49.724541221626993
 30
0.0
  0
VERTEX
  5
622E
  8
0
 10
250.5174269568337
 20
49.842950835401012
 30
0.0
  0
VERTEX
  5
622F
  8
0
 10
250.6788958992824
 20
50.0777790162538
 30
0.0
  0
VERTEX
  5
6230
  8
0
 10
250.83860940514799
 20
50.310054223307837
 30
0.0
  0
VERTEX
  5
6231
  8
0
 10
250.9178336803862
 20
50.425271999255642
 30
0.0
  0
SEQEND
  5
6232
  8
0
  0
LINE
  5
51DB
  8
0
 10
250.9178336803862
 20
50.425271999255621
 30
0.0
 11
250.95774681874039
 21
50.483318639864592
 31
0.0
  0
POLYLINE
  5
51DC
  8
0
 66
     1
 10
0.0
 20
0.0
 30
0.0
  0
VERTEX
  5
6233
  8
0
 10
251.94869328761439
 20
50.311066901036916
 30
0.0
  0
VERTEX
  5
6234
  8
0
 10
252.01728908854119
 20
50.43733845726539
 30
0.0
  0
VERTEX
  5
6235
  8
0
 10
252.15332725835191
 20
50.68775832519264
 30
0.0
  0
VERTEX
  5
6236
  8
0
 10
252.2878864664728
 20
50.935455711690388
 30
0.0
  0
VERTEX
  5
6237
  8
0
 10
252.35463320578091
 20
51.05832350435022
 30
0.0
  0
SEQEND
  5
6238
  8
0
  0
LINE
  5
51DD
  8
0
 10
252.35463320578091
 20
51.05832350435022
 30
0.0
 11
252.38826016964629
 21
51.120224218404751
 31
0.0
  0
POLYLINE
  5
51DE
  8
0
 66
     1
 10
0.0
 20
0.0
 30
0.0
  0
VERTEX
  5
6239
  8
0
 10
253.3917833396342
 20
51.052498204197292
 30
0.0
  0
VERTEX
  5
623A
  8
0
 10
253.4468043938594
 20
51.185248245286481
 30
0.0
  0
VERTEX
  5
623B
  8
0
 10
253.55592132837569
 20
51.448516147811119
 30
0.0
  0
VERTEX
  5
623C
  8
0
 10
253.6638519799092
 20
51.708921889351757
 30
0.0
  0
VERTEX
  5
623D
  8
0
 10
253.71738989204391
 20
51.838093533475814
 30
0.0
  0
SEQEND
  5
623E
  8
0
  0
LINE
  5
51DF
  8
0
 10
253.71738989204391
 20
51.838093533475814
 30
0.0
 11
253.7443622573675
 21
51.903170123799178
 31
0.0
  0
POLYLINE
  5
51E0
  8
0
 66
     1
 10
0.0
 20
0.0
 30
0.0
  0
VERTEX
  5
623F
  8
0
 10
254.74946731861809
 20
51.940711854596167
 30
0.0
  0
VERTEX
  5
6240
  8
0
 10
254.7903108039576
 20
52.078485943315911
 30
0.0
  0
VERTEX
  5
6241
  8
0
 10
254.87131099521091
 20
52.351717462205862
 30
0.0
  0
VERTEX
  5
6242
  8
0
 10
254.95143057935309
 20
52.621978498991922
 30
0.0
  0
VERTEX
  5
6243
  8
0
 10
254.99117309174531
 20
52.756038763015987
 30
0.0
  0
SEQEND
  5
6244
  8
0
  0
LINE
  5
51E1
  8
0
 10
254.99117309174531
 20
52.756038763015987
 30
0.0
 11
255.01119534364821
 21
52.823578236866439
 31
0.0
  0
POLYLINE
  5
51E2
  8
0
 66
     1
 10
0.0
 20
0.0
 30
0.0
  0
VERTEX
  5
6245
  8
0
 10
256.00687015477888
 20
52.965976397609118
 30
0.0
  0
VERTEX
  5
6246
  8
0
 10
256.03308858146011
 20
53.10726505221222
 30
0.0
  0
VERTEX
  5
6247
  8
0
 10
256.08508457440468
 20
53.38746660576922
 30
0.0
  0
VERTEX
  5
6248
  8
0
 10
256.1365152842256
 20
53.664621901326051
 30
0.0
  0
VERTEX
  5
6249
  8
0
 10
256.16202696959277
 20
53.802101992943477
 30
0.0
  0
SEQEND
  5
624A
  8
0
  0
LINE
  5
51E3
  8
0
 10
256.16202696959277
 20
53.802101992943477
 30
0.0
 11
256.17487974009339
 21
53.871364373711998
 31
0.0
  0
POLYLINE
  5
51E4
  8
0
 66
     1
 10
0.0
 20
0.0
 30
0.0
  0
VERTEX
  5
624B
  8
0
 10
257.15021547951488
 20
54.117058820352547
 30
0.0
  0
VERTEX
  5
624C
  8
0
 10
257.16152159296871
 20
54.260314052772799
 30
0.0
  0
VERTEX
  5
624D
  8
0
 10
257.18394370862501
 20
54.544415694140007
 30
0.0
  0
VERTEX
  5
624E
  8
0
 10
257.20612205850512
 20
54.825428677050809
 30
0.0
  0
VERTEX
  5
624F
  8
0
 10
257.2171234054839
 20
54.964822335608403
 30
0.0
  0
SEQEND
  5
6250
  8
0
  0
LINE
  5
51E5
  8
0
 10
257.2171234054839
 20
54.964822335608403
 30
0.0
 11
257.22266587693889
 21
55.035048770157182
 31
0.0
  0
POLYLINE
  5
51E6
  8
0
 66
     1
 10
0.0
 20
0.0
 30
0.0
  0
VERTEX
  5
6251
  8
0
 10
258.1669765621881
 20
55.381347622923357
 30
0.0
  0
VERTEX
  5
6252
  8
0
 10
258.16324649026939
 20
55.524999898856123
 30
0.0
  0
VERTEX
  5
6253
  8
0
 10
258.15584906724621
 20
55.809888950998669
 30
0.0
  0
VERTEX
  5
6254
  8
0
 10
258.14853206654323
 20
56.09168078421709
 30
0.0
  0
VERTEX
  5
6255
  8
0
 10
258.14490254207402
 20
56.231460783621628
 30
0.0
  0
SEQEND
  5
6256
  8
0
  0
LINE
  5
51E7
  8
0
 10
258.14490254207402
 20
56.231460783621628
 30
0.0
 11
258.1430739900062
 21
56.301881856437923
 31
0.0
  0
POLYLINE
  5
51E8
  8
0
 66
     1
 10
0.0
 20
0.0
 30
0.0
  0
VERTEX
  5
6257
  8
0
 10
259.04601355560573
 20
56.744990992631131
 30
0.0
  0
VERTEX
  5
6258
  8
0
 10
259.0272881657632
 20
56.887466427680181
 30
0.0
  0
VERTEX
  5
6259
  8
0
 10
258.9901522517751
 20
57.170021586525962
 30
0.0
  0
VERTEX
  5
625A
  8
0
 10
258.95342006707972
 20
57.449504899758438
 30
0.0
  0
VERTEX
  5
625B
  8
0
 10
258.93519943699198
 20
57.588139781085623
 30
0.0
  0
SEQEND
  5
625C
  8
0
  0
LINE
  5
51E9
  8
0
 10
258.93519943699198
 20
57.588139781085623
 30
0.0
 11
258.9260198954006
 21
57.657983944159092
 31
0.0
  0
POLYLINE
  5
51EA
  8
0
 66
     1
 10
0.0
 20
0.0
 30
0.0
  0
VERTEX
  5
625D
  8
0
 10
259.77769554651752
 20
58.193048567356669
 30
0.0
  0
VERTEX
  5
625E
  8
0
 10
259.74417999804081
 20
58.332786170840869
 30
0.0
  0
VERTEX
  5
625F
  8
0
 10
259.67771246193251
 20
58.609911702940963
 30
0.0
  0
VERTEX
  5
6260
  8
0
 10
259.61196753874719
 20
58.88402441852196
 30
0.0
  0
VERTEX
  5
6261
  8
0
 10
259.57935543207708
 20
59.019995269000809
 30
0.0
  0
SEQEND
  5
6262
  8
0
  0
LINE
  5
51EB
  8
0
 10
259.57935543207708
 20
59.019995269000837
 30
0.0
 11
259.56292547394082
 21
59.088497295065032
 31
0.0
  0
POLYLINE
  5
51EC
  8
0
 66
     1
 10
0.0
 20
0.0
 30
0.0
  0
VERTEX
  5
6263
  8
0
 10
260.35400607391688
 20
59.709655125285707
 30
0.0
  0
VERTEX
  5
6264
  8
0
 10
260.30606757016841
 20
59.845123902779306
 30
0.0
  0
VERTEX
  5
6265
  8
0
 10
260.21099664417511
 20
60.11378356281174
 30
0.0
  0
VERTEX
  5
6266
  8
0
 10
260.11695929763619
 20
60.379522444467561
 30
0.0
  0
VERTEX
  5
6267
  8
0
 10
260.07031301944892
 20
60.511339539006627
 30
0.0
  0
SEQEND
  5
6268
  8
0
  0
LINE
  5
51ED
  8
0
 10
260.07031301944892
 20
60.511339539006627
 30
0.0
 11
260.04681265482708
 21
60.577748905528999
 31
0.0
  0
POLYLINE
  5
51EE
  8
0
 66
     1
 10
0.0
 20
0.0
 30
0.0
  0
VERTEX
  5
6269
  8
0
 10
260.76863095906469
 20
61.278194407599273
 30
0.0
  0
VERTEX
  5
626A
  8
0
 10
260.70679472432369
 20
61.407910134827112
 30
0.0
  0
VERTEX
  5
626B
  8
0
 10
260.58416202540502
 20
61.665160431336197
 30
0.0
  0
VERTEX
  5
626C
  8
0
 10
260.46286254835979
 20
61.919613988270271
 30
0.0
  0
VERTEX
  5
626D
  8
0
 10
260.40269316504049
 20
62.04583311119697
 30
0.0
  0
SEQEND
  5
626E
  8
0
  0
LINE
  5
51EF
  8
0
 10
260.40269316504049
 20
62.04583311119697
 30
0.0
 11
260.37237986884588
 21
62.109422223260879
 31
0.0
  0
POLYLINE
  5
51F0
  8
0
 66
     1
 10
0.0
 20
0.0
 30
0.0
  0
VERTEX
  5
626F
  8
0
 10
261.0170274849537
 20
62.881481169682409
 30
0.0
  0
VERTEX
  5
6270
  8
0
 10
260.94197100994779
 20
63.004022653992308
 30
0.0
  0
VERTEX
  5
6271
  8
0
 10
260.79312012761591
 20
63.247045098896223
 30
0.0
  0
VERTEX
  5
6272
  8
0
 10
260.64588750251829
 20
63.487425484690839
 30
0.0
  0
VERTEX
  5
6273
  8
0
 10
260.57285424242201
 20
63.606663752881502
 30
0.0
  0
SEQEND
  5
6274
  8
0
  0
LINE
  5
51F1
  8
0
 10
260.57285424242201
 20
63.606663752881502
 30
0.0
 11
260.5360601334711
 21
63.666735914868269
 31
0.0
  0
POLYLINE
  5
51F2
  8
0
 66
     1
 10
0.0
 20
0.0
 30
0.0
  0
VERTEX
  5
6275
  8
0
 10
261.0964741672658
 20
64.501949466260356
 30
0.0
  0
VERTEX
  5
6276
  8
0
 10
261.00901978644191
 20
64.615974117506767
 30
0.0
  0
VERTEX
  5
6277
  8
0
 10
260.8355815621124
 20
64.842106106043559
 30
0.0
  0
VERTEX
  5
6278
  8
0
 10
260.66402890041348
 20
65.065779662889113
 30
0.0
  0
VERTEX
  5
6279
  8
0
 10
260.57893193122101
 20
65.176730676925132
 30
0.0
  0
SEQEND
  5
627A
  8
0
  0
LINE
  5
51F3
  8
0
 10
260.57893193122101
 20
65.176730676925132
 30
0.0
 11
260.5360601334711
 21
65.232627725657181
 31
0.0
  0
POLYLINE
  5
51F4
  8
0
 66
     1
 10
0.0
 20
0.0
 30
0.0
  0
VERTEX
  5
627B
  8
0
 10
261.0061005715242
 20
66.121845107571062
 30
0.0
  0
VERTEX
  5
627C
  8
0
 10
260.9072064533795
 20
66.226103647813858
 30
0.0
  0
VERTEX
  5
627D
  8
0
 10
260.71108111253272
 20
66.432867630595752
 30
0.0
  0
VERTEX
  5
627E
  8
0
 10
260.51708798109382
 20
66.637383744196683
 30
0.0
  0
VERTEX
  5
627F
  8
0
 10
260.42085964300708
 20
66.738831901550441
 30
0.0
  0
SEQEND
  5
6280
  8
0
  0
LINE
  5
51F5
  8
0
 10
260.42085964300708
 20
66.738831901550441
 30
0.0
 11
260.37237986884588
 21
66.789941417264572
 31
0.0
  0
POLYLINE
  5
51F6
  8
0
 66
     1
 10
0.0
 20
0.0
 30
0.0
  0
VERTEX
  5
6281
  8
0
 10
260.7468968497559
 20
67.723420177983343
 30
0.0
  0
VERTEX
  5
6282
  8
0
 10
260.63764649894352
 20
67.81677032883826
 30
0.0
  0
VERTEX
  5
6283
  8
0
 10
260.42098283185578
 20
68.001900956401641
 30
0.0
  0
VERTEX
  5
6284
  8
0
 10
260.20667466002078
 20
68.185018905419412
 30
0.0
  0
VERTEX
  5
6285
  8
0
 10
260.10036925084893
 20
68.275852718849706
 30
0.0
  0
SEQEND
  5
6286
  8
0
  0
LINE
  5
51F7
  8
0
 10
260.10036925084893
 20
68.275852718849706
 30
0.0
 11
260.04681265482708
 21
68.321614734996416
 31
0.0
  0
POLYLINE
  5
51F8
  8
0
 66
     1
 10
0.0
 20
0.0
 30
0.0
  0
VERTEX
  5
6287
  8
0
 10
260.32170289217839
 20
69.289127485874673
 30
0.0
  0
VERTEX
  5
6288
  8
0
 10
260.2032932784042
 20
69.370546483553881
 30
0.0
  0
VERTEX
  5
6289
  8
0
 10
259.96846509755159
 20
69.532015426002403
 30
0.0
  0
VERTEX
  5
628A
  8
0
 10
259.73618989049771
 20
69.691728931867914
 30
0.0
  0
VERTEX
  5
628B
  8
0
 10
259.62097211454977
 20
69.770953207106274
 30
0.0
  0
SEQEND
  5
628C
  8
0
  0
LINE
  5
51F9
  8
0
 10
259.62097211454977
 20
69.770953207106274
 30
0.0
 11
259.56292547394082
 21
69.810866345460425
 31
0.0
  0
POLYLINE
  5
51FA
  8
0
 66
     1
 10
0.0
 20
0.0
 30
0.0
  0
VERTEX
  5
628D
  8
0
 10
259.73517721276852
 20
70.801812814334383
 30
0.0
  0
VERTEX
  5
628E
  8
0
 10
259.60890565653978
 20
70.870408615261312
 30
0.0
  0
VERTEX
  5
628F
  8
0
 10
259.35848578861271
 20
71.006446785071944
 30
0.0
  0
VERTEX
  5
6290
  8
0
 10
259.11078840211508
 20
71.141005993192806
 30
0.0
  0
VERTEX
  5
6291
  8
0
 10
258.9879206094551
 20
71.207752732501007
 30
0.0
  0
SEQEND
  5
6292
  8
0
  0
LINE
  5
51FB
  8
0
 10
258.9879206094551
 20
71.207752732501007
 30
0.0
 11
258.9260198954006
 21
71.241379696366351
 31
0.0
  0
POLYLINE
  5
51FC
  8
0
 66
     1
 10
0.0
 20
0.0
 30
0.0
  0
VERTEX
  5
6293
  8
0
 10
258.99374590960809
 20
72.244902866354238
 30
0.0
  0
VERTEX
  5
6294
  8
0
 10
258.8609958685189
 20
72.299923920579431
 30
0.0
  0
VERTEX
  5
6295
  8
0
 10
258.59772796599418
 20
72.409040855095753
 30
0.0
  0
VERTEX
  5
6296
  8
0
 10
258.3373222244536
 20
72.516971506629346
 30
0.0
  0
VERTEX
  5
6297
  8
0
 10
258.20815058032952
 20
72.570509418763976
 30
0.0
  0
SEQEND
  5
6298
  8
0
  0
LINE
  5
51FD
  8
0
 10
258.20815058032952
 20
72.570509418763976
 30
0.0
 11
258.1430739900062
 21
72.597481784087535
 31
0.0
  0
POLYLINE
  5
51FE
  8
0
 66
     1
 10
0.0
 20
0.0
 30
0.0
  0
VERTEX
  5
6299
  8
0
 10
258.10553225920921
 20
73.602586845338209
 30
0.0
  0
VERTEX
  5
629A
  8
0
 10
257.9677581704895
 20
73.643430330677631
 30
0.0
  0
VERTEX
  5
629B
  8
0
 10
257.69452665159952
 20
73.724430521930998
 30
0.0
  0
VERTEX
  5
629C
  8
0
 10
257.42426561481329
 20
73.804550106073194
 30
0.0
  0
VERTEX
  5
629D
  8
0
 10
257.29020535078939
 20
73.844292618465346
 30
0.0
  0
SEQEND
  5
629E
  8
0
  0
LINE
  5
51FF
  8
0
 10
257.29020535078939
 20
73.844292618465346
 30
0.0
 11
257.22266587693889
 21
73.864314870368304
 31
0.0
  0
POLYLINE
  5
5200
  8
0
 66
     1
 10
0.0
 20
0.0
 30
0.0
  0
VERTEX
  5
629F
  8
0
 10
257.0802677161962
 20
74.859989681498945
 30
0.0
  0
VERTEX
  5
62A0
  8
0
 10
256.9389790615931
 20
74.88620810818017
 30
0.0
  0
VERTEX
  5
62A1
  8
0
 10
256.65877750803622
 20
74.938204101124796
 30
0.0
  0
VERTEX
  5
62A2
  8
0
 10
256.38162221247927
 20
74.98963481094566
 30
0.0
  0
VERTEX
  5
62A3
  8
0
 10
256.24414212086191
 20
75.015146496312923
 30
0.0
  0
SEQEND
  5
62A4
  8
0
  0
LINE
  5
5201
  8
0
 10
256.24414212086191
 20
75.015146496312923
 30
0.0
 11
256.17487974009339
 21
75.027999266813481
 31
0.0
  0
POLYLINE
  5
5202
  8
0
 66
     1
 10
0.0
 20
0.0
 30
0.0
  0
VERTEX
  5
62A5
  8
0
 10
255.9291852934528
 20
76.003335006235005
 30
0.0
  0
VERTEX
  5
62A6
  8
0
 10
255.78593006103259
 20
76.014641119688775
 30
0.0
  0
VERTEX
  5
62A7
  8
0
 10
255.50182841966549
 20
76.037063235345101
 30
0.0
  0
VERTEX
  5
62A8
  8
0
 10
255.22081543675461
 20
76.059241585225209
 30
0.0
  0
VERTEX
  5
62A9
  8
0
 10
255.08142177819701
 20
76.070242932204053
 30
0.0
  0
SEQEND
  5
62AA
  8
0
  0
LINE
  5
5203
  8
0
 10
255.08142177819701
 20
76.070242932204053
 30
0.0
 11
255.01119534364821
 21
76.075785403659012
 31
0.0
  0
POLYLINE
  5
5204
  8
0
 66
     1
 10
0.0
 20
0.0
 30
0.0
  0
VERTEX
  5
62AB
  8
0
 10
254.664896490882
 20
77.020096088908176
 30
0.0
  0
VERTEX
  5
62AC
  8
0
 10
254.52124421494929
 20
77.016366016989565
 30
0.0
  0
VERTEX
  5
62AD
  8
0
 10
254.23635516280669
 20
77.00896859396633
 30
0.0
  0
VERTEX
  5
62AE
  8
0
 10
253.95456332958821
 20
77.00165159326329
 30
0.0
  0
VERTEX
  5
62AF
  8
0
 10
253.8147833301837
 20
76.998022068794
 30
0.0
  0
SEQEND
  5
62B0
  8
0
  0
LINE
  5
5205
  8
0
 10
253.8147833301837
 20
76.998022068794
 30
0.0
 11
253.7443622573675
 21
76.996193516726265
 31
0.0
  0
POLYLINE
  5
5206
  8
0
 66
     1
 10
0.0
 20
0.0
 30
0.0
  0
VERTEX
  5
62B1
  8
0
 10
253.3012531211742
 20
77.89913308232579
 30
0.0
  0
VERTEX
  5
62B2
  8
0
 10
253.15877768612481
 20
77.880407692483203
 30
0.0
  0
VERTEX
  5
62B3
  8
0
 10
252.8762225272794
 20
77.843271778495108
 30
0.0
  0
VERTEX
  5
62B4
  8
0
 10
252.5967392140472
 20
77.80653959379984
 30
0.0
  0
VERTEX
  5
62B5
  8
0
 10
252.45810433271981
 20
77.788318963712044
 30
0.0
  0
SEQEND
  5
62B6
  8
0
  0
LINE
  5
5207
  8
0
 10
252.45810433271981
 20
77.788318963712044
 30
0.0
 11
252.38826016964629
 21
77.779139422120721
 31
0.0
  0
POLYLINE
  5
5208
  8
0
 66
     1
 10
0.0
 20
0.0
 30
0.0
  0
VERTEX
  5
62B7
  8
0
 10
251.85319554644869
 20
78.630815073237613
 30
0.0
  0
VERTEX
  5
62B8
  8
0
 10
251.7134579429646
 20
78.597299524760842
 30
0.0
  0
VERTEX
  5
62B9
  8
0
 10
251.43633241086451
 20
78.530831988652594
 30
0.0
  0
VERTEX
  5
62BA
  8
0
 10
251.1622196952834
 20
78.465087065467316
 30
0.0
  0
VERTEX
  5
62BB
  8
0
 10
251.02624884480451
 20
78.432474958797172
 30
0.0
  0
SEQEND
  5
62BC
  8
0
  0
LINE
  5
5209
  8
0
 10
251.02624884480451
 20
78.432474958797172
 30
0.0
 11
250.95774681874039
 21
78.416045000660858
 31
0.0
  0
POLYLINE
  5
520A
  8
0
 66
     1
 10
0.0
 20
0.0
 30
0.0
  0
VERTEX
  5
62BD
  8
0
 10
250.33658898851971
 20
79.207125600636942
 30
0.0
  0
VERTEX
  5
62BE
  8
0
 10
250.20112021102599
 20
79.15918709688853
 30
0.0
  0
VERTEX
  5
62BF
  8
0
 10
249.9324605509936
 20
79.064116170895119
 30
0.0
  0
VERTEX
  5
62C0
  8
0
 10
249.66672166933779
 20
78.970078824356278
 30
0.0
  0
VERTEX
  5
62C1
  8
0
 10
249.53490457479879
 20
78.923432546168925
 30
0.0
  0
SEQEND
  5
62C2
  8
0
  0
LINE
  5
520B
  8
0
 10
249.53490457479879
 20
78.923432546168925
 30
0.0
 11
249.46849520827641
 21
78.8999321815472
 31
0.0
  0
POLYLINE
  5
520C
  8
0
 66
     1
 10
0.0
 20
0.0
 30
0.0
  0
VERTEX
  5
62C3
  8
0
 10
248.768049706206
 20
79.621750485784816
 30
0.0
  0
VERTEX
  5
62C4
  8
0
 10
248.63833397897821
 20
79.559914251043693
 30
0.0
  0
VERTEX
  5
62C5
  8
0
 10
248.38108368246921
 20
79.437281552125086
 30
0.0
  0
VERTEX
  5
62C6
  8
0
 10
248.1266301255352
 20
79.315982075079916
 30
0.0
  0
VERTEX
  5
62C7
  8
0
 10
248.00041100260839
 20
79.25581269176061
 30
0.0
  0
SEQEND
  5
62C8
  8
0
  0
LINE
  5
520D
  8
0
 10
248.00041100260839
 20
79.25581269176061
 30
0.0
 11
247.93682189054451
 21
79.225499395566004
 31
0.0
  0
POLYLINE
  5
520E
  8
0
 66
     1
 10
0.0
 20
0.0
 30
0.0
  0
VERTEX
  5
62C9
  8
0
 10
247.164762944123
 20
79.870147011673765
 30
0.0
  0
VERTEX
  5
62CA
  8
0
 10
247.04222145981299
 20
79.795090536667914
 30
0.0
  0
VERTEX
  5
62CB
  8
0
 10
246.79919901490911
 20
79.646239654335915
 30
0.0
  0
VERTEX
  5
62CC
  8
0
 10
246.5588186291144
 20
79.499007029238356
 30
0.0
  0
VERTEX
  5
62CD
  8
0
 10
246.43958036092391
 20
79.425973769142075
 30
0.0
  0
SEQEND
  5
62CE
  8
0
  0
LINE
  5
520F
  8
0
 10
246.43958036092391
 20
79.425973769142075
 30
0.0
 11
246.37950819893709
 21
79.389179660191161
 31
0.0
  0
LINE
  5
5210
  8
1
 10
245.59656229354269
 20
83.445032219813356
 30
0.0
 11
245.59656229354269
 21
45.454331420712087
 31
0.0
  0
LINE
  5
5211
  8
1
 10
226.601211893992
 20
64.449681820262725
 30
0.0
 11
264.59191269309332
 21
64.449681820262725
 31
0.0
  0
CIRCLE
  5
5212
  8
0
 10
245.5965622935316
 20
64.449681820153444
 30
0.0
 40
15.4999999998902
  0
LINE
  5
5235
  8
0
 10
145.8746852233829
 20
125.5134557919141
 30
0.0
 11
120.7946852233829
 21
125.5134557919141
 31
0.0
  0
LINE
  5
5237
  8
0
 10
119.8746852233829
 20
110.4334557919141
 30
0.0
 11
120.7946852233829
 21
109.5134557919141
 31
0.0
  0
LINE
  5
5238
  8
0
 10
120.7946852233829
 20
125.5134557919141
 30
0.0
 11
119.8746852233829
 21
124.5934557919141
 31
0.0
  0
LINE
  5
523F
  8
0
 10
119.8746852233829
 20
110.4334557919141
 30
0.0
 11
119.8746852233829
 21
124.5934557919141
 31
0.0
  0
LINE
  5
5240
  8
0
 10
120.7946852233829
 20
109.5134557919141
 30
0.0
 11
120.7946852233829
 21
125.5134557919141
 31
0.0
  0
LINE
  5
525D
  8
0
 10
169.78515142827101
 20
126.7634557919141
 30
0.0
 11
154.07468522338289
 21
126.7634557919142
 31
0.0
  0
LINE
  5
525E
  8
0
 10
154.07468522338289
 20
108.2634557919142
 30
0.0
 11
169.78515142827101
 21
108.2634557919142
 31
0.0
  0
ARC
  5
525F
  8
0
 10
169.78515142827101
 20
106.9134557919142
 30
0.0
 40
1.3500000000000061
 50
12.18863320193158
 51
89.999999999999986
  0
ARC
  5
5260
  8
0
 10
169.78515142827101
 20
128.11345579191419
 30
0.0
 40
1.3500000000000061
 50
270.0
 51
347.81136679806832
  0
LINE
  5
5261
  8
0
 10
171.7646167553184
 20
130.8835091805044
 30
0.0
 11
171.10471945741509
 21
127.82842909761899
 31
0.0
  0
LINE
  5
5262
  8
0
 10
171.10471945741509
 20
107.1984824862093
 30
0.0
 11
171.7646167553184
 21
104.1434024033239
 31
0.0
  0
ARC
  5
5263
  8
0
 10
174.4037528136065
 20
104.7134557919141
 30
0.0
 40
2.6999999999999931
 50
192.18863320193159
 51
270.0
  0
ARC
  5
5264
  8
0
 10
174.4037528136065
 20
130.31345579191421
 30
0.0
 40
2.6999999999999948
 50
89.999999999999986
 51
167.81136679806841
  0
LINE
  5
5265
  8
0
 10
180.3746852233829
 20
133.01345579191411
 30
0.0
 11
174.40375281360659
 21
133.01345579191411
 31
0.0
  0
LINE
  5
5266
  8
0
 10
174.40375281360659
 20
102.0134557919142
 30
0.0
 11
180.3746852233829
 21
102.0134557919142
 31
0.0
  0
ARC
  5
5267
  8
2
 10
207.9987592974565
 20
117.5134557919142
 30
0.0
 40
29.824074074073771
 50
155.4320891177849
 51
204.5679108822151
  0
LINE
  5
5268
  8
0
 10
180.8746852233829
 20
132.5134557919142
 30
0.0
 11
180.3746852233829
 21
133.01345579191411
 31
0.0
  0
LINE
  5
5269
  8
0
 10
180.3746852233829
 20
102.0134557919142
 30
0.0
 11
180.8746852233829
 21
102.5134557919141
 31
0.0
  0
LINE
  5
526A
  8
0
 10
113.12933792845109
 20
113.7027802042153
 30
0.0
 11
114.3246852233829
 21
113.5134557919141
 31
0.0
  0
LINE
  5
526B
  8
0
 10
114.3246852233829
 20
121.5134557919141
 30
0.0
 11
113.12933792845109
 21
121.32413137961289
 31
0.0
  0
ARC
  5
526C
  8
0
 10
118.28897093766859
 20
117.5134557919141
 30
0.0
 40
6.4142857142857386
 50
143.552072801413
 51
216.447927198587
  0
LINE
  5
526D
  8
0
 10
114.3246852233829
 20
113.5134557919141
 30
0.0
 11
119.8746852233829
 21
113.5134557919141
 31
0.0
  0
LINE
  5
526E
  8
0
 10
119.8746852233829
 20
121.5134557919141
 30
0.0
 11
114.3246852233829
 21
121.5134557919141
 31
0.0
  0
LINE
  5
526F
  8
0
 10
169.78515142827101
 20
126.7634557919141
 30
0.0
 11
169.78515142827101
 21
108.2634557919142
 31
0.0
  0
LINE
  5
5270
  8
0
 10
171.10471945741509
 20
127.82842909761899
 30
0.0
 11
171.10471945741509
 21
107.1984824862093
 31
0.0
  0
LINE
  5
5271
  8
0
 10
171.7646167553184
 20
130.8835091805044
 30
0.0
 11
171.7646167553184
 21
104.1434024033239
 31
0.0
  0
LINE
  5
5272
  8
0
 10
174.40375281360659
 20
133.01345579191411
 30
0.0
 11
174.40375281360659
 21
102.0134557919142
 31
0.0
  0
LINE
  5
5273
  8
0
 10
180.3746852233829
 20
132.92299406989571
 30
0.0
 11
180.3746852233829
 21
132.93392098332521
 31
0.0
  0
LINE
  5
5274
  8
0
 10
180.3746852233829
 20
132.66379034812741
 30
0.0
 11
180.3746852233829
 21
132.6855244574362
 31
0.0
  0
LINE
  5
5275
  8
0
 10
180.3746852233829
 20
132.2385963905499
 30
0.0
 11
180.3746852233829
 21
132.2708995722883
 31
0.0
  0
LINE
  5
5276
  8
0
 10
180.3746852233829
 20
131.65207071114
 30
0.0
 11
180.3746852233829
 21
131.694589044889
 31
0.0
  0
LINE
  5
5277
  8
0
 10
180.3746852233829
 20
130.9106394079796
 30
0.0
 11
180.3746852233829
 21
130.9629070539772
 31
0.0
  0
LINE
  5
5278
  8
0
 10
180.3746852233829
 20
130.02242575758069
 30
0.0
 11
180.3746852233829
 21
130.0838700605596
 31
0.0
  0
LINE
  5
5279
  8
0
 10
180.3746852233829
 20
128.99716121456771
 30
0.0
 11
180.3746852233829
 21
129.06710897788639
 31
0.0
  0
LINE
  5
527A
  8
0
 10
180.3746852233829
 20
127.8460787918243
 30
0.0
 11
180.3746852233829
 21
127.9237636531503
 31
0.0
  0
LINE
  5
527B
  8
0
 10
180.3746852233829
 20
126.58178998925349
 30
0.0
 11
180.3746852233829
 21
126.6663608169896
 31
0.0
  0
LINE
  5
527C
  8
0
 10
180.3746852233829
 20
125.21814661954571
 30
0.0
 11
180.3746852233829
 21
125.3086768380056
 31
0.0
  0
LINE
  5
527D
  8
0
 10
180.3746852233829
 20
123.7700890448202
 30
0.0
 11
180.3746852233829
 21
123.8655867859858
 31
0.0
  0
LINE
  5
527E
  8
0
 10
180.3746852233829
 20
122.2534824868912
 30
0.0
 11
180.3746852233829
 21
122.3529014575261
 31
0.0
  0
LINE
  5
527F
  8
0
 10
180.3746852233829
 20
120.68494320457761
 30
0.0
 11
180.3746852233829
 21
120.7871941496347
 31
0.0
  0
LINE
  5
5280
  8
0
 10
180.3746852233829
 20
119.08165644249451
 30
0.0
 11
180.3746852233829
 21
119.18561907922241
 31
0.0
  0
LINE
  5
5281
  8
0
 10
180.3746852233829
 20
117.46118814591649
 30
0.0
 11
180.3746852233829
 21
117.5657234379118
 31
0.0
  0
LINE
  5
5282
  8
0
 10
180.3746852233829
 20
115.8412925046059
 30
0.0
 11
180.3746852233829
 21
115.9452551413338
 31
0.0
  0
LINE
  5
5283
  8
0
 10
180.3746852233829
 20
114.23971743419359
 30
0.0
 11
180.3746852233829
 21
114.3419683792507
 31
0.0
  0
LINE
  5
5284
  8
0
 10
180.3746852233829
 20
112.67401012630221
 30
0.0
 11
180.3746852233829
 21
112.77342909693709
 31
0.0
  0
LINE
  5
5285
  8
0
 10
180.3746852233829
 20
111.1613247978425
 30
0.0
 11
180.3746852233829
 21
111.2568225390081
 31
0.0
  0
LINE
  5
5286
  8
0
 10
180.3746852233829
 20
109.7182347458227
 30
0.0
 11
180.3746852233829
 21
109.8087649642826
 31
0.0
  0
LINE
  5
5287
  8
0
 10
180.3746852233829
 20
108.3605507668387
 30
0.0
 11
180.3746852233829
 21
108.4451215945748
 31
0.0
  0
LINE
  5
5288
  8
0
 10
180.3746852233829
 20
107.10314793067801
 30
0.0
 11
180.3746852233829
 21
107.180832792004
 31
0.0
  0
LINE
  5
5289
  8
0
 10
180.3746852233829
 20
105.9598026059419
 30
0.0
 11
180.3746852233829
 21
106.0297503692605
 31
0.0
  0
LINE
  5
528A
  8
0
 10
180.3746852233829
 20
104.9430415232687
 30
0.0
 11
180.3746852233829
 21
105.0044858262476
 31
0.0
  0
LINE
  5
528B
  8
0
 10
180.3746852233829
 20
104.0640045298511
 30
0.0
 11
180.3746852233829
 21
104.11627217584871
 31
0.0
  0
LINE
  5
528C
  8
0
 10
180.3746852233829
 20
103.33232253893929
 30
0.0
 11
180.3746852233829
 21
103.3748408726884
 31
0.0
  0
LINE
  5
528D
  8
0
 10
180.3746852233829
 20
102.75601201153999
 30
0.0
 11
180.3746852233829
 21
102.78831519327839
 31
0.0
  0
LINE
  5
528E
  8
0
 10
180.3746852233829
 20
102.34138712639211
 30
0.0
 11
180.3746852233829
 21
102.3631212357009
 31
0.0
  0
LINE
  5
528F
  8
0
 10
180.3746852233829
 20
102.0929906005031
 30
0.0
 11
180.3746852233829
 21
102.1039175139326
 31
0.0
  0
POLYLINE
  5
5290
  8
0
 66
     1
 10
0.0
 20
0.0
 30
0.0
  0
VERTEX
  5
62CF
  8
0
 10
180.8746852233829
 20
132.48974774079349
 30
0.0
  0
VERTEX
  5
62D0
  8
0
 10
180.79462797876801
 20
132.56278100088991
 30
0.0
  0
VERTEX
  5
62D1
  8
0
 10
180.6306140779208
 20
132.71001362598739
 30
0.0
  0
VERTEX
  5
62D2
  8
0
 10
180.46133065344759
 20
132.85886450831919
 30
0.0
  0
VERTEX
  5
62D3
  8
0
 10
180.3746852233829
 20
132.93392098332521
 30
0.0
  0
SEQEND
  5
62D4
  8
0
  0
LINE
  5
5291
  8
0
 10
180.3746852233829
 20
132.93392098332521
 30
0.0
 11
176.83468522338291
 21
132.93392098332521
 31
0.0
  0
POLYLINE
  5
5292
  8
0
 66
     1
 10
0.0
 20
0.0
 30
0.0
  0
VERTEX
  5
62D5
  8
0
 10
180.8746852233829
 20
132.319586663412
 30
0.0
  0
VERTEX
  5
62D6
  8
0
 10
180.79462797876809
 20
132.37975604673119
 30
0.0
  0
VERTEX
  5
62D7
  8
0
 10
180.6306140779208
 20
132.5010555237765
 30
0.0
  0
VERTEX
  5
62D8
  8
0
 10
180.4613306534475
 20
132.62368822269519
 30
0.0
  0
VERTEX
  5
62D9
  8
0
 10
180.3746852233829
 20
132.6855244574362
 30
0.0
  0
SEQEND
  5
62DA
  8
0
  0
LINE
  5
5293
  8
0
 10
180.3746852233829
 20
132.6855244574362
 30
0.0
 11
176.83468522338291
 21
132.6855244574362
 31
0.0
  0
POLYLINE
  5
5294
  8
0
 66
     1
 10
0.0
 20
0.0
 30
0.0
  0
VERTEX
  5
62DB
  8
0
 10
180.8746852233829
 20
131.98720651782031
 30
0.0
  0
VERTEX
  5
62DC
  8
0
 10
180.79462797876801
 20
132.03385279600769
 30
0.0
  0
VERTEX
  5
62DD
  8
0
 10
180.6306140779208
 20
132.12789014254651
 30
0.0
  0
VERTEX
  5
62DE
  8
0
 10
180.4613306534477
 20
132.22296106853989
 30
0.0
  0
VERTEX
  5
62DF
  8
0
 10
180.3746852233829
 20
132.2708995722883
 30
0.0
  0
SEQEND
  5
62E0
  8
0
  0
LINE
  5
5295
  8
0
 10
180.3746852233829
 20
132.2708995722883
 30
0.0
 11
176.83468522338291
 21
132.2708995722883
 31
0.0
  0
POLYLINE
  5
5296
  8
0
 66
     1
 10
0.0
 20
0.0
 30
0.0
  0
VERTEX
  5
62E1
  8
0
 10
180.8746852233829
 20
131.49624893044859
 30
0.0
  0
VERTEX
  5
62E2
  8
0
 10
180.79462797876801
 20
131.5288610371187
 30
0.0
  0
VERTEX
  5
62E3
  8
0
 10
180.6306140779208
 20
131.59460596030399
 30
0.0
  0
VERTEX
  5
62E4
  8
0
 10
180.4613306534477
 20
131.6610734964122
 30
0.0
  0
VERTEX
  5
62E5
  8
0
 10
180.3746852233829
 20
131.694589044889
 30
0.0
  0
SEQEND
  5
62E6
  8
0
  0
LINE
  5
5297
  8
0
 10
180.3746852233829
 20
131.694589044889
 30
0.0
 11
176.83468522338291
 21
131.694589044889
 31
0.0
  0
POLYLINE
  5
5298
  8
0
 66
     1
 10
0.0
 20
0.0
 30
0.0
  0
VERTEX
  5
62E7
  8
0
 10
180.8746852233829
 20
130.8520929353634
 30
0.0
  0
VERTEX
  5
62E8
  8
0
 10
180.79462797876809
 20
130.8703135654512
 30
0.0
  0
VERTEX
  5
62E9
  8
0
 10
180.6306140779208
 20
130.90704575014649
 30
0.0
  0
VERTEX
  5
62EA
  8
0
 10
180.46133065344759
 20
130.94418166413459
 30
0.0
  0
VERTEX
  5
62EB
  8
0
 10
180.3746852233829
 20
130.9629070539772
 30
0.0
  0
SEQEND
  5
62EC
  8
0
  0
LINE
  5
5299
  8
0
 10
180.3746852233829
 20
130.9629070539772
 30
0.0
 11
176.83468522338291
 21
130.9629070539772
 31
0.0
  0
POLYLINE
  5
529A
  8
0
 66
     1
 10
0.0
 20
0.0
 30
0.0
  0
VERTEX
  5
62ED
  8
0
 10
180.8746852233829
 20
130.06179604044539
 30
0.0
  0
VERTEX
  5
62EE
  8
0
 10
180.79462797876809
 20
130.0654255649147
 30
0.0
  0
VERTEX
  5
62EF
  8
0
 10
180.63061407792071
 20
130.07274256561769
 30
0.0
  0
VERTEX
  5
62F0
  8
0
 10
180.4613306534475
 20
130.08013998864089
 30
0.0
  0
VERTEX
  5
62F1
  8
0
 10
180.3746852233829
 20
130.0838700605596
 30
0.0
  0
SEQEND
  5
62F2
  8
0
  0
LINE
  5
529B
  8
0
 10
180.3746852233829
 20
130.0838700605596
 30
0.0
 11
176.83468522338291
 21
130.0838700605596
 31
0.0
  0
POLYLINE
  5
529C
  8
0
 66
     1
 10
0.0
 20
0.0
 30
0.0
  0
VERTEX
  5
62F3
  8
0
 10
180.8746852233829
 20
129.13401690385541
 30
0.0
  0
VERTEX
  5
62F4
  8
0
 10
180.79462797876809
 20
129.1230155568766
 30
0.0
  0
VERTEX
  5
62F5
  8
0
 10
180.6306140779208
 20
129.10083720699649
 30
0.0
  0
VERTEX
  5
62F6
  8
0
 10
180.46133065344759
 20
129.07841509134019
 30
0.0
  0
VERTEX
  5
62F7
  8
0
 10
180.3746852233829
 20
129.06710897788639
 30
0.0
  0
SEQEND
  5
62F8
  8
0
  0
LINE
  5
529D
  8
0
 10
180.3746852233829
 20
129.06710897788639
 30
0.0
 11
176.83468522338291
 21
129.06710897788639
 31
0.0
  0
POLYLINE
  5
529E
  8
0
 66
     1
 10
0.0
 20
0.0
 30
0.0
  0
VERTEX
  5
62F9
  8
0
 10
180.8746852233829
 20
128.07892046796431
 30
0.0
  0
VERTEX
  5
62FA
  8
0
 10
180.79462797876809
 20
128.05340878259699
 30
0.0
  0
VERTEX
  5
62FB
  8
0
 10
180.63061407792071
 20
128.00197807277621
 30
0.0
  0
VERTEX
  5
62FC
  8
0
 10
180.46133065344759
 20
127.9499820798315
 30
0.0
  0
VERTEX
  5
62FD
  8
0
 10
180.3746852233829
 20
127.9237636531503
 30
0.0
  0
SEQEND
  5
62FE
  8
0
  0
LINE
  5
529F
  8
0
 10
180.3746852233829
 20
127.9237636531503
 30
0.0
 11
176.83468522338291
 21
127.9237636531503
 31
0.0
  0
POLYLINE
  5
52A0
  8
0
 66
     1
 10
0.0
 20
0.0
 30
0.0
  0
VERTEX
  5
62FF
  8
0
 10
180.8746852233829
 20
126.9080665901167
 30
0.0
  0
VERTEX
  5
6300
  8
0
 10
180.79462797876801
 20
126.86832407772459
 30
0.0
  0
VERTEX
  5
6301
  8
0
 10
180.63061407792071
 20
126.7882044935824
 30
0.0
  0
VERTEX
  5
6302
  8
0
 10
180.46133065344759
 20
126.707204302329
 30
0.0
  0
VERTEX
  5
6303
  8
0
 10
180.3746852233829
 20
126.6663608169896
 30
0.0
  0
SEQEND
  5
6304
  8
0
  0
LINE
  5
52A1
  8
0
 10
180.3746852233829
 20
126.6663608169896
 30
0.0
 11
176.83468522338291
 21
126.6663608169896
 31
0.0
  0
POLYLINE
  5
52A2
  8
0
 66
     1
 10
0.0
 20
0.0
 30
0.0
  0
VERTEX
  5
6305
  8
0
 10
180.8746852233829
 20
125.6342833904154
 30
0.0
  0
VERTEX
  5
6306
  8
0
 10
180.79462797876801
 20
125.5807454782807
 30
0.0
  0
VERTEX
  5
6307
  8
0
 10
180.6306140779208
 20
125.4728148267471
 30
0.0
  0
VERTEX
  5
6308
  8
0
 10
180.4613306534477
 20
125.3636978922308
 30
0.0
  0
VERTEX
  5
6309
  8
0
 10
180.3746852233829
 20
125.3086768380056
 30
0.0
  0
SEQEND
  5
630A
  8
0
  0
LINE
  5
52A3
  8
0
 10
180.3746852233829
 20
125.3086768380056
 30
0.0
 11
176.83468522338291
 21
125.3086768380056
 31
0.0
  0
POLYLINE
  5
52A4
  8
0
 66
     1
 10
0.0
 20
0.0
 30
0.0
  0
VERTEX
  5
630B
  8
0
 10
180.8746852233829
 20
124.27152670415239
 30
0.0
  0
VERTEX
  5
630C
  8
0
 10
180.79462797876801
 20
124.20477996484411
 30
0.0
  0
VERTEX
  5
630D
  8
0
 10
180.6306140779208
 20
124.0702207567233
 30
0.0
  0
VERTEX
  5
630E
  8
0
 10
180.4613306534477
 20
123.9341825869128
 30
0.0
  0
VERTEX
  5
630F
  8
0
 10
180.3746852233829
 20
123.8655867859858
 30
0.0
  0
SEQEND
  5
6310
  8
0
  0
LINE
  5
52A5
  8
0
 10
180.3746852233829
 20
123.8655867859858
 30
0.0
 11
176.83468522338291
 21
123.8655867859858
 31
0.0
  0
POLYLINE
  5
52A6
  8
0
 66
     1
 10
0.0
 20
0.0
 30
0.0
  0
VERTEX
  5
6311
  8
0
 10
180.8746852233829
 20
122.8347271787577
 30
0.0
  0
VERTEX
  5
6312
  8
0
 10
180.79462797876809
 20
122.7555029035194
 30
0.0
  0
VERTEX
  5
6313
  8
0
 10
180.6306140779208
 20
122.5957893976538
 30
0.0
  0
VERTEX
  5
6314
  8
0
 10
180.46133065344759
 20
122.4343204552051
 30
0.0
  0
VERTEX
  5
6315
  8
0
 10
180.3746852233829
 20
122.3529014575261
 30
0.0
  0
SEQEND
  5
6316
  8
0
  0
LINE
  5
52A7
  8
0
 10
180.3746852233829
 20
122.3529014575261
 30
0.0
 11
176.83468522338291
 21
122.3529014575261
 31
0.0
  0
POLYLINE
  5
52A8
  8
0
 66
     1
 10
0.0
 20
0.0
 30
0.0
  0
VERTEX
  5
6317
  8
0
 10
180.8746852233829
 20
121.33962669050111
 30
0.0
  0
VERTEX
  5
6318
  8
0
 10
180.79462797876801
 20
121.2487928770709
 30
0.0
  0
VERTEX
  5
6319
  8
0
 10
180.6306140779208
 20
121.0656749280531
 30
0.0
  0
VERTEX
  5
631A
  8
0
 10
180.46133065344759
 20
120.8805443004896
 30
0.0
  0
VERTEX
  5
631B
  8
0
 10
180.3746852233829
 20
120.7871941496347
 30
0.0
  0
SEQEND
  5
631C
  8
0
  0
LINE
  5
52A9
  8
0
 10
180.3746852233829
 20
120.7871941496347
 30
0.0
 11
176.83468522338291
 21
120.7871941496347
 31
0.0
  0
POLYLINE
  5
52AA
  8
0
 66
     1
 10
0.0
 20
0.0
 30
0.0
  0
VERTEX
  5
631D
  8
0
 10
180.8746852233829
 20
119.8026058732018
 30
0.0
  0
VERTEX
  5
631E
  8
0
 10
180.79462797876801
 20
119.701157715848
 30
0.0
  0
VERTEX
  5
631F
  8
0
 10
180.6306140779208
 20
119.4966416022471
 30
0.0
  0
VERTEX
  5
6320
  8
0
 10
180.46133065344759
 20
119.2898776194653
 30
0.0
  0
VERTEX
  5
6321
  8
0
 10
180.3746852233829
 20
119.18561907922241
 30
0.0
  0
SEQEND
  5
6322
  8
0
  0
LINE
  5
52AB
  8
0
 10
180.3746852233829
 20
119.1856190792225
 30
0.0
 11
176.83468522338291
 21
119.1856190792225
 31
0.0
  0
POLYLINE
  5
52AC
  8
0
 66
     1
 10
0.0
 20
0.0
 30
0.0
  0
VERTEX
  5
6323
  8
0
 10
180.8746852233829
 20
118.2405046485765
 30
0.0
  0
VERTEX
  5
6324
  8
0
 10
180.79462797876809
 20
118.1295536345405
 30
0.0
  0
VERTEX
  5
6325
  8
0
 10
180.6306140779208
 20
117.905880077695
 30
0.0
  0
VERTEX
  5
6326
  8
0
 10
180.46133065344759
 20
117.6797480891582
 30
0.0
  0
VERTEX
  5
6327
  8
0
 10
180.3746852233829
 20
117.5657234379117
 30
0.0
  0
SEQEND
  5
6328
  8
0
  0
LINE
  5
52AD
  8
0
 10
180.3746852233829
 20
117.5657234379118
 30
0.0
 11
176.83468522338291
 21
117.5657234379118
 31
0.0
  0
POLYLINE
  5
52AE
  8
0
 66
     1
 10
0.0
 20
0.0
 30
0.0
  0
VERTEX
  5
6329
  8
0
 10
180.8746852233829
 20
116.6704377245329
 30
0.0
  0
VERTEX
  5
632A
  8
0
 10
180.79462797876809
 20
116.5511994563422
 30
0.0
  0
VERTEX
  5
632B
  8
0
 10
180.6306140779208
 20
116.31081907054759
 30
0.0
  0
VERTEX
  5
632C
  8
0
 10
180.46133065344759
 20
116.06779662564369
 30
0.0
  0
VERTEX
  5
632D
  8
0
 10
180.3746852233829
 20
115.9452551413338
 30
0.0
  0
SEQEND
  5
632E
  8
0
  0
LINE
  5
52AF
  8
0
 10
180.3746852233829
 20
115.9452551413338
 30
0.0
 11
176.83468522338291
 21
115.9452551413338
 31
0.0
  0
POLYLINE
  5
52B0
  8
0
 66
     1
 10
0.0
 20
0.0
 30
0.0
  0
VERTEX
  5
632F
  8
0
 10
180.8746852233829
 20
115.1096070828484
 30
0.0
  0
VERTEX
  5
6330
  8
0
 10
180.79462797876809
 20
114.9833879599216
 30
0.0
  0
VERTEX
  5
6331
  8
0
 10
180.63061407792071
 20
114.72893440298751
 30
0.0
  0
VERTEX
  5
6332
  8
0
 10
180.46133065344759
 20
114.47168410647851
 30
0.0
  0
VERTEX
  5
6333
  8
0
 10
180.3746852233829
 20
114.3419683792507
 30
0.0
  0
SEQEND
  5
6334
  8
0
  0
LINE
  5
52B1
  8
0
 10
180.3746852233829
 20
114.3419683792507
 30
0.0
 11
176.83468522338291
 21
114.3419683792507
 31
0.0
  0
POLYLINE
  5
52B2
  8
0
 66
     1
 10
0.0
 20
0.0
 30
0.0
  0
VERTEX
  5
6335
  8
0
 10
180.8746852233829
 20
113.575113510658
 30
0.0
  0
VERTEX
  5
6336
  8
0
 10
180.79462797876801
 20
113.443296416119
 30
0.0
  0
VERTEX
  5
6337
  8
0
 10
180.6306140779208
 20
113.1775575344632
 30
0.0
  0
VERTEX
  5
6338
  8
0
 10
180.4613306534477
 20
112.90889787443071
 30
0.0
  0
VERTEX
  5
6339
  8
0
 10
180.3746852233829
 20
112.77342909693709
 30
0.0
  0
SEQEND
  5
633A
  8
0
  0
LINE
  5
52B3
  8
0
 10
180.3746852233829
 20
112.77342909693709
 30
0.0
 11
176.83468522338291
 21
112.77342909693709
 31
0.0
  0
POLYLINE
  5
52B4
  8
0
 66
     1
 10
0.0
 20
0.0
 30
0.0
  0
VERTEX
  5
633B
  8
0
 10
180.8746852233829
 20
112.0837692406523
 30
0.0
  0
VERTEX
  5
633C
  8
0
 10
180.79462797876801
 20
111.9477983901733
 30
0.0
  0
VERTEX
  5
633D
  8
0
 10
180.6306140779208
 20
111.67368567459231
 30
0.0
  0
VERTEX
  5
633E
  8
0
 10
180.46133065344759
 20
111.39656014249231
 30
0.0
  0
VERTEX
  5
633F
  8
0
 10
180.3746852233829
 20
111.2568225390081
 30
0.0
  0
SEQEND
  5
6340
  8
0
  0
LINE
  5
52B5
  8
0
 10
180.3746852233829
 20
111.2568225390081
 30
0.0
 11
176.83468522338291
 21
111.2568225390081
 31
0.0
  0
POLYLINE
  5
52B6
  8
0
 66
     1
 10
0.0
 20
0.0
 30
0.0
  0
VERTEX
  5
6341
  8
0
 10
180.8746852233829
 20
110.6519137527371
 30
0.0
  0
VERTEX
  5
6342
  8
0
 10
180.79462797876809
 20
110.5132788714099
 30
0.0
  0
VERTEX
  5
6343
  8
0
 10
180.6306140779208
 20
110.23379555817741
 30
0.0
  0
VERTEX
  5
6344
  8
0
 10
180.46133065344759
 20
109.9512403993317
 30
0.0
  0
VERTEX
  5
6345
  8
0
 10
180.3746852233829
 20
109.8087649642826
 30
0.0
  0
SEQEND
  5
6346
  8
0
  0
LINE
  5
52B7
  8
0
 10
180.3746852233829
 20
109.8087649642826
 30
0.0
 11
176.83468522338291
 21
109.8087649642826
 31
0.0
  0
POLYLINE
  5
52B8
  8
0
 66
     1
 10
0.0
 20
0.0
 30
0.0
  0
VERTEX
  5
6347
  8
0
 10
180.8746852233829
 20
109.2952347552731
 30
0.0
  0
VERTEX
  5
6348
  8
0
 10
180.79462797876801
 20
109.1554547558684
 30
0.0
  0
VERTEX
  5
6349
  8
0
 10
180.63061407792071
 20
108.87366292265
 30
0.0
  0
VERTEX
  5
634A
  8
0
 10
180.46133065344759
 20
108.5887738705075
 30
0.0
  0
VERTEX
  5
634B
  8
0
 10
180.3746852233829
 20
108.4451215945748
 30
0.0
  0
SEQEND
  5
634C
  8
0
  0
LINE
  5
52B9
  8
0
 10
180.3746852233829
 20
108.4451215945748
 30
0.0
 11
176.83468522338291
 21
108.4451215945748
 31
0.0
  0
POLYLINE
  5
52BA
  8
0
 66
     1
 10
0.0
 20
0.0
 30
0.0
  0
VERTEX
  5
634D
  8
0
 10
180.8746852233829
 20
108.0285963072598
 30
0.0
  0
VERTEX
  5
634E
  8
0
 10
180.7946279787682
 20
107.88920264870239
 30
0.0
  0
VERTEX
  5
634F
  8
0
 10
180.6306140779208
 20
107.6081896657915
 30
0.0
  0
VERTEX
  5
6350
  8
0
 10
180.4613306534475
 20
107.3240880244241
 30
0.0
  0
VERTEX
  5
6351
  8
0
 10
180.3746852233829
 20
107.180832792004
 30
0.0
  0
SEQEND
  5
6352
  8
0
  0
LINE
  5
52BB
  8
0
 10
180.3746852233829
 20
107.180832792004
 30
0.0
 11
176.83468522338291
 21
107.180832792004
 31
0.0
  0
POLYLINE
  5
52BC
  8
0
 66
     1
 10
0.0
 20
0.0
 30
0.0
  0
VERTEX
  5
6353
  8
0
 10
180.8746852233829
 20
106.86587596459491
 30
0.0
  0
VERTEX
  5
6354
  8
0
 10
180.79462797876801
 20
106.7283958729774
 30
0.0
  0
VERTEX
  5
6355
  8
0
 10
180.63061407792071
 20
106.45124057742071
 30
0.0
  0
VERTEX
  5
6356
  8
0
 10
180.46133065344759
 20
106.1710390238637
 30
0.0
  0
VERTEX
  5
6357
  8
0
 10
180.3746852233829
 20
106.0297503692606
 30
0.0
  0
SEQEND
  5
6358
  8
0
  0
LINE
  5
52BD
  8
0
 10
180.3746852233829
 20
106.0297503692606
 30
0.0
 11
176.83468522338291
 21
106.0297503692606
 31
0.0
  0
POLYLINE
  5
52BE
  8
0
 66
     1
 10
0.0
 20
0.0
 30
0.0
  0
VERTEX
  5
6359
  8
0
 10
180.8746852233829
 20
105.81981273466739
 30
0.0
  0
VERTEX
  5
635A
  8
0
 10
180.79462797876809
 20
105.68575247064339
 30
0.0
  0
VERTEX
  5
635B
  8
0
 10
180.6306140779208
 20
105.4154914338573
 30
0.0
  0
VERTEX
  5
635C
  8
0
 10
180.46133065344759
 20
105.1422599149673
 30
0.0
  0
VERTEX
  5
635D
  8
0
 10
180.3746852233829
 20
105.0044858262476
 30
0.0
  0
SEQEND
  5
635E
  8
0
  0
LINE
  5
52BF
  8
0
 10
180.3746852233829
 20
105.0044858262476
 30
0.0
 11
176.83468522338291
 21
105.0044858262476
 31
0.0
  0
LINE
  5
52C0
  8
0
 10
180.8746852233829
 20
132.5134557919142
 30
0.0
 11
180.8746852233829
 21
102.5134557919141
 31
0.0
  0
POLYLINE
  5
52C1
  8
0
 66
     1
 10
0.0
 20
0.0
 30
0.0
  0
VERTEX
  5
635F
  8
0
 10
180.8746852233829
 20
104.9018675051272
 30
0.0
  0
VERTEX
  5
6360
  8
0
 10
180.79462797876801
 20
104.7726958610032
 30
0.0
  0
VERTEX
  5
6361
  8
0
 10
180.6306140779208
 20
104.51229011946261
 30
0.0
  0
VERTEX
  5
6362
  8
0
 10
180.46133065344759
 20
104.2490222169379
 30
0.0
  0
VERTEX
  5
6363
  8
0
 10
180.3746852233829
 20
104.11627217584871
 30
0.0
  0
SEQEND
  5
6364
  8
0
  0
LINE
  5
52C2
  8
0
 10
180.3746852233829
 20
104.11627217584871
 30
0.0
 11
176.83468522338291
 21
104.11627217584871
 31
0.0
  0
POLYLINE
  5
52C3
  8
0
 66
     1
 10
0.0
 20
0.0
 30
0.0
  0
VERTEX
  5
6365
  8
0
 10
180.8746852233829
 20
104.1220974760016
 30
0.0
  0
VERTEX
  5
6366
  8
0
 10
180.79462797876801
 20
103.9992296833416
 30
0.0
  0
VERTEX
  5
6367
  8
0
 10
180.63061407792071
 20
103.751532296844
 30
0.0
  0
VERTEX
  5
6368
  8
0
 10
180.46133065344759
 20
103.501112428917
 30
0.0
  0
VERTEX
  5
6369
  8
0
 10
180.3746852233829
 20
103.3748408726884
 30
0.0
  0
SEQEND
  5
636A
  8
0
  0
LINE
  5
52C4
  8
0
 10
180.3746852233829
 20
103.3748408726884
 30
0.0
 11
176.83468522338291
 21
103.3748408726884
 31
0.0
  0
POLYLINE
  5
52C5
  8
0
 66
     1
 10
0.0
 20
0.0
 30
0.0
  0
VERTEX
  5
636B
  8
0
 10
180.8746852233829
 20
103.4890459709071
 30
0.0
  0
VERTEX
  5
636C
  8
0
 10
180.79462797876809
 20
103.3738281949592
 30
0.0
  0
VERTEX
  5
636D
  8
0
 10
180.6306140779208
 20
103.1415529879052
 30
0.0
  0
VERTEX
  5
636E
  8
0
 10
180.46133065344759
 20
102.9067248070524
 30
0.0
  0
VERTEX
  5
636F
  8
0
 10
180.3746852233829
 20
102.78831519327839
 30
0.0
  0
SEQEND
  5
6370
  8
0
  0
LINE
  5
52C6
  8
0
 10
180.3746852233829
 20
102.78831519327839
 30
0.0
 11
176.83468522338291
 21
102.78831519327839
 31
0.0
  0
POLYLINE
  5
52C7
  8
0
 66
     1
 10
0.0
 20
0.0
 30
0.0
  0
VERTEX
  5
6371
  8
0
 10
180.8746852233829
 20
103.0096488346079
 30
0.0
  0
VERTEX
  5
6372
  8
0
 10
180.79462797876809
 20
102.9033434254362
 30
0.0
  0
VERTEX
  5
6373
  8
0
 10
180.6306140779208
 20
102.68903525360101
 30
0.0
  0
VERTEX
  5
6374
  8
0
 10
180.46133065344759
 20
102.47237158651311
 30
0.0
  0
VERTEX
  5
6375
  8
0
 10
180.3746852233829
 20
102.3631212357009
 30
0.0
  0
SEQEND
  5
6376
  8
0
  0
LINE
  5
52C8
  8
0
 10
180.3746852233829
 20
102.3631212357009
 30
0.0
 11
176.83468522338291
 21
102.3631212357009
 31
0.0
  0
POLYLINE
  5
52C9
  8
0
 66
     1
 10
0.0
 20
0.0
 30
0.0
  0
VERTEX
  5
6377
  8
0
 10
180.8746852233829
 20
102.6891584424497
 30
0.0
  0
VERTEX
  5
6378
  8
0
 10
180.79462797876801
 20
102.59293010436279
 30
0.0
  0
VERTEX
  5
6379
  8
0
 10
180.6306140779208
 20
102.3989369729241
 30
0.0
  0
VERTEX
  5
637A
  8
0
 10
180.4613306534477
 20
102.2028116320775
 30
0.0
  0
VERTEX
  5
637B
  8
0
 10
180.3746852233829
 20
102.1039175139326
 30
0.0
  0
SEQEND
  5
637C
  8
0
  0
LINE
  5
52CA
  8
0
 10
180.3746852233829
 20
102.1039175139326
 30
0.0
 11
176.83468522338291
 21
102.1039175139326
 31
0.0
  0
POLYLINE
  5
52CB
  8
0
 66
     1
 10
0.0
 20
0.0
 30
0.0
  0
VERTEX
  5
637D
  8
0
 10
180.8746852233829
 20
102.53108615423579
 30
0.0
  0
VERTEX
  5
637E
  8
0
 10
180.79462797876801
 20
102.4459891850431
 30
0.0
  0
VERTEX
  5
637F
  8
0
 10
180.63061407792071
 20
102.27443652334441
 30
0.0
  0
VERTEX
  5
6380
  8
0
 10
180.46133065344759
 20
102.1009982990151
 30
0.0
  0
VERTEX
  5
6381
  8
0
 10
180.3746852233829
 20
102.0135439181911
 30
0.0
  0
SEQEND
  5
6382
  8
0
  0
LINE
  5
52CC
  8
0
 10
180.3746852233829
 20
102.0135439181911
 30
0.0
 11
176.83468522338291
 21
102.0135439181911
 31
0.0
  0
POLYLINE
  5
52CD
  8
0
 66
     1
 10
0.0
 20
0.0
 30
0.0
  0
VERTEX
  5
6383
  8
0
 10
180.3746852233829
 20
133.01336766563719
 30
0.0
  0
VERTEX
  5
6384
  8
0
 10
180.46133065344759
 20
132.92591328481319
 30
0.0
  0
VERTEX
  5
6385
  8
0
 10
180.6306140779208
 20
132.7524750604839
 30
0.0
  0
VERTEX
  5
6386
  8
0
 10
180.79462797876809
 20
132.58092239878511
 30
0.0
  0
VERTEX
  5
6387
  8
0
 10
180.8746852233829
 20
132.49582542959249
 30
0.0
  0
SEQEND
  5
6388
  8
0
  0
LINE
  5
52CE
  8
0
 10
176.83468522338291
 20
133.01336766563719
 30
0.0
 11
180.3746852233829
 21
133.01336766563719
 31
0.0
  0
LINE
  5
52CF
  8
0
 10
176.83468522338291
 20
132.93392098332521
 30
0.0
 11
176.83468522338291
 21
133.01336766563719
 31
0.0
  0
LINE
  5
52D0
  8
0
 10
176.83468522338291
 20
132.6855244574362
 30
0.0
 11
176.83468522338291
 21
132.92299406989571
 31
0.0
  0
LINE
  5
52D1
  8
0
 10
176.83468522338291
 20
132.2708995722883
 30
0.0
 11
176.83468522338291
 21
132.66379034812741
 31
0.0
  0
LINE
  5
52D2
  8
0
 10
176.83468522338291
 20
131.694589044889
 30
0.0
 11
176.83468522338291
 21
132.2385963905499
 31
0.0
  0
LINE
  5
52D3
  8
0
 10
176.83468522338291
 20
130.9629070539772
 30
0.0
 11
176.83468522338291
 21
131.65207071114
 31
0.0
  0
LINE
  5
52D4
  8
0
 10
176.83468522338291
 20
130.0838700605596
 30
0.0
 11
176.83468522338291
 21
130.9106394079796
 31
0.0
  0
LINE
  5
52D5
  8
0
 10
176.83468522338291
 20
129.06710897788639
 30
0.0
 11
176.83468522338291
 21
130.02242575758069
 31
0.0
  0
LINE
  5
52D6
  8
0
 10
176.83468522338291
 20
127.9237636531503
 30
0.0
 11
176.83468522338291
 21
128.99716121456771
 31
0.0
  0
LINE
  5
52D7
  8
0
 10
176.83468522338291
 20
126.6663608169896
 30
0.0
 11
176.83468522338291
 21
127.8460787918243
 31
0.0
  0
LINE
  5
52D8
  8
0
 10
176.83468522338291
 20
125.3086768380056
 30
0.0
 11
176.83468522338291
 21
126.58178998925349
 31
0.0
  0
LINE
  5
52D9
  8
0
 10
176.83468522338291
 20
123.8655867859858
 30
0.0
 11
176.83468522338291
 21
125.21814661954571
 31
0.0
  0
LINE
  5
52DA
  8
0
 10
176.83468522338291
 20
122.3529014575261
 30
0.0
 11
176.83468522338291
 21
123.7700890448202
 31
0.0
  0
LINE
  5
52DB
  8
0
 10
176.83468522338291
 20
120.7871941496347
 30
0.0
 11
176.83468522338291
 21
122.2534824868912
 31
0.0
  0
LINE
  5
52DC
  8
0
 10
176.83468522338291
 20
119.1856190792225
 30
0.0
 11
176.83468522338291
 21
120.68494320457761
 31
0.0
  0
LINE
  5
52DD
  8
0
 10
176.83468522338291
 20
117.5657234379118
 30
0.0
 11
176.83468522338291
 21
119.08165644249451
 31
0.0
  0
LINE
  5
52DE
  8
0
 10
176.83468522338291
 20
115.9452551413338
 30
0.0
 11
176.83468522338291
 21
117.46118814591649
 31
0.0
  0
LINE
  5
52DF
  8
0
 10
176.83468522338291
 20
114.3419683792507
 30
0.0
 11
176.83468522338291
 21
115.8412925046059
 31
0.0
  0
LINE
  5
52E0
  8
0
 10
176.83468522338291
 20
112.77342909693709
 30
0.0
 11
176.83468522338291
 21
114.23971743419359
 31
0.0
  0
LINE
  5
52E1
  8
0
 10
176.83468522338291
 20
111.2568225390081
 30
0.0
 11
176.83468522338291
 21
112.67401012630221
 31
0.0
  0
LINE
  5
52E2
  8
0
 10
176.83468522338291
 20
109.8087649642826
 30
0.0
 11
176.83468522338291
 21
111.1613247978425
 31
0.0
  0
LINE
  5
52E3
  8
0
 10
176.83468522338291
 20
108.4451215945748
 30
0.0
 11
176.83468522338291
 21
109.7182347458227
 31
0.0
  0
LINE
  5
52E4
  8
0
 10
176.83468522338291
 20
107.180832792004
 30
0.0
 11
176.83468522338291
 21
108.3605507668387
 31
0.0
  0
LINE
  5
52E5
  8
0
 10
176.83468522338291
 20
106.0297503692606
 30
0.0
 11
176.83468522338291
 21
107.10314793067801
 31
0.0
  0
LINE
  5
52E6
  8
0
 10
176.83468522338291
 20
105.0044858262476
 30
0.0
 11
176.83468522338291
 21
105.9598026059419
 31
0.0
  0
LINE
  5
52E7
  8
0
 10
176.83468522338291
 20
104.11627217584871
 30
0.0
 11
176.83468522338291
 21
104.9430415232687
 31
0.0
  0
LINE
  5
52E8
  8
0
 10
176.83468522338291
 20
103.3748408726884
 30
0.0
 11
176.83468522338291
 21
104.0640045298511
 31
0.0
  0
LINE
  5
52E9
  8
0
 10
176.83468522338291
 20
102.78831519327839
 30
0.0
 11
176.83468522338291
 21
103.33232253893929
 31
0.0
  0
LINE
  5
52EA
  8
0
 10
176.83468522338291
 20
102.3631212357009
 30
0.0
 11
176.83468522338291
 21
102.75601201153999
 31
0.0
  0
LINE
  5
52EB
  8
0
 10
176.83468522338291
 20
102.1039175139326
 30
0.0
 11
176.83468522338291
 21
102.34138712639211
 31
0.0
  0
LINE
  5
52EC
  8
0
 10
176.83468522338291
 20
102.0135439181911
 30
0.0
 11
176.83468522338291
 21
102.0929906005031
 31
0.0
  0
POLYLINE
  5
52ED
  8
0
 66
     1
 10
0.0
 20
0.0
 30
0.0
  0
VERTEX
  5
6389
  8
0
 10
180.3746852233829
 20
132.92299406989571
 30
0.0
  0
VERTEX
  5
638A
  8
0
 10
180.46133065344759
 20
132.8240999517509
 30
0.0
  0
VERTEX
  5
638B
  8
0
 10
180.6306140779208
 20
132.6279746109042
 30
0.0
  0
VERTEX
  5
638C
  8
0
 10
180.79462797876809
 20
132.4339814794653
 30
0.0
  0
VERTEX
  5
638D
  8
0
 10
180.8746852233829
 20
132.3377531413787
 30
0.0
  0
SEQEND
  5
638E
  8
0
  0
LINE
  5
52EE
  8
0
 10
176.83468522338291
 20
132.92299406989571
 30
0.0
 11
180.3746852233829
 21
132.92299406989571
 31
0.0
  0
POLYLINE
  5
52EF
  8
0
 66
     1
 10
0.0
 20
0.0
 30
0.0
  0
VERTEX
  5
638F
  8
0
 10
180.3746852233829
 20
132.66379034812741
 30
0.0
  0
VERTEX
  5
6390
  8
0
 10
180.46133065344759
 20
132.55453999731509
 30
0.0
  0
VERTEX
  5
6391
  8
0
 10
180.63061407792071
 20
132.33787633022729
 30
0.0
  0
VERTEX
  5
6392
  8
0
 10
180.79462797876801
 20
132.12356815839209
 30
0.0
  0
VERTEX
  5
6393
  8
0
 10
180.8746852233829
 20
132.01726274922041
 30
0.0
  0
SEQEND
  5
6394
  8
0
  0
LINE
  5
52F0
  8
0
 10
176.83468522338291
 20
132.66379034812741
 30
0.0
 11
180.3746852233829
 21
132.66379034812741
 31
0.0
  0
POLYLINE
  5
52F1
  8
0
 66
     1
 10
0.0
 20
0.0
 30
0.0
  0
VERTEX
  5
6395
  8
0
 10
180.3746852233829
 20
132.2385963905499
 30
0.0
  0
VERTEX
  5
6396
  8
0
 10
180.46133065344759
 20
132.1201867767758
 30
0.0
  0
VERTEX
  5
6397
  8
0
 10
180.6306140779208
 20
131.88535859592309
 30
0.0
  0
VERTEX
  5
6398
  8
0
 10
180.79462797876809
 20
131.65308338886911
 30
0.0
  0
VERTEX
  5
6399
  8
0
 10
180.8746852233829
 20
131.53786561292131
 30
0.0
  0
SEQEND
  5
639A
  8
0
  0
LINE
  5
52F2
  8
0
 10
176.83468522338291
 20
132.2385963905499
 30
0.0
 11
180.3746852233829
 21
132.2385963905499
 31
0.0
  0
POLYLINE
  5
52F3
  8
0
 66
     1
 10
0.0
 20
0.0
 30
0.0
  0
VERTEX
  5
639B
  8
0
 10
180.3746852233829
 20
131.65207071114
 30
0.0
  0
VERTEX
  5
639C
  8
0
 10
180.46133065344759
 20
131.5257991549114
 30
0.0
  0
VERTEX
  5
639D
  8
0
 10
180.6306140779208
 20
131.27537928698419
 30
0.0
  0
VERTEX
  5
639E
  8
0
 10
180.79462797876809
 20
131.02768190048661
 30
0.0
  0
VERTEX
  5
639F
  8
0
 10
180.8746852233829
 20
130.90481410782661
 30
0.0
  0
SEQEND
  5
63A0
  8
0
  0
LINE
  5
52F4
  8
0
 10
176.83468522338291
 20
131.65207071114
 30
0.0
 11
180.3746852233829
 21
131.65207071114
 31
0.0
  0
POLYLINE
  5
52F5
  8
0
 66
     1
 10
0.0
 20
0.0
 30
0.0
  0
VERTEX
  5
63A1
  8
0
 10
180.3746852233829
 20
130.9106394079796
 30
0.0
  0
VERTEX
  5
63A2
  8
0
 10
180.46133065344759
 20
130.77788936689061
 30
0.0
  0
VERTEX
  5
63A3
  8
0
 10
180.6306140779208
 20
130.51462146436569
 30
0.0
  0
VERTEX
  5
63A4
  8
0
 10
180.79462797876809
 20
130.25421572282491
 30
0.0
  0
VERTEX
  5
63A5
  8
0
 10
180.8746852233829
 20
130.12504407870111
 30
0.0
  0
SEQEND
  5
63A6
  8
0
  0
LINE
  5
52F6
  8
0
 10
176.83468522338291
 20
130.9106394079796
 30
0.0
 11
180.3746852233829
 21
130.9106394079796
 31
0.0
  0
POLYLINE
  5
52F7
  8
0
 66
     1
 10
0.0
 20
0.0
 30
0.0
  0
VERTEX
  5
63A7
  8
0
 10
180.3746852233829
 20
130.02242575758069
 30
0.0
  0
VERTEX
  5
63A8
  8
0
 10
180.46133065344759
 20
129.88465166886101
 30
0.0
  0
VERTEX
  5
63A9
  8
0
 10
180.6306140779208
 20
129.61142014997091
 30
0.0
  0
VERTEX
  5
63AA
  8
0
 10
180.79462797876809
 20
129.3411591131848
 30
0.0
  0
VERTEX
  5
63AB
  8
0
 10
180.8746852233829
 20
129.2070988491609
 30
0.0
  0
SEQEND
  5
63AC
  8
0
  0
LINE
  5
52F8
  8
0
 10
180.8746852233829
 20
129.1395593753104
 30
0.0
 11
176.83468522338291
 21
129.1395593753104
 31
0.0
  0
LINE
  5
52F9
  8
0
 10
176.83468522338291
 20
130.02242575758069
 30
0.0
 11
180.3746852233829
 21
130.02242575758069
 31
0.0
  0
POLYLINE
  5
52FA
  8
0
 66
     1
 10
0.0
 20
0.0
 30
0.0
  0
VERTEX
  5
63AD
  8
0
 10
180.3746852233829
 20
128.99716121456771
 30
0.0
  0
VERTEX
  5
63AE
  8
0
 10
180.4613306534477
 20
128.85587255996441
 30
0.0
  0
VERTEX
  5
63AF
  8
0
 10
180.6306140779208
 20
128.57567100640759
 30
0.0
  0
VERTEX
  5
63B0
  8
0
 10
180.79462797876801
 20
128.29851571085089
 30
0.0
  0
VERTEX
  5
63B1
  8
0
 10
180.8746852233829
 20
128.16103561923339
 30
0.0
  0
SEQEND
  5
63B2
  8
0
  0
LINE
  5
52FB
  8
0
 10
180.8746852233829
 20
128.0917732384649
 30
0.0
 11
176.83468522338291
 21
128.0917732384649
 31
0.0
  0
LINE
  5
52FC
  8
0
 10
176.83468522338291
 20
128.99716121456771
 30
0.0
 11
180.3746852233829
 21
128.99716121456771
 31
0.0
  0
POLYLINE
  5
52FD
  8
0
 66
     1
 10
0.0
 20
0.0
 30
0.0
  0
VERTEX
  5
63B3
  8
0
 10
180.3746852233829
 20
127.8460787918243
 30
0.0
  0
VERTEX
  5
63B4
  8
0
 10
180.4613306534475
 20
127.70282355940429
 30
0.0
  0
VERTEX
  5
63B5
  8
0
 10
180.63061407792071
 20
127.41872191803689
 30
0.0
  0
VERTEX
  5
63B6
  8
0
 10
180.79462797876809
 20
127.1377089351259
 30
0.0
  0
VERTEX
  5
63B7
  8
0
 10
180.8746852233829
 20
126.9983152765685
 30
0.0
  0
SEQEND
  5
63B8
  8
0
  0
LINE
  5
52FE
  8
0
 10
180.8746852233829
 20
126.9280888420197
 30
0.0
 11
176.83468522338291
 21
126.9280888420197
 31
0.0
  0
LINE
  5
52FF
  8
0
 10
176.83468522338291
 20
127.8460787918243
 30
0.0
 11
180.3746852233829
 21
127.8460787918243
 31
0.0
  0
POLYLINE
  5
5300
  8
0
 66
     1
 10
0.0
 20
0.0
 30
0.0
  0
VERTEX
  5
63B9
  8
0
 10
180.3746852233829
 20
126.58178998925349
 30
0.0
  0
VERTEX
  5
63BA
  8
0
 10
180.46133065344759
 20
126.4381377133207
 30
0.0
  0
VERTEX
  5
63BB
  8
0
 10
180.6306140779208
 20
126.1532486611782
 30
0.0
  0
VERTEX
  5
63BC
  8
0
 10
180.79462797876809
 20
125.8714568279598
 30
0.0
  0
VERTEX
  5
63BD
  8
0
 10
180.8746852233829
 20
125.73167682855529
 30
0.0
  0
SEQEND
  5
63BE
  8
0
  0
LINE
  5
5301
  8
0
 10
180.8746852233829
 20
125.66125575573891
 30
0.0
 11
176.83468522338291
 21
125.66125575573891
 31
0.0
  0
LINE
  5
5302
  8
0
 10
176.83468522338291
 20
126.58178998925349
 30
0.0
 11
180.3746852233829
 21
126.58178998925349
 31
0.0
  0
POLYLINE
  5
5303
  8
0
 66
     1
 10
0.0
 20
0.0
 30
0.0
  0
VERTEX
  5
63BF
  8
0
 10
180.3746852233829
 20
125.21814661954581
 30
0.0
  0
VERTEX
  5
63C0
  8
0
 10
180.46133065344759
 20
125.0756711844966
 30
0.0
  0
VERTEX
  5
63C1
  8
0
 10
180.63061407792071
 20
124.793116025651
 30
0.0
  0
VERTEX
  5
63C2
  8
0
 10
180.79462797876801
 20
124.5136327124186
 30
0.0
  0
VERTEX
  5
63C3
  8
0
 10
180.8746852233829
 20
124.37499783109131
 30
0.0
  0
SEQEND
  5
63C4
  8
0
  0
LINE
  5
5304
  8
0
 10
180.8746852233829
 20
124.3051536680177
 30
0.0
 11
176.83468522338291
 21
124.3051536680177
 31
0.0
  0
LINE
  5
5305
  8
0
 10
176.83468522338291
 20
125.21814661954571
 30
0.0
 11
180.3746852233829
 21
125.21814661954571
 31
0.0
  0
POLYLINE
  5
5306
  8
0
 66
     1
 10
0.0
 20
0.0
 30
0.0
  0
VERTEX
  5
63C5
  8
0
 10
180.3746852233829
 20
123.7700890448202
 30
0.0
  0
VERTEX
  5
63C6
  8
0
 10
180.46133065344759
 20
123.630351441336
 30
0.0
  0
VERTEX
  5
63C7
  8
0
 10
180.6306140779208
 20
123.353225909236
 30
0.0
  0
VERTEX
  5
63C8
  8
0
 10
180.79462797876809
 20
123.079113193655
 30
0.0
  0
VERTEX
  5
63C9
  8
0
 10
180.8746852233829
 20
122.94314234317611
 30
0.0
  0
SEQEND
  5
63CA
  8
0
  0
LINE
  5
5307
  8
0
 10
180.8746852233829
 20
122.8746403171118
 30
0.0
 11
176.83468522338291
 21
122.8746403171118
 31
0.0
  0
LINE
  5
5308
  8
0
 10
176.83468522338291
 20
123.7700890448202
 30
0.0
 11
180.3746852233829
 21
123.7700890448202
 31
0.0
  0
POLYLINE
  5
5309
  8
0
 66
     1
 10
0.0
 20
0.0
 30
0.0
  0
VERTEX
  5
63CB
  8
0
 10
180.3746852233829
 20
122.2534824868912
 30
0.0
  0
VERTEX
  5
63CC
  8
0
 10
180.46133065344759
 20
122.1180137093977
 30
0.0
  0
VERTEX
  5
63CD
  8
0
 10
180.6306140779208
 20
121.8493540493652
 30
0.0
  0
VERTEX
  5
63CE
  8
0
 10
180.79462797876809
 20
121.5836151677092
 30
0.0
  0
VERTEX
  5
63CF
  8
0
 10
180.8746852233829
 20
121.45179807317029
 30
0.0
  0
SEQEND
  5
63D0
  8
0
  0
LINE
  5
530A
  8
0
 10
180.8746852233829
 20
121.3853887066479
 30
0.0
 11
176.83468522338291
 21
121.3853887066479
 31
0.0
  0
LINE
  5
530B
  8
0
 10
176.83468522338291
 20
122.2534824868912
 30
0.0
 11
180.3746852233829
 21
122.2534824868912
 31
0.0
  0
POLYLINE
  5
530C
  8
0
 66
     1
 10
0.0
 20
0.0
 30
0.0
  0
VERTEX
  5
63D1
  8
0
 10
180.3746852233829
 20
120.68494320457761
 30
0.0
  0
VERTEX
  5
63D2
  8
0
 10
180.46133065344759
 20
120.5552274773497
 30
0.0
  0
VERTEX
  5
63D3
  8
0
 10
180.6306140779208
 20
120.2979771808407
 30
0.0
  0
VERTEX
  5
63D4
  8
0
 10
180.79462797876809
 20
120.04352362390669
 30
0.0
  0
VERTEX
  5
63D5
  8
0
 10
180.8746852233829
 20
119.91730450097999
 30
0.0
  0
SEQEND
  5
63D6
  8
0
  0
LINE
  5
530D
  8
0
 10
180.8746852233829
 20
119.853715388916
 30
0.0
 11
176.83468522338291
 21
119.853715388916
 31
0.0
  0
LINE
  5
530E
  8
0
 10
176.83468522338291
 20
120.68494320457761
 30
0.0
 11
180.3746852233829
 21
120.68494320457761
 31
0.0
  0
POLYLINE
  5
530F
  8
0
 66
     1
 10
0.0
 20
0.0
 30
0.0
  0
VERTEX
  5
63D7
  8
0
 10
180.3746852233829
 20
119.08165644249451
 30
0.0
  0
VERTEX
  5
63D8
  8
0
 10
180.46133065344759
 20
118.9591149581846
 30
0.0
  0
VERTEX
  5
63D9
  8
0
 10
180.6306140779208
 20
118.7160925132807
 30
0.0
  0
VERTEX
  5
63DA
  8
0
 10
180.79462797876809
 20
118.4757121274861
 30
0.0
  0
VERTEX
  5
63DB
  8
0
 10
180.8746852233829
 20
118.35647385929541
 30
0.0
  0
SEQEND
  5
63DC
  8
0
  0
LINE
  5
5310
  8
0
 10
180.8746852233829
 20
118.2964016973086
 30
0.0
 11
176.83468522338291
 21
118.2964016973086
 31
0.0
  0
LINE
  5
5311
  8
0
 10
176.83468522338291
 20
119.08165644249451
 30
0.0
 11
180.3746852233829
 21
119.08165644249451
 31
0.0
  0
POLYLINE
  5
5312
  8
0
 66
     1
 10
0.0
 20
0.0
 30
0.0
  0
VERTEX
  5
63DD
  8
0
 10
180.3746852233829
 20
117.46118814591649
 30
0.0
  0
VERTEX
  5
63DE
  8
0
 10
180.4613306534477
 20
117.3471634946699
 30
0.0
  0
VERTEX
  5
63DF
  8
0
 10
180.6306140779208
 20
117.12103150613331
 30
0.0
  0
VERTEX
  5
63E0
  8
0
 10
180.79462797876809
 20
116.89735794928789
 30
0.0
  0
VERTEX
  5
63E1
  8
0
 10
180.8746852233829
 20
116.7864069352517
 30
0.0
  0
SEQEND
  5
63E2
  8
0
  0
LINE
  5
5313
  8
0
 10
180.8746852233829
 20
116.7305098865197
 30
0.0
 11
176.83468522338291
 21
116.7305098865197
 31
0.0
  0
LINE
  5
5314
  8
0
 10
176.83468522338291
 20
117.46118814591649
 30
0.0
 11
180.3746852233829
 21
117.46118814591649
 31
0.0
  0
POLYLINE
  5
5315
  8
0
 66
     1
 10
0.0
 20
0.0
 30
0.0
  0
VERTEX
  5
63E3
  8
0
 10
180.3746852233829
 20
115.8412925046059
 30
0.0
  0
VERTEX
  5
63E4
  8
0
 10
180.46133065344759
 20
115.73703396436311
 30
0.0
  0
VERTEX
  5
63E5
  8
0
 10
180.6306140779208
 20
115.5302699815811
 30
0.0
  0
VERTEX
  5
63E6
  8
0
 10
180.7946279787682
 20
115.3257538679801
 30
0.0
  0
VERTEX
  5
63E7
  8
0
 10
180.8746852233829
 20
115.2243057106265
 30
0.0
  0
SEQEND
  5
63E8
  8
0
  0
LINE
  5
5316
  8
0
 10
180.8746852233829
 20
115.17319619491229
 30
0.0
 11
176.83468522338291
 21
115.17319619491229
 31
0.0
  0
LINE
  5
5317
  8
0
 10
176.83468522338291
 20
115.8412925046059
 30
0.0
 11
180.3746852233829
 21
115.8412925046059
 31
0.0
  0
POLYLINE
  5
5318
  8
0
 66
     1
 10
0.0
 20
0.0
 30
0.0
  0
VERTEX
  5
63E9
  8
0
 10
180.3746852233829
 20
114.23971743419349
 30
0.0
  0
VERTEX
  5
63EA
  8
0
 10
180.4613306534475
 20
114.1463672833388
 30
0.0
  0
VERTEX
  5
63EB
  8
0
 10
180.6306140779208
 20
113.9612366557752
 30
0.0
  0
VERTEX
  5
63EC
  8
0
 10
180.7946279787682
 20
113.7781187067572
 30
0.0
  0
VERTEX
  5
63ED
  8
0
 10
180.8746852233829
 20
113.6872848933272
 30
0.0
  0
SEQEND
  5
63EE
  8
0
  0
LINE
  5
5319
  8
0
 10
180.8746852233829
 20
113.64152287718051
 30
0.0
 11
176.83468522338291
 21
113.64152287718051
 31
0.0
  0
LINE
  5
531A
  8
0
 10
176.83468522338291
 20
114.23971743419359
 30
0.0
 11
180.3746852233829
 21
114.23971743419359
 31
0.0
  0
POLYLINE
  5
531B
  8
0
 66
     1
 10
0.0
 20
0.0
 30
0.0
  0
VERTEX
  5
63EF
  8
0
 10
180.3746852233829
 20
112.67401012630221
 30
0.0
  0
VERTEX
  5
63F0
  8
0
 10
180.46133065344759
 20
112.5925911286231
 30
0.0
  0
VERTEX
  5
63F1
  8
0
 10
180.63061407792071
 20
112.43112218617451
 30
0.0
  0
VERTEX
  5
63F2
  8
0
 10
180.79462797876809
 20
112.27140868030889
 30
0.0
  0
VERTEX
  5
63F3
  8
0
 10
180.8746852233829
 20
112.19218440507061
 30
0.0
  0
SEQEND
  5
63F4
  8
0
  0
LINE
  5
531C
  8
0
 10
180.8746852233829
 20
112.1522712667165
 30
0.0
 11
176.83468522338291
 21
112.1522712667165
 31
0.0
  0
LINE
  5
531D
  8
0
 10
176.83468522338291
 20
112.67401012630221
 30
0.0
 11
180.3746852233829
 21
112.67401012630221
 31
0.0
  0
POLYLINE
  5
531E
  8
0
 66
     1
 10
0.0
 20
0.0
 30
0.0
  0
VERTEX
  5
63F5
  8
0
 10
180.3746852233829
 20
111.1613247978425
 30
0.0
  0
VERTEX
  5
63F6
  8
0
 10
180.46133065344759
 20
111.0927289969156
 30
0.0
  0
VERTEX
  5
63F7
  8
0
 10
180.6306140779208
 20
110.95669082710501
 30
0.0
  0
VERTEX
  5
63F8
  8
0
 10
180.79462797876801
 20
110.8221316189841
 30
0.0
  0
VERTEX
  5
63F9
  8
0
 10
180.8746852233829
 20
110.7553848796759
 30
0.0
  0
SEQEND
  5
63FA
  8
0
  0
LINE
  5
531F
  8
0
 10
180.8746852233829
 20
110.7217579158106
 30
0.0
 11
176.83468522338291
 21
110.7217579158106
 31
0.0
  0
LINE
  5
5320
  8
0
 10
176.83468522338291
 20
111.1613247978425
 30
0.0
 11
180.3746852233829
 21
111.1613247978425
 31
0.0
  0
POLYLINE
  5
5321
  8
0
 66
     1
 10
0.0
 20
0.0
 30
0.0
  0
VERTEX
  5
63FB
  8
0
 10
180.3746852233829
 20
109.7182347458227
 30
0.0
  0
VERTEX
  5
63FC
  8
0
 10
180.46133065344759
 20
109.66321369159751
 30
0.0
  0
VERTEX
  5
63FD
  8
0
 10
180.6306140779208
 20
109.5540967570811
 30
0.0
  0
VERTEX
  5
63FE
  8
0
 10
180.79462797876809
 20
109.4461661055475
 30
0.0
  0
VERTEX
  5
63FF
  8
0
 10
180.8746852233829
 20
109.3926281934129
 30
0.0
  0
SEQEND
  5
6400
  8
0
  0
LINE
  5
5322
  8
0
 10
180.8746852233829
 20
109.3656558280894
 30
0.0
 11
176.83468522338291
 21
109.3656558280894
 31
0.0
  0
LINE
  5
5323
  8
0
 10
176.83468522338291
 20
109.7182347458227
 30
0.0
 11
180.3746852233829
 21
109.7182347458227
 31
0.0
  0
POLYLINE
  5
5324
  8
0
 66
     1
 10
0.0
 20
0.0
 30
0.0
  0
VERTEX
  5
6401
  8
0
 10
180.3746852233829
 20
108.3605507668387
 30
0.0
  0
VERTEX
  5
6402
  8
0
 10
180.4613306534475
 20
108.3197072814993
 30
0.0
  0
VERTEX
  5
6403
  8
0
 10
180.6306140779208
 20
108.2387070902459
 30
0.0
  0
VERTEX
  5
6404
  8
0
 10
180.79462797876809
 20
108.1585875061037
 30
0.0
  0
VERTEX
  5
6405
  8
0
 10
180.8746852233829
 20
108.1188449937116
 30
0.0
  0
SEQEND
  5
6406
  8
0
  0
LINE
  5
5325
  8
0
 10
180.8746852233829
 20
108.0988227418086
 30
0.0
 11
176.83468522338291
 21
108.0988227418086
 31
0.0
  0
LINE
  5
5326
  8
0
 10
176.83468522338291
 20
108.3605507668387
 30
0.0
 11
180.3746852233829
 21
108.3605507668387
 31
0.0
  0
POLYLINE
  5
5327
  8
0
 66
     1
 10
0.0
 20
0.0
 30
0.0
  0
VERTEX
  5
6407
  8
0
 10
180.3746852233829
 20
107.10314793067801
 30
0.0
  0
VERTEX
  5
6408
  8
0
 10
180.4613306534477
 20
107.07692950399669
 30
0.0
  0
VERTEX
  5
6409
  8
0
 10
180.6306140779208
 20
107.0249335110521
 30
0.0
  0
VERTEX
  5
640A
  8
0
 10
180.79462797876801
 20
106.97350280123131
 30
0.0
  0
VERTEX
  5
640B
  8
0
 10
180.8746852233829
 20
106.947991115864
 30
0.0
  0
SEQEND
  5
640C
  8
0
  0
LINE
  5
5328
  8
0
 10
180.8746852233829
 20
106.9351383453635
 30
0.0
 11
176.83468522338291
 21
106.9351383453635
 31
0.0
  0
LINE
  5
5329
  8
0
 10
176.83468522338291
 20
107.10314793067801
 30
0.0
 11
180.3746852233829
 21
107.10314793067801
 31
0.0
  0
POLYLINE
  5
532A
  8
0
 66
     1
 10
0.0
 20
0.0
 30
0.0
  0
VERTEX
  5
640D
  8
0
 10
180.3746852233829
 20
105.9598026059419
 30
0.0
  0
VERTEX
  5
640E
  8
0
 10
180.4613306534477
 20
105.9484964924881
 30
0.0
  0
VERTEX
  5
640F
  8
0
 10
180.6306140779208
 20
105.92607437683181
 30
0.0
  0
VERTEX
  5
6410
  8
0
 10
180.79462797876801
 20
105.9038960269517
 30
0.0
  0
VERTEX
  5
6411
  8
0
 10
180.8746852233829
 20
105.8928946799729
 30
0.0
  0
SEQEND
  5
6412
  8
0
  0
LINE
  5
532B
  8
0
 10
180.8746852233829
 20
105.8873522085179
 30
0.0
 11
176.83468522338291
 21
105.8873522085179
 31
0.0
  0
LINE
  5
532C
  8
0
 10
176.83468522338291
 20
105.9598026059419
 30
0.0
 11
180.3746852233829
 21
105.9598026059419
 31
0.0
  0
POLYLINE
  5
532D
  8
0
 66
     1
 10
0.0
 20
0.0
 30
0.0
  0
VERTEX
  5
6413
  8
0
 10
180.3746852233829
 20
104.9430415232687
 30
0.0
  0
VERTEX
  5
6414
  8
0
 10
180.46133065344759
 20
104.9467715951873
 30
0.0
  0
VERTEX
  5
6415
  8
0
 10
180.6306140779208
 20
104.95416901821061
 30
0.0
  0
VERTEX
  5
6416
  8
0
 10
180.79462797876809
 20
104.9614860189136
 30
0.0
  0
VERTEX
  5
6417
  8
0
 10
180.8746852233829
 20
104.96511554338289
 30
0.0
  0
SEQEND
  5
6418
  8
0
  0
LINE
  5
532E
  8
0
 10
176.83468522338291
 20
104.9430415232687
 30
0.0
 11
180.3746852233829
 21
104.9430415232687
 31
0.0
  0
POLYLINE
  5
532F
  8
0
 66
     1
 10
0.0
 20
0.0
 30
0.0
  0
VERTEX
  5
6419
  8
0
 10
180.3746852233829
 20
104.0640045298511
 30
0.0
  0
VERTEX
  5
641A
  8
0
 10
180.46133065344759
 20
104.08272991969361
 30
0.0
  0
VERTEX
  5
641B
  8
0
 10
180.6306140779208
 20
104.1198658336818
 30
0.0
  0
VERTEX
  5
641C
  8
0
 10
180.79462797876809
 20
104.1565980183771
 30
0.0
  0
VERTEX
  5
641D
  8
0
 10
180.8746852233829
 20
104.17481864846491
 30
0.0
  0
SEQEND
  5
641E
  8
0
  0
LINE
  5
5330
  8
0
 10
176.83468522338291
 20
104.0640045298511
 30
0.0
 11
180.3746852233829
 21
104.0640045298511
 31
0.0
  0
POLYLINE
  5
5331
  8
0
 66
     1
 10
0.0
 20
0.0
 30
0.0
  0
VERTEX
  5
641F
  8
0
 10
180.3746852233829
 20
103.33232253893929
 30
0.0
  0
VERTEX
  5
6420
  8
0
 10
180.46133065344759
 20
103.36583808741609
 30
0.0
  0
VERTEX
  5
6421
  8
0
 10
180.63061407792071
 20
103.4323056235243
 30
0.0
  0
VERTEX
  5
6422
  8
0
 10
180.79462797876809
 20
103.49805054670961
 30
0.0
  0
VERTEX
  5
6423
  8
0
 10
180.8746852233829
 20
103.53066265337969
 30
0.0
  0
SEQEND
  5
6424
  8
0
  0
LINE
  5
5332
  8
0
 10
176.83468522338291
 20
103.33232253893929
 30
0.0
 11
180.3746852233829
 21
103.33232253893929
 31
0.0
  0
POLYLINE
  5
5333
  8
0
 66
     1
 10
0.0
 20
0.0
 30
0.0
  0
VERTEX
  5
6425
  8
0
 10
180.3746852233829
 20
102.75601201153999
 30
0.0
  0
VERTEX
  5
6426
  8
0
 10
180.46133065344759
 20
102.80395051528831
 30
0.0
  0
VERTEX
  5
6427
  8
0
 10
180.63061407792071
 20
102.8990214412818
 30
0.0
  0
VERTEX
  5
6428
  8
0
 10
180.79462797876809
 20
102.9930587878207
 30
0.0
  0
VERTEX
  5
6429
  8
0
 10
180.8746852233829
 20
103.039705066008
 30
0.0
  0
SEQEND
  5
642A
  8
0
  0
LINE
  5
5334
  8
0
 10
176.83468522338291
 20
102.75601201153999
 30
0.0
 11
180.3746852233829
 21
102.75601201153999
 31
0.0
  0
POLYLINE
  5
5335
  8
0
 66
     1
 10
0.0
 20
0.0
 30
0.0
  0
VERTEX
  5
642B
  8
0
 10
180.3746852233829
 20
102.34138712639211
 30
0.0
  0
VERTEX
  5
642C
  8
0
 10
180.4613306534475
 20
102.403223361133
 30
0.0
  0
VERTEX
  5
642D
  8
0
 10
180.63061407792071
 20
102.52585606005179
 30
0.0
  0
VERTEX
  5
642E
  8
0
 10
180.79462797876809
 20
102.64715553709711
 30
0.0
  0
VERTEX
  5
642F
  8
0
 10
180.8746852233829
 20
102.7073249204163
 30
0.0
  0
SEQEND
  5
6430
  8
0
  0
LINE
  5
5336
  8
0
 10
176.83468522338291
 20
102.34138712639211
 30
0.0
 11
180.3746852233829
 21
102.34138712639211
 31
0.0
  0
POLYLINE
  5
5337
  8
0
 66
     1
 10
0.0
 20
0.0
 30
0.0
  0
VERTEX
  5
6431
  8
0
 10
180.3746852233829
 20
102.0929906005031
 30
0.0
  0
VERTEX
  5
6432
  8
0
 10
180.46133065344759
 20
102.16804707550899
 30
0.0
  0
VERTEX
  5
6433
  8
0
 10
180.6306140779208
 20
102.31689795784099
 30
0.0
  0
VERTEX
  5
6434
  8
0
 10
180.79462797876809
 20
102.46413058293849
 30
0.0
  0
VERTEX
  5
6435
  8
0
 10
180.8746852233829
 20
102.5371638430348
 30
0.0
  0
SEQEND
  5
6436
  8
0
  0
LINE
  5
5338
  8
0
 10
176.83468522338291
 20
102.0929906005031
 30
0.0
 11
180.3746852233829
 21
102.0929906005031
 31
0.0
  0
LINE
  5
533A
  8
0
 10
113.12933792845109
 20
113.7027802042153
 30
0.0
 11
113.12933792845109
 21
121.32413137961289
 31
0.0
  0
LINE
  5
533B
  8
0
 10
114.3246852233829
 20
113.5134557919141
 30
0.0
 11
114.3246852233829
 21
121.5134557919141
 31
0.0
  0
LINE
  5
533C
  8
1
 10
185.42839713520931
 20
117.5134557919141
 30
0.0
 11
110.39416903150099
 21
117.5134557919141
 31
0.0
  0
LINE
  5
5344
  8
0
 10
153.8746852233829
 20
127.0134557919142
 30
0.0
 11
145.87468522338281
 21
127.0134557919142
 31
0.0
  0
LINE
  5
5348
  8
0
 10
153.8746852233829
 20
108.0134557919142
 30
0.0
 11
145.87468522338281
 21
108.0134557919142
 31
0.0
  0
POLYLINE
  5
534B
  8
0
 66
     1
 10
0.0
 20
0.0
 30
0.0
  0
VERTEX
  5
6437
  8
0
 10
153.8746852233829
 20
112.7634557919142
 30
0.0
  0
VERTEX
  5
6438
  8
0
 10
153.86386001972309
 20
112.0038986011151
 30
0.0
  0
VERTEX
  5
6439
  8
0
 10
153.77806707912791
 20
110.4752610881944
 30
0.0
  0
VERTEX
  5
643A
  8
0
 10
153.60406776274789
 20
108.87026755539689
 30
0.0
  0
VERTEX
  5
643B
  8
0
 10
153.48089232227269
 20
108.0134557919142
 30
0.0
  0
SEQEND
  5
643C
  8
0
  0
POLYLINE
  5
534C
  8
0
 66
     1
 10
0.0
 20
0.0
 30
0.0
  0
VERTEX
  5
643D
  8
0
 10
153.48089232227269
 20
117.5134557919142
 30
0.0
  0
VERTEX
  5
643E
  8
0
 10
153.60406776274789
 20
116.6566440284314
 30
0.0
  0
VERTEX
  5
643F
  8
0
 10
153.77806707912791
 20
115.05165049563389
 30
0.0
  0
VERTEX
  5
6440
  8
0
 10
153.86386001972309
 20
113.5230129827133
 30
0.0
  0
VERTEX
  5
6441
  8
0
 10
153.8746852233829
 20
112.7634557919142
 30
0.0
  0
SEQEND
  5
6442
  8
0
  0
POLYLINE
  5
534F
  8
0
 66
     1
 10
0.0
 20
0.0
 30
0.0
  0
VERTEX
  5
6443
  8
0
 10
153.8746852233829
 20
122.2634557919141
 30
0.0
  0
VERTEX
  5
6444
  8
0
 10
153.86386001972309
 20
121.503898601115
 30
0.0
  0
VERTEX
  5
6445
  8
0
 10
153.77806707912791
 20
119.9752610881944
 30
0.0
  0
VERTEX
  5
6446
  8
0
 10
153.60406776274789
 20
118.37026755539689
 30
0.0
  0
VERTEX
  5
6447
  8
0
 10
153.48089232227269
 20
117.5134557919142
 30
0.0
  0
SEQEND
  5
6448
  8
0
  0
POLYLINE
  5
5350
  8
0
 66
     1
 10
0.0
 20
0.0
 30
0.0
  0
VERTEX
  5
6449
  8
0
 10
153.48089232227269
 20
127.0134557919142
 30
0.0
  0
VERTEX
  5
644A
  8
0
 10
153.60406776274789
 20
126.1566440284314
 30
0.0
  0
VERTEX
  5
644B
  8
0
 10
153.77806707912791
 20
124.55165049563399
 30
0.0
  0
VERTEX
  5
644C
  8
0
 10
153.86386001972309
 20
123.0230129827133
 30
0.0
  0
VERTEX
  5
644D
  8
0
 10
153.8746852233829
 20
122.2634557919141
 30
0.0
  0
SEQEND
  5
644E
  8
0
  0
LINE
  5
5351
  8
0
 10
145.87468522338281
 20
127.0134557919142
 30
0.0
 11
145.87468522338281
 21
108.0134557919142
 31
0.0
  0
LINE
  5
5352
  8
0
 10
153.8746852233829
 20
127.0134557919142
 30
0.0
 11
153.8746852233829
 21
108.0134557919142
 31
0.0
  0
LINE
  5
5358
  8
0
 10
145.87468522338281
 20
117.5134557919142
 30
0.0
 11
153.48089232227269
 21
117.5134557919142
 31
0.0
  0
LINE
  5
5366
  8
3
 10
119.8746852233829
 20
124.5934557919142
 30
0.0
 11
145.8746852233829
 21
124.5934557919141
 31
0.0
  0
LINE
  5
5965
  8
0
 10
154.0746852233828
 20
123.6184557919142
 30
0.0
 11
153.8746852233829
 21
123.6184557919142
 31
0.0
  0
LINE
  5
5966
  8
0
 10
153.8746852233829
 20
111.40845579191419
 30
0.0
 11
154.0746852233828
 21
111.40845579191419
 31
0.0
  0
LINE
  5
5969
  8
0
 10
154.07468522338289
 20
126.7634557919142
 30
0.0
 11
154.07468522338289
 21
108.2634557919142
 31
0.0
  0
LINE
  5
596A
  8
0
 10
154.0746852233828
 20
70.554681820262772
 30
0.0
 11
153.8746852233829
 21
70.554681820262772
 31
0.0
  0
LINE
  5
596B
  8
0
 10
153.8746852233829
 20
58.344681820262757
 30
0.0
 11
154.0746852233828
 21
58.344681820262757
 31
0.0
  0
LINE
  5
596C
  8
0
 10
154.07468522338289
 20
73.699681820262782
 30
0.0
 11
154.07468522338289
 21
55.199681820262782
 31
0.0
  0
LINE
  5
59FB
  8
3
 10
119.8746852233829
 20
110.4334557919141
 30
0.0
 11
145.8746852233829
 21
110.4334557919142
 31
0.0
  0
LINE
  5
59FC
  8
0
 10
145.8746852233829
 20
109.5134557919141
 30
0.0
 11
120.7946852233829
 21
109.5134557919142
 31
0.0
  0
LINE
  5
59FD
  8
3
 10
119.8746852233829
 20
71.529681820262766
 30
0.0
 11
145.8746852233829
 21
71.529681820262724
 31
0.0
  0
LINE
  5
59FE
  8
0
 10
145.8746852233829
 20
72.44968182026274
 30
0.0
 11
120.7946852233829
 21
72.449681820262725
 31
0.0
  0
LINE
  5
59FF
  8
0
 10
145.8746852233829
 20
56.44968182026274
 30
0.0
 11
120.7946852233829
 21
56.449681820262747
 31
0.0
  0
LINE
  5
5A00
  8
3
 10
119.8746852233829
 20
57.369681820262713
 30
0.0
 11
145.8746852233829
 21
57.369681820262763
 31
0.0
  0
TEXT
  5
5B1B
  8
0
 62
     3
 10
0.0
 20
0.0
 30
0.0
 40
5.0
  1
EIP16-SUS
  7
STANDARD1
  0
ENDSEC
  0
EOF
