  0
SECTION
  2
HEADER
  9
$ACADVER
  1
AC1009
  9
$INSBASE
 10
0.0
 20
0.0
 30
0.0
  9
$EXTMIN
 10
0.0
 20
-1.4802182810368341
 30
0.0
  9
$EXTMAX
 10
294.95047550909112
 20
132.5901480076428
 30
0.0
  9
$LIMMIN
 10
0.0
 20
0.0
  9
$LIMMAX
 10
279.39999999999998
 20
215.90000000000001
  9
$ORTHOMODE
 70
     1
  9
$REGENMODE
 70
     1
  9
$FILLMODE
 70
     1
  9
$QTEXTMODE
 70
     0
  9
$MIRRTEXT
 70
     1
  9
$DRAGMODE
 70
     2
  9
$LTSCALE
 40
1.0
  9
$OSMODE
 70
  3071
  9
$ATTMODE
 70
     1
  9
$TEXTSIZE
 40
2.5
  9
$TRACEWID
 40
1.0
  9
$TEXTSTYLE
  7
STANDARD
  9
$CLAYER
  8
0
  9
$CELTYPE
  6
BYLAYER
  9
$CECOLOR
 62
   256
  9
$DIMSCALE
 40
1.0
  9
$DIMASZ
 40
6.0
  9
$DIMEXO
 40
1.0
  9
$DIMDLI
 40
3.75
  9
$DIMRND
 40
0.0
  9
$DIMDLE
 40
0.0
  9
$DIMEXE
 40
1.0
  9
$DIMTP
 40
0.0
  9
$DIMTM
 40
0.0
  9
$DIMTXT
 40
3.5
  9
$DIMCEN
 40
2.5
  9
$DIMTSZ
 40
0.0
  9
$DIMTOL
 70
     0
  9
$DIMLIM
 70
     0
  9
$DIMTIH
 70
     0
  9
$DIMTOH
 70
     0
  9
$DIMSE1
 70
     0
  9
$DIMSE2
 70
     0
  9
$DIMTAD
 70
     1
  9
$DIMZIN
 70
     8
  9
$DIMBLK
  1

  9
$DIMASO
 70
     1
  9
$DIMSHO
 70
     1
  9
$DIMPOST
  1

  9
$DIMAPOST
  1

  9
$DIMALT
 70
     0
  9
$DIMALTD
 70
     3
  9
$DIMALTF
 40
0.0393700787401575
  9
$DIMLFAC
 40
1.0
  9
$DIMTOFL
 70
     1
  9
$DIMTVP
 40
0.0
  9
$DIMTIX
 70
     0
  9
$DIMSOXD
 70
     0
  9
$DIMSAH
 70
     0
  9
$DIMBLK1
  1

  9
$DIMBLK2
  1

  9
$DIMSTYLE
  2
ISO-25
  9
$DIMCLRD
 70
     0
  9
$DIMCLRE
 70
     0
  9
$DIMCLRT
 70
     0
  9
$DIMTFAC
 40
1.0
  9
$DIMGAP
 40
1.524
  9
$LUNITS
 70
     2
  9
$LUPREC
 70
     3
  9
$SKETCHINC
 40
1.0
  9
$FILLETRAD
 40
10.0
  9
$AUNITS
 70
     0
  9
$AUPREC
 70
     0
  9
$MENU
  1
.
  9
$ELEVATION
 40
0.0
  9
$PELEVATION
 40
0.0
  9
$THICKNESS
 40
0.0
  9
$LIMCHECK
 70
     0
  9
$BLIPMODE
 70
     0
  9
$CHAMFERA
 40
10.0
  9
$CHAMFERB
 40
10.0
  9
$SKPOLY
 70
     0
  9
$TDCREATE
 40
2455132.3992460528
  9
$TDUPDATE
 40
2456598.659800984
  9
$TDINDWG
 40
0.204284838
  9
$TDUSRTIMER
 40
0.204284838
  9
$USRTIMER
 70
     1
  9
$ANGBASE
 50
0.0
  9
$ANGDIR
 70
     0
  9
$PDMODE
 70
     0
  9
$PDSIZE
 40
-1.0
  9
$PLINEWID
 40
0.0
  9
$COORDS
 70
     1
  9
$SPLFRAME
 70
     0
  9
$SPLINETYPE
 70
     6
  9
$SPLINESEGS
 70
     8
  9
$ATTDIA
 70
     0
  9
$ATTREQ
 70
     1
  9
$HANDLING
 70
     1
  9
$HANDSEED
  5
74FB
  9
$SURFTAB1
 70
     6
  9
$SURFTAB2
 70
     6
  9
$SURFTYPE
 70
     6
  9
$SURFU
 70
     6
  9
$SURFV
 70
     6
  9
$UCSNAME
  2

  9
$UCSORG
 10
0.0
 20
0.0
 30
0.0
  9
$UCSXDIR
 10
1.0
 20
0.0
 30
0.0
  9
$UCSYDIR
 10
0.0
 20
1.0
 30
0.0
  9
$PUCSNAME
  2

  9
$PUCSORG
 10
0.0
 20
0.0
 30
0.0
  9
$PUCSXDIR
 10
1.0
 20
0.0
 30
0.0
  9
$PUCSYDIR
 10
0.0
 20
1.0
 30
0.0
  9
$USERI1
 70
     0
  9
$USERI2
 70
     0
  9
$USERI3
 70
     0
  9
$USERI4
 70
     0
  9
$USERI5
 70
     0
  9
$USERR1
 40
0.0
  9
$USERR2
 40
0.0
  9
$USERR3
 40
0.0
  9
$USERR4
 40
0.0
  9
$USERR5
 40
0.0
  9
$WORLDVIEW
 70
     1
  9
$SHADEDGE
 70
     3
  9
$SHADEDIF
 70
    70
  9
$TILEMODE
 70
     1
  9
$MAXACTVP
 70
    64
  9
$PLIMCHECK
 70
     0
  9
$PEXTMIN
 10
1.0000000000000000E+020
 20
1.0000000000000000E+020
 30
1.0000000000000000E+020
  9
$PEXTMAX
 10
-1.0000000000000000E+020
 20
-1.0000000000000000E+020
 30
-1.0000000000000000E+020
  9
$PLIMMIN
 10
0.0
 20
0.0
  9
$PLIMMAX
 10
420.0
 20
297.0
  9
$UNITMODE
 70
     0
  9
$VISRETAIN
 70
     1
  9
$PLINEGEN
 70
     0
  9
$PSLTSCALE
 70
     1
  0
ENDSEC
  0
SECTION
  2
TABLES
  0
TABLE
  2
VPORT
 70
     1
  0
VPORT
  2
*ACTIVE
 70
     0
 10
0.0
 20
0.0
 11
1.0
 21
1.0
 12
147.47523844128071
 22
136.18828034825529
 13
0.0
 23
0.0
 14
10.0
 24
10.0
 15
10.0
 25
10.0
 16
0.0
 26
0.0
 36
1.0
 17
0.0
 27
0.0
 37
0.0
 40
277.85339726799202
 41
1.831871345029239
 42
50.0
 43
0.0
 44
0.0
 50
0.0
 51
0.0
 71
     0
 72
  2000
 73
     1
 74
     3
 75
     0
 76
     0
 77
     0
 78
     0
  0
ENDTAB
  0
TABLE
  2
LTYPE
 70
     3
  0
LTYPE
  2
CONTINUOUS
 70
     0
  3
Solid line
 72
    65
 73
     0
 40
0.0
  0
LTYPE
  2
CENTER
 70
     0
  3
____ _ ____ _ ____ _ ____ _ ____ _ ____ _ ____
 72
    65
 73
     4
 40
2.0
 49
1.25
 49
-0.25
 49
0.25
 49
-0.25
  0
LTYPE
  2
HIDDEN
 70
     0
  3
_ _ _ _ _ _ _ _ _ _ _ _ _ _ _ _ _ _ _ _ _ _ _
 72
    65
 73
     2
 40
0.375
 49
0.25
 49
-0.125
  0
ENDTAB
  0
TABLE
  2
LAYER
 70
     5
  0
LAYER
  2
0
 70
     0
 62
     7
  6
CONTINUOUS
  0
LAYER
  2
1
 70
     0
 62
     1
  6
CENTER
  0
LAYER
  2
DEFPOINTS
 70
     0
 62
     7
  6
CONTINUOUS
  0
LAYER
  2
3
 70
     0
 62
     3
  6
CONTINUOUS
  0
LAYER
  2
2
 70
     0
 62
     2
  6
HIDDEN
  0
ENDTAB
  0
TABLE
  2
STYLE
 70
     2
  0
STYLE
  2
STANDARD
 70
     0
 40
0.0
 41
1.0
 50
0.0
 71
     0
 42
2.5
  3
txt
  4
bigfont
  0
STYLE
  2
STANDARD1
 70
     0
 40
0.0
 41
1.0
 50
0.0
 71
     0
 42
3.0
  3
txt
  4

  0
ENDTAB
  0
TABLE
  2
VIEW
 70
     0
  0
ENDTAB
  0
TABLE
  2
UCS
 70
     0
  0
ENDTAB
  0
TABLE
  2
APPID
 70
     3
  0
APPID
  2
ACAD
 70
     0
  0
APPID
  2
ACAD_MLEADERVER
 70
     0
  0
APPID
  2
ACAD_NAV_VCDISPLAY
 70
     0
  0
ENDTAB
  0
TABLE
  2
DIMSTYLE
 70
     2
  0
DIMSTYLE
  2
ISO-25
 70
     0
  3

  4

  5

  6

  7

 40
1.0
 41
2.5
 42
0.625
 43
3.75
 44
1.25
 45
0.0
 46
0.0
 47
0.0
 48
0.0
140
2.5
141
2.5
142
0.0
143
0.03937007874016
144
1.0
145
0.0
146
1.0
147
0.625
 71
     0
 72
     0
 73
     0
 74
     0
 75
     0
 76
     0
 77
     1
 78
     8
170
     0
171
     3
172
     1
173
     0
174
     0
175
     0
176
     0
177
     0
178
     0
  0
DIMSTYLE
  2
STANDARD
 70
     0
  3

  4

  5

  6

  7

 40
1.0
 41
0.18
 42
0.0625
 43
0.38
 44
0.18
 45
0.0
 46
0.0
 47
0.0
 48
0.0
140
0.18
141
0.09
142
0.0
143
25.399999999999999
144
1.0
145
0.0
146
1.0
147
0.09
 71
     0
 72
     0
 73
     1
 74
     1
 75
     0
 76
     0
 77
     0
 78
     0
170
     0
171
     2
172
     0
173
     0
174
     0
175
     0
176
     0
177
     0
178
     0
  0
ENDTAB
  0
ENDSEC
  0
SECTION
  2
BLOCKS
  0
BLOCK
  8
0
  2
$MODEL_SPACE
 70
     0
 10
0.0
 20
0.0
 30
0.0
  3
$MODEL_SPACE
  1

  0
ENDBLK
  5
21
  8
0
  0
BLOCK
 67
     1
  8
0
  2
$PAPER_SPACE
 70
     0
 10
0.0
 20
0.0
 30
0.0
  3
$PAPER_SPACE
  1

  0
ENDBLK
  5
1D
 67
     1
  8
0
  0
ENDSEC
  0
SECTION
  2
ENTITIES
  0
LINE
  5
6069
  8
1
 10
207.89804230403331
 20
117.0901480076428
 30
0.0
 11
124.85594011197379
 21
117.0901480076428
 31
0.0
  0
LINE
  5
606A
  8
0
 10
129.8769912080036
 20
122.0901480076428
 30
0.0
 11
129.8769912080036
 21
112.0901480076428
 31
0.0
  0
LINE
  5
606B
  8
0
 10
128.1262123386968
 20
121.8128518762956
 30
0.0
 11
128.1262123386968
 21
112.36744413899
 31
0.0
  0
LINE
  5
606C
  8
0
 10
202.33699120800361
 20
118.6583486582231
 30
0.0
 11
205.8769912080036
 21
118.6583486582231
 31
0.0
  0
LINE
  5
606D
  8
0
 10
206.3769912080036
 20
117.8730939130372
 30
0.0
 11
202.33699120800361
 21
117.8730939130372
 31
0.0
  0
POLYLINE
  5
606E
  8
0
 66
     1
 10
0.0
 20
0.0
 30
0.0
  0
VERTEX
  5
6C37
  8
0
 10
205.8769912080036
 20
118.6583486582231
 30
0.0
  0
VERTEX
  5
6C38
  8
0
 10
205.96363663806841
 20
118.535807173913
 30
0.0
  0
VERTEX
  5
6C39
  8
0
 10
206.1329200625415
 20
118.2927847290092
 30
0.0
  0
VERTEX
  5
6C3A
  8
0
 10
206.29693396338871
 20
118.0524043432147
 30
0.0
  0
VERTEX
  5
6C3B
  8
0
 10
206.3769912080036
 20
117.933166075024
 30
0.0
  0
SEQEND
  5
6C3C
  8
0
  0
LINE
  5
606F
  8
0
 10
202.33699120800361
 20
120.26163542030621
 30
0.0
 11
205.8769912080036
 21
120.26163542030621
 31
0.0
  0
LINE
  5
6070
  8
0
 10
206.3769912080036
 20
119.4304076046446
 30
0.0
 11
202.33699120800361
 21
119.4304076046446
 31
0.0
  0
POLYLINE
  5
6071
  8
0
 66
     1
 10
0.0
 20
0.0
 30
0.0
  0
VERTEX
  5
6C3D
  8
0
 10
205.8769912080036
 20
120.26163542030621
 30
0.0
  0
VERTEX
  5
6C3E
  8
0
 10
205.96363663806829
 20
120.1319196930784
 30
0.0
  0
VERTEX
  5
6C3F
  8
0
 10
206.1329200625415
 20
119.8746693965693
 30
0.0
  0
VERTEX
  5
6C40
  8
0
 10
206.29693396338871
 20
119.62021583963531
 30
0.0
  0
VERTEX
  5
6C41
  8
0
 10
206.3769912080036
 20
119.49399671670849
 30
0.0
  0
SEQEND
  5
6C42
  8
0
  0
LINE
  5
6072
  8
0
 10
202.33699120800361
 20
121.8301747026198
 30
0.0
 11
205.8769912080036
 21
121.8301747026198
 31
0.0
  0
LINE
  5
6073
  8
0
 10
206.3769912080036
 20
120.9620809223765
 30
0.0
 11
202.33699120800361
 21
120.9620809223765
 31
0.0
  0
POLYLINE
  5
6074
  8
0
 66
     1
 10
0.0
 20
0.0
 30
0.0
  0
VERTEX
  5
6C43
  8
0
 10
205.8769912080036
 20
121.8301747026198
 30
0.0
  0
VERTEX
  5
6C44
  8
0
 10
205.96363663806829
 20
121.6947059251263
 30
0.0
  0
VERTEX
  5
6C45
  8
0
 10
206.1329200625415
 20
121.4260462650938
 30
0.0
  0
VERTEX
  5
6C46
  8
0
 10
206.29693396338871
 20
121.1603073834378
 30
0.0
  0
VERTEX
  5
6C47
  8
0
 10
206.3769912080036
 20
121.02849028889889
 30
0.0
  0
SEQEND
  5
6C48
  8
0
  0
LINE
  5
6075
  8
0
 10
202.33699120800361
 20
123.34678126054879
 30
0.0
 11
205.8769912080036
 21
123.34678126054879
 31
0.0
  0
LINE
  5
6076
  8
0
 10
206.3769912080036
 20
122.4513325328405
 30
0.0
 11
202.33699120800361
 21
122.4513325328405
 31
0.0
  0
POLYLINE
  5
6077
  8
0
 66
     1
 10
0.0
 20
0.0
 30
0.0
  0
VERTEX
  5
6C49
  8
0
 10
205.8769912080036
 20
123.34678126054879
 30
0.0
  0
VERTEX
  5
6C4A
  8
0
 10
205.96363663806829
 20
123.2070436570646
 30
0.0
  0
VERTEX
  5
6C4B
  8
0
 10
206.13292006254139
 20
122.9299181249646
 30
0.0
  0
VERTEX
  5
6C4C
  8
0
 10
206.29693396338871
 20
122.6558054093836
 30
0.0
  0
VERTEX
  5
6C4D
  8
0
 10
206.3769912080036
 20
122.51983455890461
 30
0.0
  0
SEQEND
  5
6C4E
  8
0
  0
LINE
  5
6078
  8
0
 10
202.33699120800361
 20
124.7948388352744
 30
0.0
 11
205.8769912080036
 21
124.7948388352744
 31
0.0
  0
LINE
  5
6079
  8
0
 10
206.3769912080036
 20
123.88184588374639
 30
0.0
 11
202.33699120800361
 21
123.88184588374639
 31
0.0
  0
POLYLINE
  5
607A
  8
0
 66
     1
 10
0.0
 20
0.0
 30
0.0
  0
VERTEX
  5
6C4F
  8
0
 10
205.8769912080036
 20
124.7948388352744
 30
0.0
  0
VERTEX
  5
6C50
  8
0
 10
205.96363663806841
 20
124.6523634002251
 30
0.0
  0
VERTEX
  5
6C51
  8
0
 10
206.1329200625415
 20
124.3698082413795
 30
0.0
  0
VERTEX
  5
6C52
  8
0
 10
206.29693396338871
 20
124.0903249281472
 30
0.0
  0
VERTEX
  5
6C53
  8
0
 10
206.3769912080036
 20
123.95169004681991
 30
0.0
  0
SEQEND
  5
6C54
  8
0
  0
LINE
  5
607B
  8
0
 10
202.33699120800361
 20
126.15848220498211
 30
0.0
 11
205.8769912080036
 21
126.15848220498211
 31
0.0
  0
LINE
  5
607C
  8
0
 10
206.3769912080036
 20
125.23794797146761
 30
0.0
 11
202.33699120800361
 21
125.23794797146761
 31
0.0
  0
POLYLINE
  5
607D
  8
0
 66
     1
 10
0.0
 20
0.0
 30
0.0
  0
VERTEX
  5
6C55
  8
0
 10
205.8769912080036
 20
126.15848220498211
 30
0.0
  0
VERTEX
  5
6C56
  8
0
 10
205.96363663806821
 20
126.0148299290494
 30
0.0
  0
VERTEX
  5
6C57
  8
0
 10
206.13292006254139
 20
125.7299408769068
 30
0.0
  0
VERTEX
  5
6C58
  8
0
 10
206.29693396338871
 20
125.4481490436884
 30
0.0
  0
VERTEX
  5
6C59
  8
0
 10
206.3769912080036
 20
125.30836904428391
 30
0.0
  0
SEQEND
  5
6C5A
  8
0
  0
LINE
  5
607E
  8
0
 10
202.33699120800361
 20
127.4227710075529
 30
0.0
 11
205.8769912080036
 21
127.4227710075529
 31
0.0
  0
LINE
  5
607F
  8
0
 10
206.3769912080036
 20
126.5047810577484
 30
0.0
 11
202.33699120800361
 21
126.5047810577484
 31
0.0
  0
POLYLINE
  5
6080
  8
0
 66
     1
 10
0.0
 20
0.0
 30
0.0
  0
VERTEX
  5
6C5B
  8
0
 10
205.8769912080036
 20
127.4227710075529
 30
0.0
  0
VERTEX
  5
6C5C
  8
0
 10
205.96363663806829
 20
127.27951577513279
 30
0.0
  0
VERTEX
  5
6C5D
  8
0
 10
206.13292006254139
 20
126.99541413376549
 30
0.0
  0
VERTEX
  5
6C5E
  8
0
 10
206.29693396338871
 20
126.7144011508547
 30
0.0
  0
VERTEX
  5
6C5F
  8
0
 10
206.3769912080036
 20
126.5750074922971
 30
0.0
  0
SEQEND
  5
6C60
  8
0
  0
LINE
  5
6081
  8
0
 10
202.33699120800361
 20
128.5738534302964
 30
0.0
 11
205.8769912080036
 21
128.57385343029631
 31
0.0
  0
LINE
  5
6082
  8
0
 10
206.3769912080036
 20
127.66846545419349
 30
0.0
 11
202.33699120800361
 21
127.66846545419349
 31
0.0
  0
POLYLINE
  5
6083
  8
0
 66
     1
 10
0.0
 20
0.0
 30
0.0
  0
VERTEX
  5
6C61
  8
0
 10
205.8769912080036
 20
128.5738534302964
 30
0.0
  0
VERTEX
  5
6C62
  8
0
 10
205.96363663806829
 20
128.43256477569321
 30
0.0
  0
VERTEX
  5
6C63
  8
0
 10
206.13292006254139
 20
128.1523632221363
 30
0.0
  0
VERTEX
  5
6C64
  8
0
 10
206.29693396338871
 20
127.87520792657951
 30
0.0
  0
VERTEX
  5
6C65
  8
0
 10
206.3769912080036
 20
127.737727834962
 30
0.0
  0
SEQEND
  5
6C66
  8
0
  0
LINE
  5
6084
  8
0
 10
202.33699120800361
 20
129.5991179733094
 30
0.0
 11
205.8769912080036
 21
129.59911797330929
 31
0.0
  0
LINE
  5
6085
  8
0
 10
206.3769912080036
 20
128.71625159103911
 30
0.0
 11
202.33699120800361
 21
128.71625159103911
 31
0.0
  0
POLYLINE
  5
6086
  8
0
 66
     1
 10
0.0
 20
0.0
 30
0.0
  0
VERTEX
  5
6C67
  8
0
 10
205.8769912080036
 20
129.5991179733094
 30
0.0
  0
VERTEX
  5
6C68
  8
0
 10
205.96363663806829
 20
129.46134388458961
 30
0.0
  0
VERTEX
  5
6C69
  8
0
 10
206.1329200625415
 20
129.1881123656996
 30
0.0
  0
VERTEX
  5
6C6A
  8
0
 10
206.29693396338871
 20
128.91785132891351
 30
0.0
  0
VERTEX
  5
6C6B
  8
0
 10
206.3769912080036
 20
128.7837910648895
 30
0.0
  0
SEQEND
  5
6C6C
  8
0
  0
LINE
  5
6087
  8
0
 10
202.33699120800361
 20
130.4873316237082
 30
0.0
 11
205.8769912080036
 21
130.4873316237082
 31
0.0
  0
POLYLINE
  5
6089
  8
0
 66
     1
 10
0.0
 20
0.0
 30
0.0
  0
VERTEX
  5
6C6D
  8
0
 10
205.8769912080036
 20
130.4873316237082
 30
0.0
  0
VERTEX
  5
6C6E
  8
0
 10
205.96363663806829
 20
130.35458158261901
 30
0.0
  0
VERTEX
  5
6C6F
  8
0
 10
206.1329200625415
 20
130.09131368009429
 30
0.0
  0
VERTEX
  5
6C70
  8
0
 10
206.29693396338871
 20
129.83090793855371
 30
0.0
  0
VERTEX
  5
6C71
  8
0
 10
206.3769912080036
 20
129.70173629442971
 30
0.0
  0
SEQEND
  5
6C72
  8
0
  0
LINE
  5
608A
  8
0
 10
202.33699120800361
 20
131.2287629268686
 30
0.0
 11
205.8769912080036
 21
131.2287629268686
 31
0.0
  0
POLYLINE
  5
608C
  8
0
 66
     1
 10
0.0
 20
0.0
 30
0.0
  0
VERTEX
  5
6C73
  8
0
 10
205.8769912080036
 20
131.2287629268686
 30
0.0
  0
VERTEX
  5
6C74
  8
0
 10
205.96363663806829
 20
131.10249137064
 30
0.0
  0
VERTEX
  5
6C75
  8
0
 10
206.1329200625415
 20
130.85207150271279
 30
0.0
  0
VERTEX
  5
6C76
  8
0
 10
206.2969339633888
 20
130.60437411621521
 30
0.0
  0
VERTEX
  5
6C77
  8
0
 10
206.3769912080036
 20
130.48150632355529
 30
0.0
  0
SEQEND
  5
6C78
  8
0
  0
LINE
  5
608D
  8
0
 10
202.33699120800361
 20
131.8152886062785
 30
0.0
 11
205.8769912080036
 21
131.8152886062785
 31
0.0
  0
POLYLINE
  5
608F
  8
0
 66
     1
 10
0.0
 20
0.0
 30
0.0
  0
VERTEX
  5
6C79
  8
0
 10
205.8769912080036
 20
131.8152886062785
 30
0.0
  0
VERTEX
  5
6C7A
  8
0
 10
205.96363663806829
 20
131.6968789925044
 30
0.0
  0
VERTEX
  5
6C7B
  8
0
 10
206.1329200625415
 20
131.46205081165169
 30
0.0
  0
VERTEX
  5
6C7C
  8
0
 10
206.29693396338871
 20
131.22977560459779
 30
0.0
  0
VERTEX
  5
6C7D
  8
0
 10
206.3769912080036
 20
131.11455782864991
 30
0.0
  0
SEQEND
  5
6C7E
  8
0
  0
LINE
  5
6090
  8
0
 10
202.33699120800361
 20
132.24048256385601
 30
0.0
 11
205.8769912080036
 21
132.24048256385601
 31
0.0
  0
POLYLINE
  5
6092
  8
0
 66
     1
 10
0.0
 20
0.0
 30
0.0
  0
VERTEX
  5
6C7F
  8
0
 10
205.8769912080036
 20
132.24048256385601
 30
0.0
  0
VERTEX
  5
6C80
  8
0
 10
205.96363663806829
 20
132.13123221304369
 30
0.0
  0
VERTEX
  5
6C81
  8
0
 10
206.1329200625415
 20
131.91456854595589
 30
0.0
  0
VERTEX
  5
6C82
  8
0
 10
206.29693396338871
 20
131.7002603741208
 30
0.0
  0
VERTEX
  5
6C83
  8
0
 10
206.3769912080036
 20
131.59395496494909
 30
0.0
  0
SEQEND
  5
6C84
  8
0
  0
LINE
  5
6093
  8
0
 10
202.33699120800361
 20
132.49968628562431
 30
0.0
 11
205.8769912080036
 21
132.49968628562431
 31
0.0
  0
POLYLINE
  5
6095
  8
0
 66
     1
 10
0.0
 20
0.0
 30
0.0
  0
VERTEX
  5
6C85
  8
0
 10
205.8769912080036
 20
132.49968628562431
 30
0.0
  0
VERTEX
  5
6C86
  8
0
 10
205.96363663806821
 20
132.40079216747961
 30
0.0
  0
VERTEX
  5
6C87
  8
0
 10
206.1329200625415
 20
132.2046668266328
 30
0.0
  0
VERTEX
  5
6C88
  8
0
 10
206.2969339633888
 20
132.0106736951939
 30
0.0
  0
VERTEX
  5
6C89
  8
0
 10
206.3769912080036
 20
131.9144453571073
 30
0.0
  0
SEQEND
  5
6C8A
  8
0
  0
LINE
  5
6096
  8
0
 10
202.33699120800361
 20
132.5900598813659
 30
0.0
 11
205.8769912080036
 21
132.5900598813659
 31
0.0
  0
POLYLINE
  5
6099
  8
0
 66
     1
 10
0.0
 20
0.0
 30
0.0
  0
VERTEX
  5
6C8B
  8
0
 10
205.8769912080036
 20
132.5900598813659
 30
0.0
  0
VERTEX
  5
6C8C
  8
0
 10
205.96363663806829
 20
132.50260550054179
 30
0.0
  0
VERTEX
  5
6C8D
  8
0
 10
206.1329200625415
 20
132.3291672762125
 30
0.0
  0
VERTEX
  5
6C8E
  8
0
 10
206.29693396338871
 20
132.1576146145137
 30
0.0
  0
VERTEX
  5
6C8F
  8
0
 10
206.3769912080036
 20
132.07251764532111
 30
0.0
  0
SEQEND
  5
6C90
  8
0
  0
LINE
  5
60C0
  8
0
 10
202.33699120800361
 20
101.6696828162318
 30
0.0
 11
205.8769912080036
 21
101.6696828162318
 31
0.0
  0
POLYLINE
  5
60C2
  8
0
 66
     1
 10
0.0
 20
0.0
 30
0.0
  0
VERTEX
  5
6C91
  8
0
 10
205.8769912080036
 20
101.6696828162318
 30
0.0
  0
VERTEX
  5
6C92
  8
0
 10
205.96363663806829
 20
101.74473929123771
 30
0.0
  0
VERTEX
  5
6C93
  8
0
 10
206.1329200625415
 20
101.89359017356961
 30
0.0
  0
VERTEX
  5
6C94
  8
0
 10
206.29693396338871
 20
102.04082279866709
 30
0.0
  0
VERTEX
  5
6C95
  8
0
 10
206.3769912080036
 20
102.1138560587634
 30
0.0
  0
SEQEND
  5
6C96
  8
0
  0
LINE
  5
60C3
  8
0
 10
202.33699120800361
 20
101.91807934212071
 30
0.0
 11
205.8769912080036
 21
101.91807934212071
 31
0.0
  0
POLYLINE
  5
60C5
  8
0
 66
     1
 10
0.0
 20
0.0
 30
0.0
  0
VERTEX
  5
6C97
  8
0
 10
205.8769912080036
 20
101.91807934212071
 30
0.0
  0
VERTEX
  5
6C98
  8
0
 10
205.96363663806841
 20
101.9799155768618
 30
0.0
  0
VERTEX
  5
6C99
  8
0
 10
206.1329200625415
 20
102.10254827578041
 30
0.0
  0
VERTEX
  5
6C9A
  8
0
 10
206.29693396338871
 20
102.22384775282561
 30
0.0
  0
VERTEX
  5
6C9B
  8
0
 10
206.3769912080036
 20
102.2840171361449
 30
0.0
  0
SEQEND
  5
6C9C
  8
0
  0
LINE
  5
60C6
  8
0
 10
202.33699120800361
 20
102.33270422726859
 30
0.0
 11
205.8769912080036
 21
102.33270422726859
 31
0.0
  0
POLYLINE
  5
60C8
  8
0
 66
     1
 10
0.0
 20
0.0
 30
0.0
  0
VERTEX
  5
6C9D
  8
0
 10
205.8769912080036
 20
102.33270422726859
 30
0.0
  0
VERTEX
  5
6C9E
  8
0
 10
205.96363663806841
 20
102.38064273101701
 30
0.0
  0
VERTEX
  5
6C9F
  8
0
 10
206.1329200625415
 20
102.4757136570104
 30
0.0
  0
VERTEX
  5
6CA0
  8
0
 10
206.29693396338871
 20
102.5697510035493
 30
0.0
  0
VERTEX
  5
6CA1
  8
0
 10
206.3769912080036
 20
102.6163972817366
 30
0.0
  0
SEQEND
  5
6CA2
  8
0
  0
LINE
  5
60C9
  8
0
 10
202.33699120800361
 20
102.90901475466789
 30
0.0
 11
205.8769912080036
 21
102.90901475466789
 31
0.0
  0
POLYLINE
  5
60CB
  8
0
 66
     1
 10
0.0
 20
0.0
 30
0.0
  0
VERTEX
  5
6CA3
  8
0
 10
205.8769912080036
 20
102.90901475466789
 30
0.0
  0
VERTEX
  5
6CA4
  8
0
 10
205.96363663806829
 20
102.94253030314469
 30
0.0
  0
VERTEX
  5
6CA5
  8
0
 10
206.1329200625415
 20
103.0089978392529
 30
0.0
  0
VERTEX
  5
6CA6
  8
0
 10
206.29693396338871
 20
103.07474276243821
 30
0.0
  0
VERTEX
  5
6CA7
  8
0
 10
206.3769912080036
 20
103.10735486910841
 30
0.0
  0
SEQEND
  5
6CA8
  8
0
  0
LINE
  5
60CC
  8
0
 10
202.33699120800361
 20
103.6406967455797
 30
0.0
 11
205.8769912080036
 21
103.6406967455797
 31
0.0
  0
POLYLINE
  5
60CE
  8
0
 66
     1
 10
0.0
 20
0.0
 30
0.0
  0
VERTEX
  5
6CA9
  8
0
 10
205.8769912080036
 20
103.6406967455797
 30
0.0
  0
VERTEX
  5
6CAA
  8
0
 10
205.96363663806829
 20
103.6594221354223
 30
0.0
  0
VERTEX
  5
6CAB
  8
0
 10
206.1329200625415
 20
103.6965580494104
 30
0.0
  0
VERTEX
  5
6CAC
  8
0
 10
206.29693396338871
 20
103.7332902341057
 30
0.0
  0
VERTEX
  5
6CAD
  8
0
 10
206.3769912080036
 20
103.75151086419351
 30
0.0
  0
SEQEND
  5
6CAE
  8
0
  0
LINE
  5
60CF
  8
0
 10
202.33699120800361
 20
104.5197337389973
 30
0.0
 11
205.8769912080036
 21
104.5197337389973
 31
0.0
  0
POLYLINE
  5
60D1
  8
0
 66
     1
 10
0.0
 20
0.0
 30
0.0
  0
VERTEX
  5
6CAF
  8
0
 10
205.8769912080036
 20
104.5197337389974
 30
0.0
  0
VERTEX
  5
6CB0
  8
0
 10
205.96363663806829
 20
104.523463810916
 30
0.0
  0
VERTEX
  5
6CB1
  8
0
 10
206.1329200625415
 20
104.53086123393921
 30
0.0
  0
VERTEX
  5
6CB2
  8
0
 10
206.29693396338871
 20
104.5381782346422
 30
0.0
  0
VERTEX
  5
6CB3
  8
0
 10
206.3769912080036
 20
104.54180775911151
 30
0.0
  0
SEQEND
  5
6CB4
  8
0
  0
LINE
  5
60D2
  8
0
 10
202.33699120800361
 20
105.5364948216705
 30
0.0
 11
205.8769912080036
 21
105.5364948216705
 31
0.0
  0
LINE
  5
60D3
  8
0
 10
206.3769912080036
 20
105.4640444242465
 30
0.0
 11
202.33699120800361
 21
105.4640444242465
 31
0.0
  0
POLYLINE
  5
60D4
  8
0
 66
     1
 10
0.0
 20
0.0
 30
0.0
  0
VERTEX
  5
6CB5
  8
0
 10
205.8769912080036
 20
105.5364948216705
 30
0.0
  0
VERTEX
  5
6CB6
  8
0
 10
205.96363663806829
 20
105.5251887082167
 30
0.0
  0
VERTEX
  5
6CB7
  8
0
 10
206.13292006254139
 20
105.5027665925605
 30
0.0
  0
VERTEX
  5
6CB8
  8
0
 10
206.29693396338871
 20
105.4805882426803
 30
0.0
  0
VERTEX
  5
6CB9
  8
0
 10
206.3769912080036
 20
105.4695868957015
 30
0.0
  0
SEQEND
  5
6CBA
  8
0
  0
LINE
  5
60D5
  8
0
 10
202.33699120800361
 20
106.6798401464066
 30
0.0
 11
205.8769912080036
 21
106.6798401464066
 31
0.0
  0
LINE
  5
60D6
  8
0
 10
206.3769912080036
 20
106.5118305610921
 30
0.0
 11
202.33699120800361
 21
106.5118305610921
 31
0.0
  0
POLYLINE
  5
60D7
  8
0
 66
     1
 10
0.0
 20
0.0
 30
0.0
  0
VERTEX
  5
6CBB
  8
0
 10
205.8769912080036
 20
106.6798401464066
 30
0.0
  0
VERTEX
  5
6CBC
  8
0
 10
205.96363663806841
 20
106.65362171972529
 30
0.0
  0
VERTEX
  5
6CBD
  8
0
 10
206.1329200625415
 20
106.6016257267807
 30
0.0
  0
VERTEX
  5
6CBE
  8
0
 10
206.29693396338871
 20
106.5501950169599
 30
0.0
  0
VERTEX
  5
6CBF
  8
0
 10
206.3769912080036
 20
106.5246833315926
 30
0.0
  0
SEQEND
  5
6CC0
  8
0
  0
LINE
  5
60D8
  8
0
 10
202.33699120800361
 20
107.9372429825673
 30
0.0
 11
205.8769912080036
 21
107.9372429825673
 31
0.0
  0
LINE
  5
60D9
  8
0
 10
206.3769912080036
 20
107.6755149575372
 30
0.0
 11
202.33699120800361
 21
107.6755149575372
 31
0.0
  0
POLYLINE
  5
60DA
  8
0
 66
     1
 10
0.0
 20
0.0
 30
0.0
  0
VERTEX
  5
6CC1
  8
0
 10
205.8769912080036
 20
107.9372429825673
 30
0.0
  0
VERTEX
  5
6CC2
  8
0
 10
205.96363663806829
 20
107.8963994972279
 30
0.0
  0
VERTEX
  5
6CC3
  8
0
 10
206.1329200625415
 20
107.81539930597449
 30
0.0
  0
VERTEX
  5
6CC4
  8
0
 10
206.29693396338871
 20
107.7352797218323
 30
0.0
  0
VERTEX
  5
6CC5
  8
0
 10
206.3769912080036
 20
107.6955372094402
 30
0.0
  0
SEQEND
  5
6CC6
  8
0
  0
LINE
  5
60DB
  8
0
 10
202.33699120800361
 20
109.2949269615513
 30
0.0
 11
205.8769912080036
 21
109.2949269615513
 31
0.0
  0
LINE
  5
60DC
  8
0
 10
206.3769912080036
 20
108.942348043818
 30
0.0
 11
202.33699120800361
 21
108.942348043818
 31
0.0
  0
POLYLINE
  5
60DD
  8
0
 66
     1
 10
0.0
 20
0.0
 30
0.0
  0
VERTEX
  5
6CC7
  8
0
 10
205.8769912080036
 20
109.2949269615513
 30
0.0
  0
VERTEX
  5
6CC8
  8
0
 10
205.96363663806829
 20
109.2399059073261
 30
0.0
  0
VERTEX
  5
6CC9
  8
0
 10
206.1329200625415
 20
109.1307889728098
 30
0.0
  0
VERTEX
  5
6CCA
  8
0
 10
206.29693396338871
 20
109.0228583212762
 30
0.0
  0
VERTEX
  5
6CCB
  8
0
 10
206.3769912080036
 20
108.9693204091416
 30
0.0
  0
SEQEND
  5
6CCC
  8
0
  0
LINE
  5
60DE
  8
0
 10
202.33699120800361
 20
110.7380170135711
 30
0.0
 11
205.8769912080036
 21
110.7380170135711
 31
0.0
  0
LINE
  5
60DF
  8
0
 10
206.3769912080036
 20
110.2984501315392
 30
0.0
 11
202.33699120800361
 21
110.2984501315392
 31
0.0
  0
POLYLINE
  5
60E0
  8
0
 66
     1
 10
0.0
 20
0.0
 30
0.0
  0
VERTEX
  5
6CCD
  8
0
 10
205.8769912080036
 20
110.7380170135711
 30
0.0
  0
VERTEX
  5
6CCE
  8
0
 10
205.96363663806829
 20
110.6694212126442
 30
0.0
  0
VERTEX
  5
6CCF
  8
0
 10
206.1329200625415
 20
110.53338304283361
 30
0.0
  0
VERTEX
  5
6CD0
  8
0
 10
206.2969339633888
 20
110.3988238347127
 30
0.0
  0
VERTEX
  5
6CD1
  8
0
 10
206.3769912080036
 20
110.3320770954045
 30
0.0
  0
SEQEND
  5
6CD2
  8
0
  0
LINE
  5
60E1
  8
0
 10
202.33699120800361
 20
112.25070234203091
 30
0.0
 11
205.8769912080036
 21
112.25070234203091
 31
0.0
  0
LINE
  5
60E2
  8
0
 10
206.3769912080036
 20
111.7289634824451
 30
0.0
 11
202.33699120800361
 21
111.7289634824451
 31
0.0
  0
POLYLINE
  5
60E3
  8
0
 66
     1
 10
0.0
 20
0.0
 30
0.0
  0
VERTEX
  5
6CD3
  8
0
 10
205.8769912080036
 20
112.25070234203091
 30
0.0
  0
VERTEX
  5
6CD4
  8
0
 10
205.96363663806829
 20
112.1692833443517
 30
0.0
  0
VERTEX
  5
6CD5
  8
0
 10
206.1329200625415
 20
112.0078144019031
 30
0.0
  0
VERTEX
  5
6CD6
  8
0
 10
206.29693396338871
 20
111.84810089603759
 30
0.0
  0
VERTEX
  5
6CD7
  8
0
 10
206.3769912080036
 20
111.7688766207993
 30
0.0
  0
SEQEND
  5
6CD8
  8
0
  0
LINE
  5
60E4
  8
0
 10
202.33699120800361
 20
113.81640964992221
 30
0.0
 11
205.8769912080036
 21
113.81640964992221
 31
0.0
  0
LINE
  5
60E5
  8
0
 10
206.3769912080036
 20
113.21821509290911
 30
0.0
 11
202.33699120800361
 21
113.21821509290911
 31
0.0
  0
POLYLINE
  5
60E6
  8
0
 66
     1
 10
0.0
 20
0.0
 30
0.0
  0
VERTEX
  5
6CD9
  8
0
 10
205.8769912080036
 20
113.81640964992221
 30
0.0
  0
VERTEX
  5
6CDA
  8
0
 10
205.96363663806821
 20
113.7230594990675
 30
0.0
  0
VERTEX
  5
6CDB
  8
0
 10
206.13292006254139
 20
113.53792887150389
 30
0.0
  0
VERTEX
  5
6CDC
  8
0
 10
206.29693396338871
 20
113.354810922486
 30
0.0
  0
VERTEX
  5
6CDD
  8
0
 10
206.3769912080036
 20
113.2639771090558
 30
0.0
  0
SEQEND
  5
6CDE
  8
0
  0
LINE
  5
60E7
  8
0
 10
202.33699120800361
 20
115.4179847203345
 30
0.0
 11
205.8769912080036
 21
115.4179847203345
 31
0.0
  0
LINE
  5
60E8
  8
0
 10
206.3769912080036
 20
114.74988841064091
 30
0.0
 11
202.33699120800361
 21
114.74988841064091
 31
0.0
  0
POLYLINE
  5
60E9
  8
0
 66
     1
 10
0.0
 20
0.0
 30
0.0
  0
VERTEX
  5
6CDF
  8
0
 10
205.8769912080036
 20
115.4179847203345
 30
0.0
  0
VERTEX
  5
6CE0
  8
0
 10
205.96363663806841
 20
115.31372618009161
 30
0.0
  0
VERTEX
  5
6CE1
  8
0
 10
206.1329200625415
 20
115.1069621973097
 30
0.0
  0
VERTEX
  5
6CE2
  8
0
 10
206.29693396338871
 20
114.90244608370899
 30
0.0
  0
VERTEX
  5
6CE3
  8
0
 10
206.3769912080036
 20
114.80099792635509
 30
0.0
  0
SEQEND
  5
6CE4
  8
0
  0
LINE
  5
60EA
  8
0
 10
202.33699120800361
 20
118.7623112949512
 30
0.0
 11
202.33699120800361
 21
120.26163542030621
 31
0.0
  0
LINE
  5
60EC
  8
0
 10
202.33699120800361
 20
120.3638863653634
 30
0.0
 11
202.33699120800361
 21
121.8301747026198
 31
0.0
  0
LINE
  5
60EE
  8
0
 10
202.33699120800361
 20
121.9295936732547
 30
0.0
 11
202.33699120800361
 21
123.34678126054879
 31
0.0
  0
LINE
  5
60F0
  8
0
 10
202.33699120800361
 20
123.4422790017145
 30
0.0
 11
202.33699120800361
 21
124.7948388352744
 31
0.0
  0
LINE
  5
60F1
  8
0
 10
202.33699120800361
 20
124.88536905373429
 30
0.0
 11
202.33699120800361
 21
126.15848220498211
 31
0.0
  0
LINE
  5
60F2
  8
0
 10
202.33699120800361
 20
126.24305303271829
 30
0.0
 11
202.33699120800361
 21
127.4227710075529
 31
0.0
  0
LINE
  5
60F3
  8
0
 10
202.33699120800361
 20
127.500455868879
 30
0.0
 11
202.33699120800361
 21
128.5738534302964
 31
0.0
  0
LINE
  5
60F5
  8
0
 10
202.33699120800361
 20
128.6438011936151
 30
0.0
 11
202.33699120800361
 21
129.59911797330929
 31
0.0
  0
LINE
  5
60F7
  8
0
 10
202.33699120800361
 20
129.66056227628829
 30
0.0
 11
202.33699120800361
 21
130.4873316237082
 31
0.0
  0
LINE
  5
60F8
  8
0
 10
202.33699120800361
 20
130.53959926970589
 30
0.0
 11
202.33699120800361
 21
131.2287629268686
 31
0.0
  0
LINE
  5
60F9
  8
0
 10
202.33699120800361
 20
131.27128126061771
 30
0.0
 11
202.33699120800361
 21
131.8152886062785
 31
0.0
  0
LINE
  5
60FA
  8
0
 10
202.33699120800361
 20
131.84759178801701
 30
0.0
 11
202.33699120800361
 21
132.24048256385601
 31
0.0
  0
LINE
  5
60FB
  8
0
 10
202.33699120800361
 20
132.26221667316489
 30
0.0
 11
202.33699120800361
 21
132.49968628562431
 31
0.0
  0
LINE
  5
60FC
  8
0
 10
202.33699120800361
 20
132.51061319905381
 30
0.0
 11
202.33699120800361
 21
132.5900598813659
 31
0.0
  0
LINE
  5
60FE
  8
0
 10
202.33699120800361
 20
101.5902361339197
 30
0.0
 11
202.33699120800361
 21
101.6696828162318
 31
0.0
  0
LINE
  5
6100
  8
0
 10
202.33699120800361
 20
101.6806097296613
 30
0.0
 11
202.33699120800361
 21
101.91807934212071
 31
0.0
  0
LINE
  5
6101
  8
0
 10
202.33699120800361
 20
101.9398134514296
 30
0.0
 11
202.33699120800361
 21
102.33270422726859
 31
0.0
  0
LINE
  5
6102
  8
0
 10
202.33699120800361
 20
102.36500740900711
 30
0.0
 11
202.33699120800361
 21
102.90901475466789
 31
0.0
  0
LINE
  5
6103
  8
0
 10
202.33699120800361
 20
102.95153308841699
 30
0.0
 11
202.33699120800361
 21
103.6406967455797
 31
0.0
  0
LINE
  5
6104
  8
0
 10
202.33699120800361
 20
103.69296439157731
 30
0.0
 11
202.33699120800361
 21
104.5197337389974
 31
0.0
  0
LINE
  5
6105
  8
0
 10
202.33699120800361
 20
104.5811780419762
 30
0.0
 11
202.33699120800361
 21
105.5364948216705
 31
0.0
  0
LINE
  5
6106
  8
0
 10
202.33699120800361
 20
105.6064425849892
 30
0.0
 11
202.33699120800361
 21
106.6798401464066
 31
0.0
  0
LINE
  5
6107
  8
0
 10
202.33699120800361
 20
106.7575250077326
 30
0.0
 11
202.33699120800361
 21
107.9372429825673
 31
0.0
  0
LINE
  5
6108
  8
0
 10
202.33699120800361
 20
108.0218138103034
 30
0.0
 11
202.33699120800361
 21
109.2949269615513
 31
0.0
  0
LINE
  5
6109
  8
0
 10
202.33699120800361
 20
109.3854571800112
 30
0.0
 11
202.33699120800361
 21
110.7380170135711
 31
0.0
  0
LINE
  5
610A
  8
0
 10
202.33699120800361
 20
110.8335147547367
 30
0.0
 11
202.33699120800361
 21
112.25070234203091
 31
0.0
  0
LINE
  5
610B
  8
0
 10
202.33699120800361
 20
112.35012131266571
 30
0.0
 11
202.33699120800361
 21
113.81640964992221
 31
0.0
  0
LINE
  5
610C
  8
0
 10
202.33699120800361
 20
113.9186605949793
 30
0.0
 11
202.33699120800361
 21
115.4179847203345
 31
0.0
  0
LINE
  5
610D
  8
0
 10
202.33699120800361
 20
115.5219473570624
 30
0.0
 11
202.33699120800361
 21
117.03788036164509
 31
0.0
  0
LINE
  5
610E
  8
0
 10
202.33699120800361
 20
117.03788036164509
 30
0.0
 11
205.8769912080036
 21
117.03788036164509
 31
0.0
  0
LINE
  5
610F
  8
0
 10
206.3769912080036
 20
116.3072021022483
 30
0.0
 11
202.33699120800361
 21
116.3072021022483
 31
0.0
  0
POLYLINE
  5
6110
  8
0
 66
     1
 10
0.0
 20
0.0
 30
0.0
  0
VERTEX
  5
6CE5
  8
0
 10
205.8769912080036
 20
117.03788036164509
 30
0.0
  0
VERTEX
  5
6CE6
  8
0
 10
205.96363663806829
 20
116.9238557103986
 30
0.0
  0
VERTEX
  5
6CE7
  8
0
 10
206.1329200625415
 20
116.69772372186191
 30
0.0
  0
VERTEX
  5
6CE8
  8
0
 10
206.29693396338871
 20
116.47405016501649
 30
0.0
  0
VERTEX
  5
6CE9
  8
0
 10
206.3769912080036
 20
116.3630991509803
 30
0.0
  0
SEQEND
  5
6CEA
  8
0
  0
LINE
  5
6111
  8
0
 10
205.8769912080036
 20
117.1424156536404
 30
0.0
 11
202.33699120800361
 21
117.1424156536404
 31
0.0
  0
POLYLINE
  5
6112
  8
0
 66
     1
 10
0.0
 20
0.0
 30
0.0
  0
VERTEX
  5
6CEB
  8
0
 10
206.3769912080036
 20
117.8171968643052
 30
0.0
  0
VERTEX
  5
6CEC
  8
0
 10
206.29693396338871
 20
117.706245850269
 30
0.0
  0
VERTEX
  5
6CED
  8
0
 10
206.1329200625415
 20
117.4825722934237
 30
0.0
  0
VERTEX
  5
6CEE
  8
0
 10
205.96363663806841
 20
117.25644030488709
 30
0.0
  0
VERTEX
  5
6CEF
  8
0
 10
205.8769912080036
 20
117.1424156536404
 30
0.0
  0
SEQEND
  5
6CF0
  8
0
  0
LINE
  5
6114
  8
0
 10
205.8769912080036
 20
118.7623112949511
 30
0.0
 11
202.33699120800361
 21
118.7623112949512
 31
0.0
  0
POLYLINE
  5
6115
  8
0
 66
     1
 10
0.0
 20
0.0
 30
0.0
  0
VERTEX
  5
6CF1
  8
0
 10
206.3769912080036
 20
119.3792980889305
 30
0.0
  0
VERTEX
  5
6CF2
  8
0
 10
206.29693396338871
 20
119.2778499315767
 30
0.0
  0
VERTEX
  5
6CF3
  8
0
 10
206.1329200625415
 20
119.07333381797589
 30
0.0
  0
VERTEX
  5
6CF4
  8
0
 10
205.96363663806829
 20
118.866569835194
 30
0.0
  0
VERTEX
  5
6CF5
  8
0
 10
205.8769912080036
 20
118.7623112949511
 30
0.0
  0
SEQEND
  5
6CF6
  8
0
  0
LINE
  5
6116
  8
0
 10
205.8769912080036
 20
120.3638863653634
 30
0.0
 11
202.33699120800361
 21
120.3638863653634
 31
0.0
  0
POLYLINE
  5
6117
  8
0
 66
     1
 10
0.0
 20
0.0
 30
0.0
  0
VERTEX
  5
6CF7
  8
0
 10
206.3769912080036
 20
120.9163189062298
 30
0.0
  0
VERTEX
  5
6CF8
  8
0
 10
206.2969339633888
 20
120.8254850927997
 30
0.0
  0
VERTEX
  5
6CF9
  8
0
 10
206.1329200625415
 20
120.6423671437818
 30
0.0
  0
VERTEX
  5
6CFA
  8
0
 10
205.96363663806821
 20
120.4572365162181
 30
0.0
  0
VERTEX
  5
6CFB
  8
0
 10
205.8769912080036
 20
120.3638863653634
 30
0.0
  0
SEQEND
  5
6CFC
  8
0
  0
LINE
  5
6118
  8
0
 10
205.8769912080036
 20
121.9295936732547
 30
0.0
 11
202.33699120800361
 21
121.9295936732547
 31
0.0
  0
POLYLINE
  5
6119
  8
0
 66
     1
 10
0.0
 20
0.0
 30
0.0
  0
VERTEX
  5
6CFD
  8
0
 10
206.3769912080036
 20
122.4114193944864
 30
0.0
  0
VERTEX
  5
6CFE
  8
0
 10
206.2969339633888
 20
122.3321951192481
 30
0.0
  0
VERTEX
  5
6CFF
  8
0
 10
206.1329200625415
 20
122.1724816133825
 30
0.0
  0
VERTEX
  5
6D00
  8
0
 10
205.96363663806829
 20
122.01101267093379
 30
0.0
  0
VERTEX
  5
6D01
  8
0
 10
205.8769912080036
 20
121.9295936732547
 30
0.0
  0
SEQEND
  5
6D02
  8
0
  0
LINE
  5
611A
  8
0
 10
205.8769912080036
 20
123.4422790017145
 30
0.0
 11
202.33699120800361
 21
123.4422790017145
 31
0.0
  0
POLYLINE
  5
611B
  8
0
 66
     1
 10
0.0
 20
0.0
 30
0.0
  0
VERTEX
  5
6D03
  8
0
 10
206.3769912080036
 20
123.84821891988111
 30
0.0
  0
VERTEX
  5
6D04
  8
0
 10
206.29693396338871
 20
123.78147218057281
 30
0.0
  0
VERTEX
  5
6D05
  8
0
 10
206.13292006254139
 20
123.646912972452
 30
0.0
  0
VERTEX
  5
6D06
  8
0
 10
205.96363663806829
 20
123.5108748026414
 30
0.0
  0
VERTEX
  5
6D07
  8
0
 10
205.8769912080036
 20
123.4422790017145
 30
0.0
  0
SEQEND
  5
6D08
  8
0
  0
LINE
  5
611C
  8
0
 10
205.8769912080036
 20
124.88536905373429
 30
0.0
 11
202.33699120800361
 21
124.88536905373429
 31
0.0
  0
POLYLINE
  5
611D
  8
0
 66
     1
 10
0.0
 20
0.0
 30
0.0
  0
VERTEX
  5
6D09
  8
0
 10
206.3769912080036
 20
125.210975606144
 30
0.0
  0
VERTEX
  5
6D0A
  8
0
 10
206.29693396338871
 20
125.1574376940094
 30
0.0
  0
VERTEX
  5
6D0B
  8
0
 10
206.1329200625415
 20
125.04950704247589
 30
0.0
  0
VERTEX
  5
6D0C
  8
0
 10
205.96363663806829
 20
124.9403901079595
 30
0.0
  0
VERTEX
  5
6D0D
  8
0
 10
205.8769912080036
 20
124.88536905373429
 30
0.0
  0
SEQEND
  5
6D0E
  8
0
  0
LINE
  5
611E
  8
0
 10
205.8769912080036
 20
126.24305303271829
 30
0.0
 11
202.33699120800361
 21
126.24305303271829
 31
0.0
  0
POLYLINE
  5
611F
  8
0
 66
     1
 10
0.0
 20
0.0
 30
0.0
  0
VERTEX
  5
6D0F
  8
0
 10
206.3769912080036
 20
126.4847588058454
 30
0.0
  0
VERTEX
  5
6D10
  8
0
 10
206.2969339633888
 20
126.44501629345331
 30
0.0
  0
VERTEX
  5
6D11
  8
0
 10
206.13292006254139
 20
126.364896709311
 30
0.0
  0
VERTEX
  5
6D12
  8
0
 10
205.96363663806821
 20
126.2838965180576
 30
0.0
  0
VERTEX
  5
6D13
  8
0
 10
205.8769912080036
 20
126.24305303271829
 30
0.0
  0
SEQEND
  5
6D14
  8
0
  0
LINE
  5
6120
  8
0
 10
205.8769912080036
 20
127.500455868879
 30
0.0
 11
202.33699120800361
 21
127.500455868879
 31
0.0
  0
POLYLINE
  5
6121
  8
0
 66
     1
 10
0.0
 20
0.0
 30
0.0
  0
VERTEX
  5
6D15
  8
0
 10
206.3769912080036
 20
127.65561268369299
 30
0.0
  0
VERTEX
  5
6D16
  8
0
 10
206.29693396338871
 20
127.6301009983257
 30
0.0
  0
VERTEX
  5
6D17
  8
0
 10
206.1329200625415
 20
127.5786702885049
 30
0.0
  0
VERTEX
  5
6D18
  8
0
 10
205.96363663806829
 20
127.5266742955603
 30
0.0
  0
VERTEX
  5
6D19
  8
0
 10
205.8769912080036
 20
127.500455868879
 30
0.0
  0
SEQEND
  5
6D1A
  8
0
  0
LINE
  5
6122
  8
0
 10
205.8769912080036
 20
128.6438011936151
 30
0.0
 11
202.33699120800361
 21
128.6438011936151
 31
0.0
  0
POLYLINE
  5
6123
  8
0
 66
     1
 10
0.0
 20
0.0
 30
0.0
  0
VERTEX
  5
6D1B
  8
0
 10
206.3769912080036
 20
128.7107091195841
 30
0.0
  0
VERTEX
  5
6D1C
  8
0
 10
206.29693396338871
 20
128.69970777260531
 30
0.0
  0
VERTEX
  5
6D1D
  8
0
 10
206.1329200625415
 20
128.6775294227252
 30
0.0
  0
VERTEX
  5
6D1E
  8
0
 10
205.96363663806829
 20
128.6551073070689
 30
0.0
  0
VERTEX
  5
6D1F
  8
0
 10
205.8769912080036
 20
128.6438011936151
 30
0.0
  0
SEQEND
  5
6D20
  8
0
  0
LINE
  5
6124
  8
0
 10
205.8769912080036
 20
129.6605622762882
 30
0.0
 11
202.33699120800361
 21
129.66056227628829
 31
0.0
  0
POLYLINE
  5
6125
  8
0
 66
     1
 10
0.0
 20
0.0
 30
0.0
  0
VERTEX
  5
6D21
  8
0
 10
206.3769912080036
 20
129.6384882561741
 30
0.0
  0
VERTEX
  5
6D22
  8
0
 10
206.29693396338871
 20
129.64211778064339
 30
0.0
  0
VERTEX
  5
6D23
  8
0
 10
206.13292006254139
 20
129.6494347813464
 30
0.0
  0
VERTEX
  5
6D24
  8
0
 10
205.96363663806829
 20
129.65683220436961
 30
0.0
  0
VERTEX
  5
6D25
  8
0
 10
205.8769912080036
 20
129.6605622762882
 30
0.0
  0
SEQEND
  5
6D26
  8
0
  0
LINE
  5
6126
  8
0
 10
205.8769912080036
 20
130.53959926970589
 30
0.0
 11
202.33699120800361
 21
130.53959926970589
 31
0.0
  0
POLYLINE
  5
6127
  8
0
 66
     1
 10
0.0
 20
0.0
 30
0.0
  0
VERTEX
  5
6D27
  8
0
 10
206.3769912080036
 20
130.42878515109209
 30
0.0
  0
VERTEX
  5
6D28
  8
0
 10
206.29693396338871
 20
130.44700578117991
 30
0.0
  0
VERTEX
  5
6D29
  8
0
 10
206.1329200625415
 20
130.48373796587521
 30
0.0
  0
VERTEX
  5
6D2A
  8
0
 10
205.96363663806829
 20
130.5208738798633
 30
0.0
  0
VERTEX
  5
6D2B
  8
0
 10
205.8769912080036
 20
130.53959926970589
 30
0.0
  0
SEQEND
  5
6D2C
  8
0
  0
LINE
  5
6128
  8
0
 10
205.8769912080036
 20
131.27128126061771
 30
0.0
 11
202.33699120800361
 21
131.27128126061771
 31
0.0
  0
POLYLINE
  5
6129
  8
0
 66
     1
 10
0.0
 20
0.0
 30
0.0
  0
VERTEX
  5
6D2D
  8
0
 10
206.3769912080036
 20
131.07294114617719
 30
0.0
  0
VERTEX
  5
6D2E
  8
0
 10
206.29693396338871
 20
131.10555325284739
 30
0.0
  0
VERTEX
  5
6D2F
  8
0
 10
206.1329200625415
 20
131.17129817603271
 30
0.0
  0
VERTEX
  5
6D30
  8
0
 10
205.96363663806829
 20
131.23776571214091
 30
0.0
  0
VERTEX
  5
6D31
  8
0
 10
205.8769912080036
 20
131.27128126061771
 30
0.0
  0
SEQEND
  5
6D32
  8
0
  0
LINE
  5
612A
  8
0
 10
205.8769912080036
 20
131.84759178801701
 30
0.0
 11
202.33699120800361
 21
131.84759178801701
 31
0.0
  0
POLYLINE
  5
612B
  8
0
 66
     1
 10
0.0
 20
0.0
 30
0.0
  0
VERTEX
  5
6D33
  8
0
 10
206.3769912080036
 20
131.563898733549
 30
0.0
  0
VERTEX
  5
6D34
  8
0
 10
206.2969339633888
 20
131.61054501173629
 30
0.0
  0
VERTEX
  5
6D35
  8
0
 10
206.13292006254139
 20
131.70458235827519
 30
0.0
  0
VERTEX
  5
6D36
  8
0
 10
205.96363663806821
 20
131.79965328426869
 30
0.0
  0
VERTEX
  5
6D37
  8
0
 10
205.8769912080036
 20
131.84759178801701
 30
0.0
  0
SEQEND
  5
6D38
  8
0
  0
LINE
  5
612C
  8
0
 10
205.8769912080036
 20
132.26221667316489
 30
0.0
 11
202.33699120800361
 21
132.26221667316489
 31
0.0
  0
POLYLINE
  5
612D
  8
0
 66
     1
 10
0.0
 20
0.0
 30
0.0
  0
VERTEX
  5
6D39
  8
0
 10
206.3769912080036
 20
131.89627887914071
 30
0.0
  0
VERTEX
  5
6D3A
  8
0
 10
206.29693396338871
 20
131.95644826245999
 30
0.0
  0
VERTEX
  5
6D3B
  8
0
 10
206.1329200625415
 20
132.07774773950521
 30
0.0
  0
VERTEX
  5
6D3C
  8
0
 10
205.96363663806829
 20
132.20038043842379
 30
0.0
  0
VERTEX
  5
6D3D
  8
0
 10
205.8769912080036
 20
132.26221667316489
 30
0.0
  0
SEQEND
  5
6D3E
  8
0
  0
LINE
  5
612E
  8
0
 10
205.8769912080036
 20
132.51061319905381
 30
0.0
 11
202.33699120800361
 21
132.51061319905381
 31
0.0
  0
POLYLINE
  5
612F
  8
0
 66
     1
 10
0.0
 20
0.0
 30
0.0
  0
VERTEX
  5
6D3F
  8
0
 10
206.3769912080036
 20
132.0664399565222
 30
0.0
  0
VERTEX
  5
6D40
  8
0
 10
206.29693396338871
 20
132.13947321661851
 30
0.0
  0
VERTEX
  5
6D41
  8
0
 10
206.1329200625415
 20
132.28670584171601
 30
0.0
  0
VERTEX
  5
6D42
  8
0
 10
205.96363663806829
 20
132.4355567240479
 30
0.0
  0
VERTEX
  5
6D43
  8
0
 10
205.8769912080036
 20
132.51061319905381
 30
0.0
  0
SEQEND
  5
6D44
  8
0
  0
LINE
  5
614F
  8
0
 10
205.8769912080036
 20
101.5902361339197
 30
0.0
 11
202.33699120800361
 21
101.5902361339197
 31
0.0
  0
POLYLINE
  5
6150
  8
0
 66
     1
 10
0.0
 20
0.0
 30
0.0
  0
VERTEX
  5
6D45
  8
0
 10
206.3769912080036
 20
102.10777836996439
 30
0.0
  0
VERTEX
  5
6D46
  8
0
 10
206.2969339633888
 20
102.0226814007719
 30
0.0
  0
VERTEX
  5
6D47
  8
0
 10
206.1329200625415
 20
101.8511287390731
 30
0.0
  0
VERTEX
  5
6D48
  8
0
 10
205.96363663806821
 20
101.6776905147437
 30
0.0
  0
VERTEX
  5
6D49
  8
0
 10
205.8769912080036
 20
101.5902361339197
 30
0.0
  0
SEQEND
  5
6D4A
  8
0
  0
LINE
  5
6151
  8
0
 10
205.8769912080036
 20
101.6806097296613
 30
0.0
 11
202.33699120800361
 21
101.6806097296613
 31
0.0
  0
POLYLINE
  5
6152
  8
0
 66
     1
 10
0.0
 20
0.0
 30
0.0
  0
VERTEX
  5
6D4B
  8
0
 10
206.3769912080036
 20
102.26585065817829
 30
0.0
  0
VERTEX
  5
6D4C
  8
0
 10
206.29693396338871
 20
102.16962232009151
 30
0.0
  0
VERTEX
  5
6D4D
  8
0
 10
206.13292006254139
 20
101.9756291886527
 30
0.0
  0
VERTEX
  5
6D4E
  8
0
 10
205.96363663806829
 20
101.779503847806
 30
0.0
  0
VERTEX
  5
6D4F
  8
0
 10
205.8769912080036
 20
101.6806097296613
 30
0.0
  0
SEQEND
  5
6D50
  8
0
  0
LINE
  5
6153
  8
0
 10
205.8769912080036
 20
101.9398134514296
 30
0.0
 11
202.33699120800361
 21
101.9398134514296
 31
0.0
  0
POLYLINE
  5
6154
  8
0
 66
     1
 10
0.0
 20
0.0
 30
0.0
  0
VERTEX
  5
6D51
  8
0
 10
206.3769912080036
 20
102.5863410503365
 30
0.0
  0
VERTEX
  5
6D52
  8
0
 10
206.2969339633888
 20
102.4800356411649
 30
0.0
  0
VERTEX
  5
6D53
  8
0
 10
206.1329200625415
 20
102.2657274693297
 30
0.0
  0
VERTEX
  5
6D54
  8
0
 10
205.96363663806829
 20
102.0490638022418
 30
0.0
  0
VERTEX
  5
6D55
  8
0
 10
205.8769912080036
 20
101.9398134514296
 30
0.0
  0
SEQEND
  5
6D56
  8
0
  0
LINE
  5
6155
  8
0
 10
205.8769912080036
 20
102.36500740900711
 30
0.0
 11
202.33699120800361
 21
102.36500740900711
 31
0.0
  0
POLYLINE
  5
6156
  8
0
 66
     1
 10
0.0
 20
0.0
 30
0.0
  0
VERTEX
  5
6D57
  8
0
 10
206.3769912080036
 20
103.0657381866357
 30
0.0
  0
VERTEX
  5
6D58
  8
0
 10
206.2969339633888
 20
102.9505204106879
 30
0.0
  0
VERTEX
  5
6D59
  8
0
 10
206.1329200625415
 20
102.7182452036338
 30
0.0
  0
VERTEX
  5
6D5A
  8
0
 10
205.96363663806821
 20
102.483417022781
 30
0.0
  0
VERTEX
  5
6D5B
  8
0
 10
205.8769912080036
 20
102.36500740900711
 30
0.0
  0
SEQEND
  5
6D5C
  8
0
  0
LINE
  5
6157
  8
0
 10
205.8769912080036
 20
102.95153308841699
 30
0.0
 11
202.33699120800361
 21
102.95153308841699
 31
0.0
  0
POLYLINE
  5
6158
  8
0
 66
     1
 10
0.0
 20
0.0
 30
0.0
  0
VERTEX
  5
6D5D
  8
0
 10
206.3769912080036
 20
103.6987896917302
 30
0.0
  0
VERTEX
  5
6D5E
  8
0
 10
206.29693396338871
 20
103.57592189907029
 30
0.0
  0
VERTEX
  5
6D5F
  8
0
 10
206.1329200625415
 20
103.3282245125727
 30
0.0
  0
VERTEX
  5
6D60
  8
0
 10
205.96363663806829
 20
103.0778046446456
 30
0.0
  0
VERTEX
  5
6D61
  8
0
 10
205.8769912080036
 20
102.95153308841699
 30
0.0
  0
SEQEND
  5
6D62
  8
0
  0
LINE
  5
6159
  8
0
 10
205.8769912080036
 20
103.69296439157731
 30
0.0
 11
202.33699120800361
 21
103.69296439157731
 31
0.0
  0
POLYLINE
  5
615A
  8
0
 66
     1
 10
0.0
 20
0.0
 30
0.0
  0
VERTEX
  5
6D63
  8
0
 10
206.3769912080036
 20
104.4785597208559
 30
0.0
  0
VERTEX
  5
6D64
  8
0
 10
206.29693396338871
 20
104.3493880767318
 30
0.0
  0
VERTEX
  5
6D65
  8
0
 10
206.1329200625415
 20
104.0889823351912
 30
0.0
  0
VERTEX
  5
6D66
  8
0
 10
205.96363663806841
 20
103.8257144326665
 30
0.0
  0
VERTEX
  5
6D67
  8
0
 10
205.8769912080036
 20
103.69296439157731
 30
0.0
  0
SEQEND
  5
6D68
  8
0
  0
LINE
  5
615B
  8
0
 10
205.8769912080036
 20
104.5811780419762
 30
0.0
 11
202.33699120800361
 21
104.5811780419762
 31
0.0
  0
POLYLINE
  5
615C
  8
0
 66
     1
 10
0.0
 20
0.0
 30
0.0
  0
VERTEX
  5
6D69
  8
0
 10
206.3769912080036
 20
105.39650495039599
 30
0.0
  0
VERTEX
  5
6D6A
  8
0
 10
206.29693396338871
 20
105.26244468637201
 30
0.0
  0
VERTEX
  5
6D6B
  8
0
 10
206.13292006254139
 20
104.9921836495858
 30
0.0
  0
VERTEX
  5
6D6C
  8
0
 10
205.96363663806829
 20
104.7189521306958
 30
0.0
  0
VERTEX
  5
6D6D
  8
0
 10
205.8769912080036
 20
104.5811780419762
 30
0.0
  0
SEQEND
  5
6D6E
  8
0
  0
LINE
  5
615D
  8
0
 10
205.8769912080036
 20
105.6064425849892
 30
0.0
 11
202.33699120800361
 21
105.6064425849892
 31
0.0
  0
POLYLINE
  5
615E
  8
0
 66
     1
 10
0.0
 20
0.0
 30
0.0
  0
VERTEX
  5
6D6F
  8
0
 10
206.3769912080036
 20
106.44256818032351
 30
0.0
  0
VERTEX
  5
6D70
  8
0
 10
206.29693396338871
 20
106.3050880887061
 30
0.0
  0
VERTEX
  5
6D71
  8
0
 10
206.1329200625415
 20
106.0279327931493
 30
0.0
  0
VERTEX
  5
6D72
  8
0
 10
205.96363663806829
 20
105.7477312395923
 30
0.0
  0
VERTEX
  5
6D73
  8
0
 10
205.8769912080036
 20
105.6064425849891
 30
0.0
  0
SEQEND
  5
6D74
  8
0
  0
LINE
  5
615F
  8
0
 10
205.8769912080036
 20
106.7575250077326
 30
0.0
 11
202.33699120800361
 21
106.7575250077326
 31
0.0
  0
POLYLINE
  5
6160
  8
0
 66
     1
 10
0.0
 20
0.0
 30
0.0
  0
VERTEX
  5
6D75
  8
0
 10
206.3769912080036
 20
107.6052885229884
 30
0.0
  0
VERTEX
  5
6D76
  8
0
 10
206.29693396338871
 20
107.46589486443079
 30
0.0
  0
VERTEX
  5
6D77
  8
0
 10
206.1329200625415
 20
107.1848818815201
 30
0.0
  0
VERTEX
  5
6D78
  8
0
 10
205.96363663806841
 20
106.9007802401529
 30
0.0
  0
VERTEX
  5
6D79
  8
0
 10
205.8769912080036
 20
106.7575250077326
 30
0.0
  0
SEQEND
  5
6D7A
  8
0
  0
LINE
  5
6161
  8
0
 10
205.8769912080036
 20
108.0218138103034
 30
0.0
 11
202.33699120800361
 21
108.0218138103034
 31
0.0
  0
POLYLINE
  5
6162
  8
0
 66
     1
 10
0.0
 20
0.0
 30
0.0
  0
VERTEX
  5
6D7B
  8
0
 10
206.3769912080036
 20
108.8719269710017
 30
0.0
  0
VERTEX
  5
6D7C
  8
0
 10
206.29693396338871
 20
108.732146971597
 30
0.0
  0
VERTEX
  5
6D7D
  8
0
 10
206.13292006254139
 20
108.4503551383787
 30
0.0
  0
VERTEX
  5
6D7E
  8
0
 10
205.96363663806829
 20
108.16546608623619
 30
0.0
  0
VERTEX
  5
6D7F
  8
0
 10
205.8769912080036
 20
108.0218138103034
 30
0.0
  0
SEQEND
  5
6D80
  8
0
  0
LINE
  5
6163
  8
0
 10
205.8769912080036
 20
109.3854571800112
 30
0.0
 11
202.33699120800361
 21
109.3854571800112
 31
0.0
  0
POLYLINE
  5
6164
  8
0
 66
     1
 10
0.0
 20
0.0
 30
0.0
  0
VERTEX
  5
6D81
  8
0
 10
206.3769912080036
 20
110.2286059684656
 30
0.0
  0
VERTEX
  5
6D82
  8
0
 10
206.29693396338871
 20
110.08997108713839
 30
0.0
  0
VERTEX
  5
6D83
  8
0
 10
206.1329200625415
 20
109.8104877739061
 30
0.0
  0
VERTEX
  5
6D84
  8
0
 10
205.96363663806829
 20
109.52793261506039
 30
0.0
  0
VERTEX
  5
6D85
  8
0
 10
205.8769912080036
 20
109.3854571800112
 30
0.0
  0
SEQEND
  5
6D86
  8
0
  0
LINE
  5
6165
  8
0
 10
205.8769912080036
 20
110.8335147547367
 30
0.0
 11
202.33699120800361
 21
110.8335147547367
 31
0.0
  0
POLYLINE
  5
6166
  8
0
 66
     1
 10
0.0
 20
0.0
 30
0.0
  0
VERTEX
  5
6D87
  8
0
 10
206.3769912080036
 20
111.6604614563809
 30
0.0
  0
VERTEX
  5
6D88
  8
0
 10
206.29693396338871
 20
111.5244906059019
 30
0.0
  0
VERTEX
  5
6D89
  8
0
 10
206.1329200625415
 20
111.250377890321
 30
0.0
  0
VERTEX
  5
6D8A
  8
0
 10
205.96363663806829
 20
110.9732523582209
 30
0.0
  0
VERTEX
  5
6D8B
  8
0
 10
205.8769912080036
 20
110.8335147547367
 30
0.0
  0
SEQEND
  5
6D8C
  8
0
  0
LINE
  5
6167
  8
0
 10
205.8769912080036
 20
112.35012131266571
 30
0.0
 11
202.33699120800361
 21
112.35012131266571
 31
0.0
  0
POLYLINE
  5
6168
  8
0
 66
     1
 10
0.0
 20
0.0
 30
0.0
  0
VERTEX
  5
6D8D
  8
0
 10
206.3769912080036
 20
113.1518057263867
 30
0.0
  0
VERTEX
  5
6D8E
  8
0
 10
206.29693396338871
 20
113.0199886318476
 30
0.0
  0
VERTEX
  5
6D8F
  8
0
 10
206.1329200625415
 20
112.7542497501917
 30
0.0
  0
VERTEX
  5
6D90
  8
0
 10
205.96363663806841
 20
112.48559009015931
 30
0.0
  0
VERTEX
  5
6D91
  8
0
 10
205.8769912080036
 20
112.35012131266571
 30
0.0
  0
SEQEND
  5
6D92
  8
0
  0
LINE
  5
6169
  8
0
 10
205.8769912080036
 20
113.9186605949793
 30
0.0
 11
202.33699120800361
 21
113.9186605949793
 31
0.0
  0
POLYLINE
  5
616A
  8
0
 66
     1
 10
0.0
 20
0.0
 30
0.0
  0
VERTEX
  5
6D93
  8
0
 10
206.3769912080036
 20
114.686299298577
 30
0.0
  0
VERTEX
  5
6D94
  8
0
 10
206.29693396338871
 20
114.5600801756503
 30
0.0
  0
VERTEX
  5
6D95
  8
0
 10
206.1329200625415
 20
114.3056266187162
 30
0.0
  0
VERTEX
  5
6D96
  8
0
 10
205.96363663806829
 20
114.0483763222071
 30
0.0
  0
VERTEX
  5
6D97
  8
0
 10
205.8769912080036
 20
113.9186605949793
 30
0.0
  0
SEQEND
  5
6D98
  8
0
  0
LINE
  5
616B
  8
0
 10
205.8769912080036
 20
115.5219473570624
 30
0.0
 11
202.33699120800361
 21
115.5219473570624
 31
0.0
  0
POLYLINE
  5
616C
  8
0
 66
     1
 10
0.0
 20
0.0
 30
0.0
  0
VERTEX
  5
6D99
  8
0
 10
206.3769912080036
 20
116.2471299402615
 30
0.0
  0
VERTEX
  5
6D9A
  8
0
 10
206.29693396338871
 20
116.1278916720707
 30
0.0
  0
VERTEX
  5
6D9B
  8
0
 10
206.1329200625415
 20
115.88751128627619
 30
0.0
  0
VERTEX
  5
6D9C
  8
0
 10
205.96363663806841
 20
115.64448884137251
 30
0.0
  0
VERTEX
  5
6D9D
  8
0
 10
205.8769912080036
 20
115.5219473570624
 30
0.0
  0
SEQEND
  5
6D9E
  8
0
  0
LINE
  5
616D
  8
0
 10
202.33699120800361
 20
117.1424156536404
 30
0.0
 11
202.33699120800361
 21
118.6583486582231
 31
0.0
  0
LINE
  5
616E
  8
0
 10
206.3769912080036
 20
132.0901480076428
 30
0.0
 11
206.3769912080036
 21
102.0901480076428
 31
0.0
  0
LINE
  5
616F
  8
0
 10
205.8769912080036
 20
101.6696828162318
 30
0.0
 11
205.8769912080036
 21
101.6806097296613
 31
0.0
  0
LINE
  5
6170
  8
0
 10
205.8769912080036
 20
101.91807934212071
 30
0.0
 11
205.8769912080036
 21
101.9398134514296
 31
0.0
  0
LINE
  5
6171
  8
0
 10
205.8769912080036
 20
132.49968628562431
 30
0.0
 11
205.8769912080036
 21
132.51061319905381
 31
0.0
  0
LINE
  5
6172
  8
0
 10
205.8769912080036
 20
102.33270422726859
 30
0.0
 11
205.8769912080036
 21
102.36500740900711
 31
0.0
  0
LINE
  5
6173
  8
0
 10
205.8769912080036
 20
132.24048256385601
 30
0.0
 11
205.8769912080036
 21
132.26221667316489
 31
0.0
  0
LINE
  5
6174
  8
0
 10
205.8769912080036
 20
102.90901475466789
 30
0.0
 11
205.8769912080036
 21
102.95153308841699
 31
0.0
  0
LINE
  5
6175
  8
0
 10
205.8769912080036
 20
131.8152886062785
 30
0.0
 11
205.8769912080036
 21
131.84759178801701
 31
0.0
  0
LINE
  5
6176
  8
0
 10
205.8769912080036
 20
103.6406967455797
 30
0.0
 11
205.8769912080036
 21
103.69296439157731
 31
0.0
  0
LINE
  5
6177
  8
0
 10
205.8769912080036
 20
131.2287629268686
 30
0.0
 11
205.8769912080036
 21
131.27128126061771
 31
0.0
  0
LINE
  5
6178
  8
0
 10
205.8769912080036
 20
104.5197337389973
 30
0.0
 11
205.8769912080036
 21
104.5811780419762
 31
0.0
  0
LINE
  5
6179
  8
0
 10
205.8769912080036
 20
130.4873316237082
 30
0.0
 11
205.8769912080036
 21
130.53959926970589
 31
0.0
  0
LINE
  5
617A
  8
0
 10
205.8769912080036
 20
105.5364948216705
 30
0.0
 11
205.8769912080036
 21
105.6064425849892
 31
0.0
  0
LINE
  5
617B
  8
0
 10
205.8769912080036
 20
129.59911797330929
 30
0.0
 11
205.8769912080036
 21
129.6605622762882
 31
0.0
  0
LINE
  5
617C
  8
0
 10
205.8769912080036
 20
106.6798401464066
 30
0.0
 11
205.8769912080036
 21
106.7575250077326
 31
0.0
  0
LINE
  5
617D
  8
0
 10
205.8769912080036
 20
128.57385343029631
 30
0.0
 11
205.8769912080036
 21
128.6438011936151
 31
0.0
  0
LINE
  5
617E
  8
0
 10
205.8769912080036
 20
107.9372429825673
 30
0.0
 11
205.8769912080036
 21
108.0218138103034
 31
0.0
  0
LINE
  5
617F
  8
0
 10
205.8769912080036
 20
127.4227710075529
 30
0.0
 11
205.8769912080036
 21
127.500455868879
 31
0.0
  0
LINE
  5
6180
  8
0
 10
205.8769912080036
 20
109.2949269615513
 30
0.0
 11
205.8769912080036
 21
109.3854571800112
 31
0.0
  0
LINE
  5
6181
  8
0
 10
205.8769912080036
 20
126.15848220498211
 30
0.0
 11
205.8769912080036
 21
126.24305303271829
 31
0.0
  0
LINE
  5
6182
  8
0
 10
205.8769912080036
 20
110.7380170135711
 30
0.0
 11
205.8769912080036
 21
110.8335147547367
 31
0.0
  0
LINE
  5
6183
  8
0
 10
205.8769912080036
 20
124.7948388352744
 30
0.0
 11
205.8769912080036
 21
124.88536905373429
 31
0.0
  0
LINE
  5
6184
  8
0
 10
205.8769912080036
 20
112.25070234203091
 30
0.0
 11
205.8769912080036
 21
112.35012131266571
 31
0.0
  0
LINE
  5
6185
  8
0
 10
205.8769912080036
 20
123.34678126054879
 30
0.0
 11
205.8769912080036
 21
123.4422790017145
 31
0.0
  0
LINE
  5
6186
  8
0
 10
205.8769912080036
 20
113.81640964992221
 30
0.0
 11
205.8769912080036
 21
113.9186605949793
 31
0.0
  0
LINE
  5
6187
  8
0
 10
205.8769912080036
 20
121.8301747026198
 30
0.0
 11
205.8769912080036
 21
121.9295936732547
 31
0.0
  0
LINE
  5
6188
  8
0
 10
205.8769912080036
 20
115.4179847203345
 30
0.0
 11
205.8769912080036
 21
115.5219473570624
 31
0.0
  0
LINE
  5
6189
  8
0
 10
205.8769912080036
 20
120.26163542030621
 30
0.0
 11
205.8769912080036
 21
120.3638863653634
 31
0.0
  0
LINE
  5
618A
  8
0
 10
205.8769912080036
 20
117.03788036164509
 30
0.0
 11
205.8769912080036
 21
117.1424156536404
 31
0.0
  0
LINE
  5
618B
  8
0
 10
205.8769912080036
 20
118.6583486582231
 30
0.0
 11
205.8769912080036
 21
118.7623112949511
 31
0.0
  0
LINE
  5
618D
  8
0
 10
199.90605879822721
 20
132.5901480076428
 30
0.0
 11
199.90605879822721
 21
101.5901480076428
 31
0.0
  0
LINE
  5
618E
  8
0
 10
197.26692273993899
 20
130.460201396233
 30
0.0
 11
197.26692273993899
 21
103.7200946190525
 31
0.0
  0
LINE
  5
618F
  8
0
 10
196.60702544203579
 20
127.40512131334771
 30
0.0
 11
196.60702544203579
 21
106.7751747019379
 31
0.0
  0
LINE
  5
6190
  8
0
 10
195.28745741289171
 20
126.3401480076428
 30
0.0
 11
195.28745741289171
 21
107.8401480076428
 31
0.0
  0
LINE
  5
6191
  8
0
 10
179.57699120800351
 20
126.3401480076428
 30
0.0
 11
179.57699120800351
 21
107.8401480076428
 31
0.0
  0
LINE
  5
6194
  8
0
 10
136.37699120800349
 20
122.0901480076428
 30
0.0
 11
129.8769912080036
 21
122.0901480076428
 31
0.0
  0
LINE
  5
6197
  8
0
 10
129.8769912080036
 20
112.0901480076428
 30
0.0
 11
136.37699120800349
 21
112.0901480076428
 31
0.0
  0
ARC
  5
6198
  8
0
 10
133.6269912080036
 20
117.0901480076428
 30
0.0
 40
7.2499999999999929
 50
139.35219968656679
 51
220.64780031343321
  0
LINE
  5
6199
  8
0
 10
129.8769912080036
 20
122.0901480076428
 30
0.0
 11
128.1262123386968
 21
121.8128518762956
 31
0.0
  0
LINE
  5
619A
  8
0
 10
128.1262123386968
 20
112.36744413899
 30
0.0
 11
129.8769912080036
 21
112.0901480076428
 31
0.0
  0
LINE
  5
619B
  8
0
 10
205.8769912080036
 20
101.5901480076428
 30
0.0
 11
206.3769912080036
 21
102.0901480076428
 31
0.0
  0
LINE
  5
619C
  8
0
 10
206.3769912080036
 20
132.0901480076428
 30
0.0
 11
205.8769912080036
 21
132.5901480076428
 31
0.0
  0
LINE
  5
619E
  8
0
 10
199.90605879822721
 20
101.5901480076428
 30
0.0
 11
205.8769912080036
 21
101.5901480076428
 31
0.0
  0
LINE
  5
619F
  8
0
 10
205.8769912080036
 20
132.5901480076428
 30
0.0
 11
199.90605879822721
 21
132.5901480076428
 31
0.0
  0
ARC
  5
61A0
  8
0
 10
199.90605879822721
 20
129.89014800764281
 30
0.0
 40
2.6999999999999971
 50
89.999999999999986
 51
167.81136679806841
  0
ARC
  5
61A1
  8
0
 10
199.90605879822721
 20
104.2901480076428
 30
0.0
 40
2.7000000000000011
 50
192.18863320193159
 51
270.0
  0
LINE
  5
61A2
  8
0
 10
196.60702544203579
 20
106.7751747019379
 30
0.0
 11
197.26692273993899
 21
103.7200946190525
 31
0.0
  0
LINE
  5
61A3
  8
0
 10
197.26692273993899
 20
130.460201396233
 30
0.0
 11
196.60702544203579
 21
127.40512131334771
 31
0.0
  0
ARC
  5
61A4
  8
0
 10
195.28745741289171
 20
127.6901480076428
 30
0.0
 40
1.349999999999999
 50
270.0
 51
347.81136679806838
  0
ARC
  5
61A5
  8
0
 10
195.28745741289171
 20
106.4901480076428
 30
0.0
 40
1.3500000000000101
 50
12.188633201932371
 51
89.999999146226344
  0
LINE
  5
61A6
  8
0
 10
179.57699120800351
 20
107.8401480076428
 30
0.0
 11
195.28745741289171
 21
107.8401480076428
 31
0.0
  0
LINE
  5
61A7
  8
0
 10
195.28745741289171
 20
126.3401480076428
 30
0.0
 11
179.57699120800351
 21
126.3401480076428
 31
0.0
  0
LINE
  5
61A8
  8
0
 10
179.37699120800349
 20
110.98514800764281
 30
0.0
 11
179.57699120800351
 21
110.98514800764281
 31
0.0
  0
LINE
  5
61A9
  8
0
 10
179.57699120800351
 20
123.1951480076428
 30
0.0
 11
179.37699120800349
 21
123.1951480076428
 31
0.0
  0
LINE
  5
61AC
  8
3
 10
136.37699120800349
 20
108.0101480076428
 30
0.0
 11
169.3769912080036
 21
108.0101480076428
 31
0.0
  0
LINE
  5
61AF
  8
3
 10
136.37699120800349
 20
126.17014800764279
 30
0.0
 11
169.3769912080036
 21
126.17014800764279
 31
0.0
  0
LINE
  5
61B6
  8
0
 10
178.92102048040229
 20
117.0901480076428
 30
0.0
 11
169.3769912080036
 21
117.0901480076428
 31
0.0
  0
POLYLINE
  5
61B7
  8
0
 66
     1
 10
0.0
 20
0.0
 30
0.0
  0
VERTEX
  5
6D9F
  8
0
 10
179.37699120800349
 20
122.5901480076428
 30
0.0
  0
VERTEX
  5
6DA0
  8
0
 10
179.36445676166059
 20
121.71066073408591
 30
0.0
  0
VERTEX
  5
6DA1
  8
0
 10
179.26511756728729
 20
119.9406594033356
 30
0.0
  0
VERTEX
  5
6DA2
  8
0
 10
179.06364467463681
 20
118.08224583904391
 30
0.0
  0
VERTEX
  5
6DA3
  8
0
 10
178.92102048040229
 20
117.0901480076428
 30
0.0
  0
SEQEND
  5
6DA4
  8
0
  0
POLYLINE
  5
61B8
  8
0
 66
     1
 10
0.0
 20
0.0
 30
0.0
  0
VERTEX
  5
6DA5
  8
0
 10
178.92102048040229
 20
128.0901480076428
 30
0.0
  0
VERTEX
  5
6DA6
  8
0
 10
179.06364467463681
 20
127.0980501762417
 30
0.0
  0
VERTEX
  5
6DA7
  8
0
 10
179.26511756728729
 20
125.2396366119499
 30
0.0
  0
VERTEX
  5
6DA8
  8
0
 10
179.36445676166059
 20
123.4696352811997
 30
0.0
  0
VERTEX
  5
6DA9
  8
0
 10
179.37699120800349
 20
122.5901480076428
 30
0.0
  0
SEQEND
  5
6DAA
  8
0
  0
POLYLINE
  5
61BC
  8
0
 66
     1
 10
0.0
 20
0.0
 30
0.0
  0
VERTEX
  5
6DAB
  8
0
 10
179.37699120800349
 20
111.5901480076428
 30
0.0
  0
VERTEX
  5
6DAC
  8
0
 10
179.36445676166059
 20
110.71066073408591
 30
0.0
  0
VERTEX
  5
6DAD
  8
0
 10
179.26511756728729
 20
108.9406594033356
 30
0.0
  0
VERTEX
  5
6DAE
  8
0
 10
179.06364467463681
 20
107.08224583904391
 30
0.0
  0
VERTEX
  5
6DAF
  8
0
 10
178.92102048040229
 20
106.0901480076428
 30
0.0
  0
SEQEND
  5
6DB0
  8
0
  0
POLYLINE
  5
61BD
  8
0
 66
     1
 10
0.0
 20
0.0
 30
0.0
  0
VERTEX
  5
6DB1
  8
0
 10
178.92102048040229
 20
117.0901480076428
 30
0.0
  0
VERTEX
  5
6DB2
  8
0
 10
179.06364467463681
 20
116.0980501762417
 30
0.0
  0
VERTEX
  5
6DB3
  8
0
 10
179.26511756728729
 20
114.23963661195
 30
0.0
  0
VERTEX
  5
6DB4
  8
0
 10
179.36445676166059
 20
112.4696352811997
 30
0.0
  0
VERTEX
  5
6DB5
  8
0
 10
179.37699120800349
 20
111.5901480076428
 30
0.0
  0
SEQEND
  5
6DB6
  8
0
  0
LINE
  5
61CB
  8
0
 10
169.3769912080036
 20
128.0901480076428
 30
0.0
 11
169.3769912080036
 21
106.0901480076428
 31
0.0
  0
LINE
  5
61CC
  8
0
 10
179.37699120800349
 20
128.0901480076428
 30
0.0
 11
179.37699120800349
 21
106.0901480076428
 31
0.0
  0
LINE
  5
61CD
  8
0
 10
137.29699120800359
 20
127.0901480076428
 30
0.0
 11
137.29699120800359
 21
107.0901480076428
 31
0.0
  0
LINE
  5
61CE
  8
0
 10
136.37699120800349
 20
126.17014800764279
 30
0.0
 11
136.37699120800349
 21
108.0101480076428
 31
0.0
  0
LINE
  5
61D3
  8
0
 10
137.29699120800359
 20
127.0901480076428
 30
0.0
 11
136.37699120800349
 21
126.17014800764279
 31
0.0
  0
LINE
  5
61D4
  8
0
 10
136.37699120800349
 20
108.0101480076428
 30
0.0
 11
137.29699120800359
 21
107.0901480076428
 31
0.0
  0
LINE
  5
61D5
  8
0
 10
169.3769912080036
 20
127.0901480076428
 30
0.0
 11
137.29699120800359
 21
127.0901480076428
 31
0.0
  0
LINE
  5
61D6
  8
0
 10
137.29699120800359
 20
107.0901480076428
 30
0.0
 11
169.3769912080036
 21
107.0901480076428
 31
0.0
  0
LINE
  5
64CC
  8
0
 10
169.3769912080036
 20
128.0901480076428
 30
0.0
 11
179.37699120800349
 21
128.0901480076428
 31
0.0
  0
LINE
  5
64CD
  8
0
 10
179.37699120800349
 20
106.0901480076428
 30
0.0
 11
169.3769912080036
 21
106.0901480076428
 31
0.0
  0
LINE
  5
664F
  8
1
 10
207.89804230403331
 20
54.753170210859693
 30
0.0
 11
124.85594011197389
 21
54.7531702108597
 31
0.0
  0
LINE
  5
6650
  8
0
 10
129.8769912080036
 20
59.7531702108597
 30
0.0
 11
129.8769912080036
 21
49.7531702108597
 31
0.0
  0
LINE
  5
6651
  8
0
 10
128.1262123386968
 20
59.475874079512529
 30
0.0
 11
128.1262123386968
 21
50.030466342206871
 31
0.0
  0
LINE
  5
6652
  8
0
 10
202.33699120800361
 20
39.33270501944866
 30
0.0
 11
205.8769912080036
 21
39.33270501944866
 31
0.0
  0
POLYLINE
  5
6653
  8
0
 66
     1
 10
0.0
 20
0.0
 30
0.0
  0
VERTEX
  5
6DB7
  8
0
 10
205.8769912080036
 20
39.33270501944866
 30
0.0
  0
VERTEX
  5
6DB8
  8
0
 10
205.96363663806841
 20
39.407761494454633
 30
0.0
  0
VERTEX
  5
6DB9
  8
0
 10
206.1329200625415
 20
39.556612376786532
 30
0.0
  0
VERTEX
  5
6DBA
  8
0
 10
206.29693396338871
 20
39.703845001883963
 30
0.0
  0
VERTEX
  5
6DBB
  8
0
 10
206.3769912080036
 20
39.776878261980329
 30
0.0
  0
SEQEND
  5
6DBC
  8
0
  0
LINE
  5
6654
  8
0
 10
202.33699120800361
 20
39.58110154533761
 30
0.0
 11
205.8769912080036
 21
39.58110154533761
 31
0.0
  0
POLYLINE
  5
6655
  8
0
 66
     1
 10
0.0
 20
0.0
 30
0.0
  0
VERTEX
  5
6DBD
  8
0
 10
205.8769912080036
 20
39.58110154533761
 30
0.0
  0
VERTEX
  5
6DBE
  8
0
 10
205.96363663806829
 20
39.642937780078668
 30
0.0
  0
VERTEX
  5
6DBF
  8
0
 10
206.1329200625415
 20
39.765570478997319
 30
0.0
  0
VERTEX
  5
6DC0
  8
0
 10
206.29693396338871
 20
39.886869956042531
 30
0.0
  0
VERTEX
  5
6DC1
  8
0
 10
206.3769912080036
 20
39.947039339361808
 30
0.0
  0
SEQEND
  5
6DC2
  8
0
  0
LINE
  5
6656
  8
0
 10
202.33699120800361
 20
39.995726430485483
 30
0.0
 11
205.8769912080036
 21
39.995726430485483
 31
0.0
  0
POLYLINE
  5
6657
  8
0
 66
     1
 10
0.0
 20
0.0
 30
0.0
  0
VERTEX
  5
6DC3
  8
0
 10
205.8769912080036
 20
39.99572643048549
 30
0.0
  0
VERTEX
  5
6DC4
  8
0
 10
205.96363663806829
 20
40.043664934233838
 30
0.0
  0
VERTEX
  5
6DC5
  8
0
 10
206.1329200625415
 20
40.138735860227307
 30
0.0
  0
VERTEX
  5
6DC6
  8
0
 10
206.29693396338871
 20
40.23277320676619
 30
0.0
  0
VERTEX
  5
6DC7
  8
0
 10
206.3769912080036
 20
40.279419484953479
 30
0.0
  0
SEQEND
  5
6DC8
  8
0
  0
LINE
  5
6658
  8
0
 10
202.33699120800361
 20
40.572036957884798
 30
0.0
 11
205.8769912080036
 21
40.572036957884798
 31
0.0
  0
POLYLINE
  5
6659
  8
0
 66
     1
 10
0.0
 20
0.0
 30
0.0
  0
VERTEX
  5
6DC9
  8
0
 10
205.8769912080036
 20
40.572036957884798
 30
0.0
  0
VERTEX
  5
6DCA
  8
0
 10
205.96363663806829
 20
40.605552506361597
 30
0.0
  0
VERTEX
  5
6DCB
  8
0
 10
206.1329200625415
 20
40.672020042469789
 30
0.0
  0
VERTEX
  5
6DCC
  8
0
 10
206.29693396338871
 20
40.737764965655089
 30
0.0
  0
VERTEX
  5
6DCD
  8
0
 10
206.3769912080036
 20
40.770377072325239
 30
0.0
  0
SEQEND
  5
6DCE
  8
0
  0
LINE
  5
665A
  8
0
 10
202.33699120800361
 20
41.303718948796607
 30
0.0
 11
205.8769912080036
 21
41.303718948796607
 31
0.0
  0
POLYLINE
  5
665B
  8
0
 66
     1
 10
0.0
 20
0.0
 30
0.0
  0
VERTEX
  5
6DCF
  8
0
 10
205.8769912080036
 20
41.303718948796629
 30
0.0
  0
VERTEX
  5
6DD0
  8
0
 10
205.96363663806841
 20
41.322444338639187
 30
0.0
  0
VERTEX
  5
6DD1
  8
0
 10
206.1329200625415
 20
41.359580252627318
 30
0.0
  0
VERTEX
  5
6DD2
  8
0
 10
206.29693396338871
 20
41.396312437322571
 30
0.0
  0
VERTEX
  5
6DD3
  8
0
 10
206.3769912080036
 20
41.414533067410368
 30
0.0
  0
SEQEND
  5
6DD4
  8
0
  0
LINE
  5
665C
  8
0
 10
202.33699120800361
 20
42.182755942214229
 30
0.0
 11
205.8769912080036
 21
42.182755942214229
 31
0.0
  0
POLYLINE
  5
665D
  8
0
 66
     1
 10
0.0
 20
0.0
 30
0.0
  0
VERTEX
  5
6DD5
  8
0
 10
205.8769912080036
 20
42.182755942214229
 30
0.0
  0
VERTEX
  5
6DD6
  8
0
 10
205.96363663806821
 20
42.186486014132853
 30
0.0
  0
VERTEX
  5
6DD7
  8
0
 10
206.13292006254139
 20
42.193883437156103
 30
0.0
  0
VERTEX
  5
6DD8
  8
0
 10
206.29693396338871
 20
42.201200437859129
 30
0.0
  0
VERTEX
  5
6DD9
  8
0
 10
206.3769912080036
 20
42.204829962328411
 30
0.0
  0
SEQEND
  5
6DDA
  8
0
  0
LINE
  5
665E
  8
0
 10
202.33699120800361
 20
43.199517024887392
 30
0.0
 11
205.8769912080036
 21
43.199517024887392
 31
0.0
  0
LINE
  5
665F
  8
0
 10
206.3769912080036
 20
43.1270666274634
 30
0.0
 11
202.33699120800361
 21
43.1270666274634
 31
0.0
  0
POLYLINE
  5
6660
  8
0
 66
     1
 10
0.0
 20
0.0
 30
0.0
  0
VERTEX
  5
6DDB
  8
0
 10
205.8769912080036
 20
43.199517024887392
 30
0.0
  0
VERTEX
  5
6DDC
  8
0
 10
205.96363663806829
 20
43.188210911433643
 30
0.0
  0
VERTEX
  5
6DDD
  8
0
 10
206.13292006254139
 20
43.165788795777317
 30
0.0
  0
VERTEX
  5
6DDE
  8
0
 10
206.29693396338871
 20
43.14361044589721
 30
0.0
  0
VERTEX
  5
6DDF
  8
0
 10
206.3769912080036
 20
43.132609098918373
 30
0.0
  0
SEQEND
  5
6DE0
  8
0
  0
LINE
  5
6661
  8
0
 10
202.33699120800361
 20
44.342862349623452
 30
0.0
 11
205.8769912080036
 21
44.342862349623452
 31
0.0
  0
LINE
  5
6662
  8
0
 10
206.3769912080036
 20
44.174852764308952
 30
0.0
 11
202.33699120800361
 21
44.174852764308952
 31
0.0
  0
POLYLINE
  5
6663
  8
0
 66
     1
 10
0.0
 20
0.0
 30
0.0
  0
VERTEX
  5
6DE1
  8
0
 10
205.8769912080036
 20
44.342862349623452
 30
0.0
  0
VERTEX
  5
6DE2
  8
0
 10
205.96363663806829
 20
44.316643922942227
 30
0.0
  0
VERTEX
  5
6DE3
  8
0
 10
206.13292006254139
 20
44.264647929997622
 30
0.0
  0
VERTEX
  5
6DE4
  8
0
 10
206.29693396338871
 20
44.213217220176787
 30
0.0
  0
VERTEX
  5
6DE5
  8
0
 10
206.3769912080036
 20
44.187705534809488
 30
0.0
  0
SEQEND
  5
6DE6
  8
0
  0
LINE
  5
6664
  8
0
 10
202.33699120800361
 20
45.600265185784188
 30
0.0
 11
205.8769912080036
 21
45.600265185784188
 31
0.0
  0
LINE
  5
6665
  8
0
 10
206.3769912080036
 20
45.338537160754122
 30
0.0
 11
202.33699120800361
 21
45.338537160754122
 31
0.0
  0
POLYLINE
  5
6666
  8
0
 66
     1
 10
0.0
 20
0.0
 30
0.0
  0
VERTEX
  5
6DE7
  8
0
 10
205.8769912080036
 20
45.600265185784188
 30
0.0
  0
VERTEX
  5
6DE8
  8
0
 10
205.96363663806829
 20
45.559421700444773
 30
0.0
  0
VERTEX
  5
6DE9
  8
0
 10
206.1329200625415
 20
45.478421509191399
 30
0.0
  0
VERTEX
  5
6DEA
  8
0
 10
206.29693396338871
 20
45.398301925049218
 30
0.0
  0
VERTEX
  5
6DEB
  8
0
 10
206.3769912080036
 20
45.358559412657058
 30
0.0
  0
SEQEND
  5
6DEC
  8
0
  0
LINE
  5
6667
  8
0
 10
202.33699120800361
 20
46.957949164768181
 30
0.0
 11
205.8769912080036
 21
46.957949164768181
 31
0.0
  0
LINE
  5
6668
  8
0
 10
206.3769912080036
 20
46.605370247034891
 30
0.0
 11
202.33699120800361
 21
46.605370247034891
 31
0.0
  0
POLYLINE
  5
6669
  8
0
 66
     1
 10
0.0
 20
0.0
 30
0.0
  0
VERTEX
  5
6DED
  8
0
 10
205.8769912080036
 20
46.957949164768181
 30
0.0
  0
VERTEX
  5
6DEE
  8
0
 10
205.96363663806841
 20
46.90292811054298
 30
0.0
  0
VERTEX
  5
6DEF
  8
0
 10
206.1329200625415
 20
46.793811176026651
 30
0.0
  0
VERTEX
  5
6DF0
  8
0
 10
206.29693396338871
 20
46.685880524493079
 30
0.0
  0
VERTEX
  5
6DF1
  8
0
 10
206.3769912080036
 20
46.632342612358421
 30
0.0
  0
SEQEND
  5
6DF2
  8
0
  0
LINE
  5
666A
  8
0
 10
202.33699120800361
 20
48.401039216788
 30
0.0
 11
205.8769912080036
 21
48.401039216788
 31
0.0
  0
LINE
  5
666B
  8
0
 10
206.3769912080036
 20
47.961472334756081
 30
0.0
 11
202.33699120800361
 21
47.961472334756081
 31
0.0
  0
POLYLINE
  5
666C
  8
0
 66
     1
 10
0.0
 20
0.0
 30
0.0
  0
VERTEX
  5
6DF3
  8
0
 10
205.8769912080036
 20
48.401039216788
 30
0.0
  0
VERTEX
  5
6DF4
  8
0
 10
205.96363663806829
 20
48.332443415861093
 30
0.0
  0
VERTEX
  5
6DF5
  8
0
 10
206.1329200625415
 20
48.19640524605046
 30
0.0
  0
VERTEX
  5
6DF6
  8
0
 10
206.2969339633888
 20
48.061846037929598
 30
0.0
  0
VERTEX
  5
6DF7
  8
0
 10
206.3769912080036
 20
47.995099298621412
 30
0.0
  0
SEQEND
  5
6DF8
  8
0
  0
LINE
  5
666D
  8
0
 10
202.33699120800361
 20
49.91372454524776
 30
0.0
 11
205.8769912080036
 21
49.91372454524776
 31
0.0
  0
LINE
  5
666E
  8
0
 10
206.3769912080036
 20
49.391985685662007
 30
0.0
 11
202.33699120800361
 21
49.391985685662007
 31
0.0
  0
POLYLINE
  5
666F
  8
0
 66
     1
 10
0.0
 20
0.0
 30
0.0
  0
VERTEX
  5
6DF9
  8
0
 10
205.8769912080036
 20
49.91372454524776
 30
0.0
  0
VERTEX
  5
6DFA
  8
0
 10
205.96363663806829
 20
49.832305547568581
 30
0.0
  0
VERTEX
  5
6DFB
  8
0
 10
206.1329200625415
 20
49.67083660512003
 30
0.0
  0
VERTEX
  5
6DFC
  8
0
 10
206.29693396338871
 20
49.511123099254448
 30
0.0
  0
VERTEX
  5
6DFD
  8
0
 10
206.3769912080036
 20
49.43189882401613
 30
0.0
  0
SEQEND
  5
6DFE
  8
0
  0
LINE
  5
6670
  8
0
 10
202.33699120800361
 20
51.479431853139062
 30
0.0
 11
205.8769912080036
 21
51.479431853139062
 31
0.0
  0
LINE
  5
6671
  8
0
 10
206.3769912080036
 20
50.881237296125988
 30
0.0
 11
202.33699120800361
 21
50.881237296125988
 31
0.0
  0
POLYLINE
  5
6672
  8
0
 66
     1
 10
0.0
 20
0.0
 30
0.0
  0
VERTEX
  5
6DFF
  8
0
 10
205.8769912080036
 20
51.479431853139062
 30
0.0
  0
VERTEX
  5
6E00
  8
0
 10
205.96363663806841
 20
51.386081702284237
 30
0.0
  0
VERTEX
  5
6E01
  8
0
 10
206.1329200625415
 20
51.200951074720741
 30
0.0
  0
VERTEX
  5
6E02
  8
0
 10
206.29693396338871
 20
51.017833125702893
 30
0.0
  0
VERTEX
  5
6E03
  8
0
 10
206.3769912080036
 20
50.926999312272713
 30
0.0
  0
SEQEND
  5
6E04
  8
0
  0
LINE
  5
6673
  8
0
 10
202.33699120800361
 20
53.081006923551357
 30
0.0
 11
205.8769912080036
 21
53.081006923551357
 31
0.0
  0
LINE
  5
6674
  8
0
 10
206.3769912080036
 20
52.412910613857839
 30
0.0
 11
202.33699120800361
 21
52.412910613857839
 31
0.0
  0
POLYLINE
  5
6675
  8
0
 66
     1
 10
0.0
 20
0.0
 30
0.0
  0
VERTEX
  5
6E05
  8
0
 10
205.8769912080036
 20
53.081006923551357
 30
0.0
  0
VERTEX
  5
6E06
  8
0
 10
205.96363663806821
 20
52.976748383308589
 30
0.0
  0
VERTEX
  5
6E07
  8
0
 10
206.1329200625415
 20
52.769984400526653
 30
0.0
  0
VERTEX
  5
6E08
  8
0
 10
206.2969339633888
 20
52.5654682869257
 30
0.0
  0
VERTEX
  5
6E09
  8
0
 10
206.3769912080036
 20
52.464020129571971
 30
0.0
  0
SEQEND
  5
6E0A
  8
0
  0
LINE
  5
6676
  8
0
 10
202.33699120800361
 20
54.700902564862048
 30
0.0
 11
205.8769912080036
 21
54.700902564862062
 31
0.0
  0
LINE
  5
6677
  8
0
 10
206.3769912080036
 20
53.970224305465251
 30
0.0
 11
202.33699120800361
 21
53.970224305465251
 31
0.0
  0
POLYLINE
  5
6678
  8
0
 66
     1
 10
0.0
 20
0.0
 30
0.0
  0
VERTEX
  5
6E0B
  8
0
 10
205.8769912080036
 20
54.700902564862062
 30
0.0
  0
VERTEX
  5
6E0C
  8
0
 10
205.96363663806829
 20
54.586877913615481
 30
0.0
  0
VERTEX
  5
6E0D
  8
0
 10
206.1329200625415
 20
54.360745925078803
 30
0.0
  0
VERTEX
  5
6E0E
  8
0
 10
206.2969339633888
 20
54.137072368233383
 30
0.0
  0
VERTEX
  5
6E0F
  8
0
 10
206.3769912080036
 20
54.026121354197286
 30
0.0
  0
SEQEND
  5
6E10
  8
0
  0
LINE
  5
6679
  8
0
 10
202.33699120800361
 20
56.321370861440023
 30
0.0
 11
205.8769912080036
 21
56.321370861440023
 31
0.0
  0
LINE
  5
667A
  8
0
 10
206.3769912080036
 20
55.536116116254128
 30
0.0
 11
202.33699120800361
 21
55.536116116254128
 31
0.0
  0
POLYLINE
  5
667B
  8
0
 66
     1
 10
0.0
 20
0.0
 30
0.0
  0
VERTEX
  5
6E11
  8
0
 10
205.8769912080036
 20
56.321370861440023
 30
0.0
  0
VERTEX
  5
6E12
  8
0
 10
205.96363663806841
 20
56.198829377129933
 30
0.0
  0
VERTEX
  5
6E13
  8
0
 10
206.1329200625415
 20
55.955806932226153
 30
0.0
  0
VERTEX
  5
6E14
  8
0
 10
206.29693396338871
 20
55.715426546431708
 30
0.0
  0
VERTEX
  5
6E15
  8
0
 10
206.3769912080036
 20
55.59618827824093
 30
0.0
  0
SEQEND
  5
6E16
  8
0
  0
LINE
  5
667C
  8
0
 10
202.33699120800361
 20
57.924657623523132
 30
0.0
 11
205.8769912080036
 21
57.924657623523132
 31
0.0
  0
LINE
  5
667D
  8
0
 10
206.3769912080036
 20
57.093429807861533
 30
0.0
 11
202.33699120800361
 21
57.093429807861533
 31
0.0
  0
POLYLINE
  5
667E
  8
0
 66
     1
 10
0.0
 20
0.0
 30
0.0
  0
VERTEX
  5
6E17
  8
0
 10
205.8769912080036
 20
57.924657623523132
 30
0.0
  0
VERTEX
  5
6E18
  8
0
 10
205.96363663806829
 20
57.794941896295228
 30
0.0
  0
VERTEX
  5
6E19
  8
0
 10
206.1329200625415
 20
57.537691599786207
 30
0.0
  0
VERTEX
  5
6E1A
  8
0
 10
206.29693396338871
 20
57.283238042852211
 30
0.0
  0
VERTEX
  5
6E1B
  8
0
 10
206.3769912080036
 20
57.157018919925463
 30
0.0
  0
SEQEND
  5
6E1C
  8
0
  0
LINE
  5
667F
  8
0
 10
202.33699120800361
 20
59.493196905836697
 30
0.0
 11
205.8769912080036
 21
59.493196905836697
 31
0.0
  0
LINE
  5
6680
  8
0
 10
206.3769912080036
 20
58.625103125593398
 30
0.0
 11
202.33699120800361
 21
58.625103125593398
 31
0.0
  0
POLYLINE
  5
6681
  8
0
 66
     1
 10
0.0
 20
0.0
 30
0.0
  0
VERTEX
  5
6E1D
  8
0
 10
205.8769912080036
 20
59.493196905836712
 30
0.0
  0
VERTEX
  5
6E1E
  8
0
 10
205.96363663806841
 20
59.35772812834319
 30
0.0
  0
VERTEX
  5
6E1F
  8
0
 10
206.1329200625415
 20
59.0890684683107
 30
0.0
  0
VERTEX
  5
6E20
  8
0
 10
206.29693396338871
 20
58.823329586654793
 30
0.0
  0
VERTEX
  5
6E21
  8
0
 10
206.3769912080036
 20
58.691512492115791
 30
0.0
  0
SEQEND
  5
6E22
  8
0
  0
LINE
  5
6682
  8
0
 10
202.33699120800361
 20
61.009803463765749
 30
0.0
 11
205.8769912080036
 21
61.009803463765749
 31
0.0
  0
LINE
  5
6683
  8
0
 10
206.3769912080036
 20
60.114354736057379
 30
0.0
 11
202.33699120800361
 21
60.114354736057379
 31
0.0
  0
POLYLINE
  5
6684
  8
0
 66
     1
 10
0.0
 20
0.0
 30
0.0
  0
VERTEX
  5
6E23
  8
0
 10
205.8769912080036
 20
61.009803463765749
 30
0.0
  0
VERTEX
  5
6E24
  8
0
 10
205.96363663806829
 20
60.870065860281542
 30
0.0
  0
VERTEX
  5
6E25
  8
0
 10
206.1329200625415
 20
60.592940328181477
 30
0.0
  0
VERTEX
  5
6E26
  8
0
 10
206.29693396338871
 20
60.318827612600487
 30
0.0
  0
VERTEX
  5
6E27
  8
0
 10
206.3769912080036
 20
60.182856762121581
 30
0.0
  0
SEQEND
  5
6E28
  8
0
  0
LINE
  5
6685
  8
0
 10
202.33699120800361
 20
62.457861038491266
 30
0.0
 11
205.8769912080036
 21
62.457861038491266
 31
0.0
  0
LINE
  5
6686
  8
0
 10
206.3769912080036
 20
61.544868086963298
 30
0.0
 11
202.33699120800361
 21
61.544868086963298
 31
0.0
  0
POLYLINE
  5
6687
  8
0
 66
     1
 10
0.0
 20
0.0
 30
0.0
  0
VERTEX
  5
6E29
  8
0
 10
205.8769912080036
 20
62.457861038491288
 30
0.0
  0
VERTEX
  5
6E2A
  8
0
 10
205.96363663806829
 20
62.315385603442081
 30
0.0
  0
VERTEX
  5
6E2B
  8
0
 10
206.1329200625415
 20
62.032830444596421
 30
0.0
  0
VERTEX
  5
6E2C
  8
0
 10
206.29693396338871
 20
61.753347131364073
 30
0.0
  0
VERTEX
  5
6E2D
  8
0
 10
206.3769912080036
 20
61.614712250036789
 30
0.0
  0
SEQEND
  5
6E2E
  8
0
  0
LINE
  5
6688
  8
0
 10
202.33699120800361
 20
63.821504408199061
 30
0.0
 11
205.8769912080036
 21
63.821504408199061
 31
0.0
  0
LINE
  5
6689
  8
0
 10
206.3769912080036
 20
62.900970174684488
 30
0.0
 11
202.33699120800361
 21
62.900970174684488
 31
0.0
  0
POLYLINE
  5
668A
  8
0
 66
     1
 10
0.0
 20
0.0
 30
0.0
  0
VERTEX
  5
6E2F
  8
0
 10
205.8769912080036
 20
63.821504408199061
 30
0.0
  0
VERTEX
  5
6E30
  8
0
 10
205.96363663806829
 20
63.677852132266288
 30
0.0
  0
VERTEX
  5
6E31
  8
0
 10
206.1329200625415
 20
63.392963080123728
 30
0.0
  0
VERTEX
  5
6E32
  8
0
 10
206.29693396338871
 20
63.111171246905322
 30
0.0
  0
VERTEX
  5
6E33
  8
0
 10
206.3769912080036
 20
62.97139124750079
 30
0.0
  0
SEQEND
  5
6E34
  8
0
  0
LINE
  5
668B
  8
0
 10
202.33699120800361
 20
65.085793210769864
 30
0.0
 11
205.8769912080036
 21
65.085793210769864
 31
0.0
  0
LINE
  5
668C
  8
0
 10
206.3769912080036
 20
64.167803260965243
 30
0.0
 11
202.33699120800361
 21
64.167803260965243
 31
0.0
  0
POLYLINE
  5
668D
  8
0
 66
     1
 10
0.0
 20
0.0
 30
0.0
  0
VERTEX
  5
6E35
  8
0
 10
205.8769912080036
 20
65.085793210769864
 30
0.0
  0
VERTEX
  5
6E36
  8
0
 10
205.96363663806849
 20
64.942537978349463
 30
0.0
  0
VERTEX
  5
6E37
  8
0
 10
206.1329200625415
 20
64.658436336982405
 30
0.0
  0
VERTEX
  5
6E38
  8
0
 10
206.29693396338871
 20
64.377423354071752
 30
0.0
  0
VERTEX
  5
6E39
  8
0
 10
206.3769912080036
 20
64.238029695514015
 30
0.0
  0
SEQEND
  5
6E3A
  8
0
  0
LINE
  5
668E
  8
0
 10
202.33699120800361
 20
66.236875633513279
 30
0.0
 11
205.8769912080036
 21
66.236875633513279
 31
0.0
  0
LINE
  5
668F
  8
0
 10
206.3769912080036
 20
65.331487657410435
 30
0.0
 11
202.33699120800361
 21
65.331487657410435
 31
0.0
  0
POLYLINE
  5
6690
  8
0
 66
     1
 10
0.0
 20
0.0
 30
0.0
  0
VERTEX
  5
6E3B
  8
0
 10
205.8769912080036
 20
66.236875633513279
 30
0.0
  0
VERTEX
  5
6E3C
  8
0
 10
205.96363663806829
 20
66.095586978910148
 30
0.0
  0
VERTEX
  5
6E3D
  8
0
 10
206.1329200625415
 20
65.815385425353185
 30
0.0
  0
VERTEX
  5
6E3E
  8
0
 10
206.29693396338871
 20
65.538230129796403
 30
0.0
  0
VERTEX
  5
6E3F
  8
0
 10
206.3769912080036
 20
65.400750038178941
 30
0.0
  0
SEQEND
  5
6E40
  8
0
  0
LINE
  5
6691
  8
0
 10
202.33699120800361
 20
67.262140176526259
 30
0.0
 11
205.8769912080036
 21
67.262140176526259
 31
0.0
  0
LINE
  5
6692
  8
0
 10
206.3769912080036
 20
66.379273794255965
 30
0.0
 11
202.33699120800361
 21
66.379273794255965
 31
0.0
  0
POLYLINE
  5
6693
  8
0
 66
     1
 10
0.0
 20
0.0
 30
0.0
  0
VERTEX
  5
6E41
  8
0
 10
205.8769912080036
 20
67.262140176526259
 30
0.0
  0
VERTEX
  5
6E42
  8
0
 10
205.96363663806829
 20
67.12436608780655
 30
0.0
  0
VERTEX
  5
6E43
  8
0
 10
206.1329200625415
 20
66.851134568916549
 30
0.0
  0
VERTEX
  5
6E44
  8
0
 10
206.29693396338871
 20
66.580873532130425
 30
0.0
  0
VERTEX
  5
6E45
  8
0
 10
206.3769912080036
 20
66.446813268106425
 30
0.0
  0
SEQEND
  5
6E46
  8
0
  0
LINE
  5
6694
  8
0
 10
202.33699120800361
 20
68.150353826925141
 30
0.0
 11
205.8769912080036
 21
68.150353826925141
 31
0.0
  0
POLYLINE
  5
6696
  8
0
 66
     1
 10
0.0
 20
0.0
 30
0.0
  0
VERTEX
  5
6E47
  8
0
 10
205.8769912080036
 20
68.150353826925141
 30
0.0
  0
VERTEX
  5
6E48
  8
0
 10
205.96363663806829
 20
68.017603785836172
 30
0.0
  0
VERTEX
  5
6E49
  8
0
 10
206.1329200625415
 20
67.754335883311285
 30
0.0
  0
VERTEX
  5
6E4A
  8
0
 10
206.2969339633888
 20
67.493930141770477
 30
0.0
  0
VERTEX
  5
6E4B
  8
0
 10
206.3769912080036
 20
67.364758497646591
 30
0.0
  0
SEQEND
  5
6E4C
  8
0
  0
LINE
  5
6697
  8
0
 10
202.33699120800361
 20
68.891785130085481
 30
0.0
 11
205.8769912080036
 21
68.891785130085481
 31
0.0
  0
POLYLINE
  5
6699
  8
0
 66
     1
 10
0.0
 20
0.0
 30
0.0
  0
VERTEX
  5
6E4D
  8
0
 10
205.8769912080036
 20
68.891785130085481
 30
0.0
  0
VERTEX
  5
6E4E
  8
0
 10
205.96363663806821
 20
68.765513573856992
 30
0.0
  0
VERTEX
  5
6E4F
  8
0
 10
206.1329200625415
 20
68.515093705929743
 30
0.0
  0
VERTEX
  5
6E50
  8
0
 10
206.2969339633888
 20
68.267396319432066
 30
0.0
  0
VERTEX
  5
6E51
  8
0
 10
206.3769912080036
 20
68.144528526772206
 30
0.0
  0
SEQEND
  5
6E52
  8
0
  0
LINE
  5
669A
  8
0
 10
202.33699120800361
 20
69.47831080949544
 30
0.0
 11
205.8769912080036
 21
69.47831080949544
 31
0.0
  0
POLYLINE
  5
669C
  8
0
 66
     1
 10
0.0
 20
0.0
 30
0.0
  0
VERTEX
  5
6E53
  8
0
 10
205.8769912080036
 20
69.47831080949544
 30
0.0
  0
VERTEX
  5
6E54
  8
0
 10
205.96363663806821
 20
69.359901195721477
 30
0.0
  0
VERTEX
  5
6E55
  8
0
 10
206.1329200625415
 20
69.125073014868605
 30
0.0
  0
VERTEX
  5
6E56
  8
0
 10
206.29693396338891
 20
68.892797807814532
 30
0.0
  0
VERTEX
  5
6E57
  8
0
 10
206.3769912080036
 20
68.777580031866762
 30
0.0
  0
SEQEND
  5
6E58
  8
0
  0
LINE
  5
669D
  8
0
 10
202.33699120800361
 20
69.903504767072945
 30
0.0
 11
205.8769912080036
 21
69.903504767072945
 31
0.0
  0
POLYLINE
  5
669F
  8
0
 66
     1
 10
0.0
 20
0.0
 30
0.0
  0
VERTEX
  5
6E59
  8
0
 10
205.8769912080036
 20
69.903504767072945
 30
0.0
  0
VERTEX
  5
6E5A
  8
0
 10
205.96363663806829
 20
69.794254416260742
 30
0.0
  0
VERTEX
  5
6E5B
  8
0
 10
206.1329200625415
 20
69.577590749172771
 30
0.0
  0
VERTEX
  5
6E5C
  8
0
 10
206.2969339633888
 20
69.3632825773376
 30
0.0
  0
VERTEX
  5
6E5D
  8
0
 10
206.3769912080036
 20
69.256977168165974
 30
0.0
  0
SEQEND
  5
6E5E
  8
0
  0
LINE
  5
66A0
  8
0
 10
202.33699120800361
 20
70.162708488841247
 30
0.0
 11
205.8769912080036
 21
70.162708488841247
 31
0.0
  0
POLYLINE
  5
66A2
  8
0
 66
     1
 10
0.0
 20
0.0
 30
0.0
  0
VERTEX
  5
6E5F
  8
0
 10
205.8769912080036
 20
70.162708488841247
 30
0.0
  0
VERTEX
  5
6E60
  8
0
 10
205.96363663806829
 20
70.06381437069652
 30
0.0
  0
VERTEX
  5
6E61
  8
0
 10
206.13292006254139
 20
69.867689029849828
 30
0.0
  0
VERTEX
  5
6E62
  8
0
 10
206.29693396338871
 20
69.673695898410983
 30
0.0
  0
VERTEX
  5
6E63
  8
0
 10
206.3769912080036
 20
69.577467560324195
 30
0.0
  0
SEQEND
  5
6E64
  8
0
  0
LINE
  5
66A3
  8
0
 10
202.33699120800361
 20
70.253082084582786
 30
0.0
 11
205.8769912080036
 21
70.253082084582786
 31
0.0
  0
POLYLINE
  5
66A5
  8
0
 66
     1
 10
0.0
 20
0.0
 30
0.0
  0
VERTEX
  5
6E65
  8
0
 10
205.8769912080036
 20
70.253082084582786
 30
0.0
  0
VERTEX
  5
6E66
  8
0
 10
205.96363663806829
 20
70.165627703758787
 30
0.0
  0
VERTEX
  5
6E67
  8
0
 10
206.1329200625415
 20
69.992189479429413
 30
0.0
  0
VERTEX
  5
6E68
  8
0
 10
206.2969339633888
 20
69.820636817730588
 30
0.0
  0
VERTEX
  5
6E69
  8
0
 10
206.3769912080036
 20
69.735539848538053
 30
0.0
  0
SEQEND
  5
6E6A
  8
0
  0
LINE
  5
66D5
  8
0
 10
202.33699120800361
 20
39.343631932878168
 30
0.0
 11
202.33699120800361
 21
39.58110154533761
 31
0.0
  0
LINE
  5
66D6
  8
0
 10
202.33699120800361
 20
39.602835654646469
 30
0.0
 11
202.33699120800361
 21
39.99572643048549
 31
0.0
  0
LINE
  5
66D7
  8
0
 10
202.33699120800361
 20
40.028029612223989
 30
0.0
 11
202.33699120800361
 21
40.572036957884798
 31
0.0
  0
LINE
  5
66D8
  8
0
 10
202.33699120800361
 20
40.614555291633913
 30
0.0
 11
202.33699120800361
 21
41.303718948796629
 31
0.0
  0
LINE
  5
66D9
  8
0
 10
202.33699120800361
 20
41.355986594794267
 30
0.0
 11
202.33699120800361
 21
42.182755942214207
 31
0.0
  0
LINE
  5
66DA
  8
0
 10
202.33699120800361
 20
42.244200245193127
 30
0.0
 11
202.33699120800361
 21
43.199517024887392
 31
0.0
  0
LINE
  5
66DB
  8
0
 10
202.33699120800361
 20
43.269464788206122
 30
0.0
 11
202.33699120800361
 21
44.342862349623452
 31
0.0
  0
LINE
  5
66DC
  8
0
 10
202.33699120800361
 20
44.420547210949543
 30
0.0
 11
202.33699120800361
 21
45.600265185784188
 31
0.0
  0
LINE
  5
66DD
  8
0
 10
202.33699120800361
 20
45.684836013520339
 30
0.0
 11
202.33699120800361
 21
46.957949164768181
 31
0.0
  0
LINE
  5
66DE
  8
0
 10
202.33699120800361
 20
47.048479383228127
 30
0.0
 11
202.33699120800361
 21
48.401039216788
 31
0.0
  0
LINE
  5
66DF
  8
0
 10
202.33699120800361
 20
48.496536957953651
 30
0.0
 11
202.33699120800361
 21
49.91372454524776
 31
0.0
  0
LINE
  5
66E0
  8
0
 10
202.33699120800361
 20
50.013143515882689
 30
0.0
 11
202.33699120800361
 21
51.479431853139062
 31
0.0
  0
LINE
  5
66E1
  8
0
 10
202.33699120800361
 20
51.581682798196262
 30
0.0
 11
202.33699120800361
 21
53.081006923551357
 31
0.0
  0
LINE
  5
66E2
  8
0
 10
202.33699120800361
 20
53.18496956027937
 30
0.0
 11
202.33699120800361
 21
54.700902564862048
 31
0.0
  0
LINE
  5
66E3
  8
0
 10
202.33699120800361
 20
54.805437856857317
 30
0.0
 11
202.33699120800361
 21
56.321370861440023
 31
0.0
  0
LINE
  5
66E5
  8
0
 10
202.33699120800361
 20
56.42533349816803
 30
0.0
 11
202.33699120800361
 21
57.924657623523132
 31
0.0
  0
LINE
  5
66E6
  8
0
 10
202.33699120800361
 20
58.026908568580311
 30
0.0
 11
202.33699120800361
 21
59.493196905836697
 31
0.0
  0
LINE
  5
66E8
  8
0
 10
202.33699120800361
 20
59.592615876471612
 30
0.0
 11
202.33699120800361
 21
61.009803463765749
 31
0.0
  0
LINE
  5
66EA
  8
0
 10
202.33699120800361
 20
61.105301204931372
 30
0.0
 11
202.33699120800361
 21
62.457861038491266
 31
0.0
  0
LINE
  5
66EC
  8
0
 10
202.33699120800361
 20
62.548391256951192
 30
0.0
 11
202.33699120800361
 21
63.821504408199061
 31
0.0
  0
LINE
  5
66ED
  8
0
 10
202.33699120800361
 20
63.906075235935177
 30
0.0
 11
202.33699120800361
 21
65.085793210769864
 31
0.0
  0
LINE
  5
66EF
  8
0
 10
202.33699120800361
 20
65.163478072095899
 30
0.0
 11
202.33699120800361
 21
66.236875633513279
 31
0.0
  0
LINE
  5
66F1
  8
0
 10
202.33699120800361
 20
66.306823396831959
 30
0.0
 11
202.33699120800361
 21
67.262140176526259
 31
0.0
  0
LINE
  5
66F2
  8
0
 10
202.33699120800361
 20
67.323584479505143
 30
0.0
 11
202.33699120800361
 21
68.150353826925141
 31
0.0
  0
LINE
  5
66F3
  8
0
 10
202.33699120800361
 20
68.202621472922772
 30
0.0
 11
202.33699120800361
 21
68.891785130085481
 31
0.0
  0
LINE
  5
66F4
  8
0
 10
202.33699120800361
 20
68.934303463834567
 30
0.0
 11
202.33699120800361
 21
69.478310809495412
 31
0.0
  0
LINE
  5
66F5
  8
0
 10
202.33699120800361
 20
69.510613991233896
 30
0.0
 11
202.33699120800361
 21
69.903504767072917
 31
0.0
  0
LINE
  5
66F6
  8
0
 10
202.33699120800361
 20
69.925238876381798
 30
0.0
 11
202.33699120800361
 21
70.162708488841247
 31
0.0
  0
LINE
  5
66F7
  8
0
 10
202.33699120800361
 20
70.173635402270747
 30
0.0
 11
202.33699120800361
 21
70.253082084582786
 31
0.0
  0
LINE
  5
66FC
  8
0
 10
205.8769912080036
 20
39.253258337136621
 30
0.0
 11
202.33699120800361
 21
39.253258337136621
 31
0.0
  0
POLYLINE
  5
66FD
  8
0
 66
     1
 10
0.0
 20
0.0
 30
0.0
  0
VERTEX
  5
6E6B
  8
0
 10
206.3769912080036
 20
39.770800573181347
 30
0.0
  0
VERTEX
  5
6E6C
  8
0
 10
206.29693396338871
 20
39.685703603988692
 30
0.0
  0
VERTEX
  5
6E6D
  8
0
 10
206.1329200625415
 20
39.514150942289959
 30
0.0
  0
VERTEX
  5
6E6E
  8
0
 10
205.96363663806841
 20
39.340712717960692
 30
0.0
  0
VERTEX
  5
6E6F
  8
0
 10
205.8769912080036
 20
39.253258337136621
 30
0.0
  0
SEQEND
  5
6E70
  8
0
  0
LINE
  5
66FF
  8
0
 10
205.8769912080036
 20
39.343631932878168
 30
0.0
 11
202.33699120800361
 21
39.343631932878168
 31
0.0
  0
POLYLINE
  5
6700
  8
0
 66
     1
 10
0.0
 20
0.0
 30
0.0
  0
VERTEX
  5
6E71
  8
0
 10
206.3769912080036
 20
39.928872861395192
 30
0.0
  0
VERTEX
  5
6E72
  8
0
 10
206.2969339633888
 20
39.832644523308517
 30
0.0
  0
VERTEX
  5
6E73
  8
0
 10
206.1329200625415
 20
39.638651391869693
 30
0.0
  0
VERTEX
  5
6E74
  8
0
 10
205.96363663806829
 20
39.442526051022938
 30
0.0
  0
VERTEX
  5
6E75
  8
0
 10
205.8769912080036
 20
39.343631932878147
 30
0.0
  0
SEQEND
  5
6E76
  8
0
  0
LINE
  5
6701
  8
0
 10
205.8769912080036
 20
39.602835654646469
 30
0.0
 11
202.33699120800361
 21
39.602835654646469
 31
0.0
  0
POLYLINE
  5
6702
  8
0
 66
     1
 10
0.0
 20
0.0
 30
0.0
  0
VERTEX
  5
6E77
  8
0
 10
206.3769912080036
 20
40.249363253553412
 30
0.0
  0
VERTEX
  5
6E78
  8
0
 10
206.2969339633888
 20
40.143057844381829
 30
0.0
  0
VERTEX
  5
6E79
  8
0
 10
206.1329200625415
 20
39.928749672546623
 30
0.0
  0
VERTEX
  5
6E7A
  8
0
 10
205.96363663806829
 20
39.71208600545863
 30
0.0
  0
VERTEX
  5
6E7B
  8
0
 10
205.8769912080036
 20
39.602835654646469
 30
0.0
  0
SEQEND
  5
6E7C
  8
0
  0
LINE
  5
6703
  8
0
 10
205.8769912080036
 20
40.028029612223989
 30
0.0
 11
202.33699120800361
 21
40.028029612223989
 31
0.0
  0
POLYLINE
  5
6704
  8
0
 66
     1
 10
0.0
 20
0.0
 30
0.0
  0
VERTEX
  5
6E7D
  8
0
 10
206.3769912080036
 20
40.728760389852617
 30
0.0
  0
VERTEX
  5
6E7E
  8
0
 10
206.2969339633888
 20
40.613542613904848
 30
0.0
  0
VERTEX
  5
6E7F
  8
0
 10
206.1329200625415
 20
40.381267406850839
 30
0.0
  0
VERTEX
  5
6E80
  8
0
 10
205.96363663806829
 20
40.146439225998009
 30
0.0
  0
VERTEX
  5
6E81
  8
0
 10
205.8769912080036
 20
40.028029612223968
 30
0.0
  0
SEQEND
  5
6E82
  8
0
  0
LINE
  5
6705
  8
0
 10
205.8769912080036
 20
40.614555291633913
 30
0.0
 11
202.33699120800361
 21
40.614555291633913
 31
0.0
  0
POLYLINE
  5
6706
  8
0
 66
     1
 10
0.0
 20
0.0
 30
0.0
  0
VERTEX
  5
6E83
  8
0
 10
206.3769912080036
 20
41.361811894947202
 30
0.0
  0
VERTEX
  5
6E84
  8
0
 10
206.29693396338871
 20
41.238944102287142
 30
0.0
  0
VERTEX
  5
6E85
  8
0
 10
206.1329200625415
 20
40.9912467157896
 30
0.0
  0
VERTEX
  5
6E86
  8
0
 10
205.96363663806829
 20
40.740826847862571
 30
0.0
  0
VERTEX
  5
6E87
  8
0
 10
205.8769912080036
 20
40.614555291633913
 30
0.0
  0
SEQEND
  5
6E88
  8
0
  0
LINE
  5
6707
  8
0
 10
205.8769912080036
 20
41.355986594794267
 30
0.0
 11
202.33699120800361
 21
41.355986594794267
 31
0.0
  0
POLYLINE
  5
6708
  8
0
 66
     1
 10
0.0
 20
0.0
 30
0.0
  0
VERTEX
  5
6E89
  8
0
 10
206.3769912080036
 20
42.14158192407281
 30
0.0
  0
VERTEX
  5
6E8A
  8
0
 10
206.29693396338871
 20
42.012410279948909
 30
0.0
  0
VERTEX
  5
6E8B
  8
0
 10
206.1329200625415
 20
41.752004538408201
 30
0.0
  0
VERTEX
  5
6E8C
  8
0
 10
205.96363663806829
 20
41.488736635883392
 30
0.0
  0
VERTEX
  5
6E8D
  8
0
 10
205.8769912080036
 20
41.35598659479426
 30
0.0
  0
SEQEND
  5
6E8E
  8
0
  0
LINE
  5
6709
  8
0
 10
205.8769912080036
 20
42.244200245193127
 30
0.0
 11
202.33699120800361
 21
42.244200245193127
 31
0.0
  0
POLYLINE
  5
670A
  8
0
 66
     1
 10
0.0
 20
0.0
 30
0.0
  0
VERTEX
  5
6E8F
  8
0
 10
206.3769912080036
 20
43.059527153612969
 30
0.0
  0
VERTEX
  5
6E90
  8
0
 10
206.2969339633888
 20
42.925466889589089
 30
0.0
  0
VERTEX
  5
6E91
  8
0
 10
206.13292006254139
 20
42.655205852802773
 30
0.0
  0
VERTEX
  5
6E92
  8
0
 10
205.96363663806821
 20
42.381974333912652
 30
0.0
  0
VERTEX
  5
6E93
  8
0
 10
205.8769912080036
 20
42.244200245193127
 30
0.0
  0
SEQEND
  5
6E94
  8
0
  0
LINE
  5
670B
  8
0
 10
205.8769912080036
 20
43.269464788206122
 30
0.0
 11
202.33699120800361
 21
43.269464788206122
 31
0.0
  0
POLYLINE
  5
670C
  8
0
 66
     1
 10
0.0
 20
0.0
 30
0.0
  0
VERTEX
  5
6E95
  8
0
 10
206.3769912080036
 20
44.105590383540459
 30
0.0
  0
VERTEX
  5
6E96
  8
0
 10
206.2969339633888
 20
43.968110291923082
 30
0.0
  0
VERTEX
  5
6E97
  8
0
 10
206.1329200625415
 20
43.69095499636623
 30
0.0
  0
VERTEX
  5
6E98
  8
0
 10
205.96363663806829
 20
43.41075344280916
 30
0.0
  0
VERTEX
  5
6E99
  8
0
 10
205.8769912080036
 20
43.269464788206108
 30
0.0
  0
SEQEND
  5
6E9A
  8
0
  0
LINE
  5
670D
  8
0
 10
205.8769912080036
 20
44.420547210949543
 30
0.0
 11
202.33699120800361
 21
44.420547210949543
 31
0.0
  0
POLYLINE
  5
670E
  8
0
 66
     1
 10
0.0
 20
0.0
 30
0.0
  0
VERTEX
  5
6E9B
  8
0
 10
206.3769912080036
 20
45.268310726205371
 30
0.0
  0
VERTEX
  5
6E9C
  8
0
 10
206.29693396338871
 20
45.128917067647834
 30
0.0
  0
VERTEX
  5
6E9D
  8
0
 10
206.1329200625415
 20
44.847904084736982
 30
0.0
  0
VERTEX
  5
6E9E
  8
0
 10
205.96363663806829
 20
44.563802443369731
 30
0.0
  0
VERTEX
  5
6E9F
  8
0
 10
205.8769912080036
 20
44.420547210949543
 30
0.0
  0
SEQEND
  5
6EA0
  8
0
  0
LINE
  5
670F
  8
0
 10
205.8769912080036
 20
45.684836013520339
 30
0.0
 11
202.33699120800361
 21
45.684836013520339
 31
0.0
  0
POLYLINE
  5
6710
  8
0
 66
     1
 10
0.0
 20
0.0
 30
0.0
  0
VERTEX
  5
6EA1
  8
0
 10
206.3769912080036
 20
46.53494917421861
 30
0.0
  0
VERTEX
  5
6EA2
  8
0
 10
206.2969339633888
 20
46.395169174814079
 30
0.0
  0
VERTEX
  5
6EA3
  8
0
 10
206.1329200625415
 20
46.113377341595658
 30
0.0
  0
VERTEX
  5
6EA4
  8
0
 10
205.96363663806829
 20
45.828488289453091
 30
0.0
  0
VERTEX
  5
6EA5
  8
0
 10
205.8769912080036
 20
45.684836013520318
 30
0.0
  0
SEQEND
  5
6EA6
  8
0
  0
LINE
  5
6711
  8
0
 10
205.8769912080036
 20
47.048479383228127
 30
0.0
 11
202.33699120800361
 21
47.048479383228127
 31
0.0
  0
POLYLINE
  5
6712
  8
0
 66
     1
 10
0.0
 20
0.0
 30
0.0
  0
VERTEX
  5
6EA7
  8
0
 10
206.3769912080036
 20
47.891628171682612
 30
0.0
  0
VERTEX
  5
6EA8
  8
0
 10
206.29693396338871
 20
47.752993290355349
 30
0.0
  0
VERTEX
  5
6EA9
  8
0
 10
206.1329200625415
 20
47.47350997712298
 30
0.0
  0
VERTEX
  5
6EAA
  8
0
 10
205.96363663806829
 20
47.190954818277298
 30
0.0
  0
VERTEX
  5
6EAB
  8
0
 10
205.8769912080036
 20
47.048479383228127
 30
0.0
  0
SEQEND
  5
6EAC
  8
0
  0
LINE
  5
6713
  8
0
 10
205.8769912080036
 20
48.496536957953651
 30
0.0
 11
202.33699120800361
 21
48.496536957953651
 31
0.0
  0
POLYLINE
  5
6714
  8
0
 66
     1
 10
0.0
 20
0.0
 30
0.0
  0
VERTEX
  5
6EAD
  8
0
 10
206.3769912080036
 20
49.323483659597812
 30
0.0
  0
VERTEX
  5
6EAE
  8
0
 10
206.29693396338871
 20
49.187512809118928
 30
0.0
  0
VERTEX
  5
6EAF
  8
0
 10
206.1329200625415
 20
48.913400093537867
 30
0.0
  0
VERTEX
  5
6EB0
  8
0
 10
205.96363663806829
 20
48.63627456143778
 30
0.0
  0
VERTEX
  5
6EB1
  8
0
 10
205.8769912080036
 20
48.496536957953637
 30
0.0
  0
SEQEND
  5
6EB2
  8
0
  0
LINE
  5
6715
  8
0
 10
205.8769912080036
 20
50.013143515882689
 30
0.0
 11
202.33699120800361
 21
50.013143515882689
 31
0.0
  0
POLYLINE
  5
6716
  8
0
 66
     1
 10
0.0
 20
0.0
 30
0.0
  0
VERTEX
  5
6EB3
  8
0
 10
206.3769912080036
 20
50.814827929603588
 30
0.0
  0
VERTEX
  5
6EB4
  8
0
 10
206.2969339633888
 20
50.683010835064721
 30
0.0
  0
VERTEX
  5
6EB5
  8
0
 10
206.13292006254139
 20
50.417271953408608
 30
0.0
  0
VERTEX
  5
6EB6
  8
0
 10
205.96363663806821
 20
50.148612293376019
 30
0.0
  0
VERTEX
  5
6EB7
  8
0
 10
205.8769912080036
 20
50.013143515882689
 30
0.0
  0
SEQEND
  5
6EB8
  8
0
  0
LINE
  5
6717
  8
0
 10
205.8769912080036
 20
51.581682798196262
 30
0.0
 11
202.33699120800361
 21
51.581682798196262
 31
0.0
  0
POLYLINE
  5
6718
  8
0
 66
     1
 10
0.0
 20
0.0
 30
0.0
  0
VERTEX
  5
6EB9
  8
0
 10
206.3769912080036
 20
52.349321501793931
 30
0.0
  0
VERTEX
  5
6EBA
  8
0
 10
206.29693396338871
 20
52.223102378867132
 30
0.0
  0
VERTEX
  5
6EBB
  8
0
 10
206.1329200625415
 20
51.968648821933108
 30
0.0
  0
VERTEX
  5
6EBC
  8
0
 10
205.96363663806841
 20
51.711398525424173
 30
0.0
  0
VERTEX
  5
6EBD
  8
0
 10
205.8769912080036
 20
51.581682798196262
 30
0.0
  0
SEQEND
  5
6EBE
  8
0
  0
LINE
  5
6719
  8
0
 10
205.8769912080036
 20
53.18496956027937
 30
0.0
 11
202.33699120800361
 21
53.18496956027937
 31
0.0
  0
POLYLINE
  5
671A
  8
0
 66
     1
 10
0.0
 20
0.0
 30
0.0
  0
VERTEX
  5
6EBF
  8
0
 10
206.3769912080036
 20
53.91015214347847
 30
0.0
  0
VERTEX
  5
6EC0
  8
0
 10
206.29693396338871
 20
53.790913875287707
 30
0.0
  0
VERTEX
  5
6EC1
  8
0
 10
206.1329200625415
 20
53.550533489493219
 30
0.0
  0
VERTEX
  5
6EC2
  8
0
 10
205.96363663806841
 20
53.307511044589397
 30
0.0
  0
VERTEX
  5
6EC3
  8
0
 10
205.8769912080036
 20
53.18496956027937
 30
0.0
  0
SEQEND
  5
6EC4
  8
0
  0
LINE
  5
671B
  8
0
 10
205.8769912080036
 20
54.805437856857317
 30
0.0
 11
202.33699120800361
 21
54.805437856857317
 31
0.0
  0
POLYLINE
  5
671C
  8
0
 66
     1
 10
0.0
 20
0.0
 30
0.0
  0
VERTEX
  5
6EC5
  8
0
 10
206.3769912080036
 20
55.480219067522107
 30
0.0
  0
VERTEX
  5
6EC6
  8
0
 10
206.2969339633888
 20
55.369268053486039
 30
0.0
  0
VERTEX
  5
6EC7
  8
0
 10
206.1329200625415
 20
55.145594496640513
 30
0.0
  0
VERTEX
  5
6EC8
  8
0
 10
205.96363663806829
 20
54.919462508103791
 30
0.0
  0
VERTEX
  5
6EC9
  8
0
 10
205.8769912080036
 20
54.805437856857317
 30
0.0
  0
SEQEND
  5
6ECA
  8
0
  0
LINE
  5
671D
  8
0
 10
205.8769912080036
 20
56.42533349816803
 30
0.0
 11
202.33699120800361
 21
56.42533349816803
 31
0.0
  0
POLYLINE
  5
671E
  8
0
 66
     1
 10
0.0
 20
0.0
 30
0.0
  0
VERTEX
  5
6ECB
  8
0
 10
206.3769912080036
 20
57.042320292147409
 30
0.0
  0
VERTEX
  5
6ECC
  8
0
 10
206.29693396338871
 20
56.940872134793558
 30
0.0
  0
VERTEX
  5
6ECD
  8
0
 10
206.1329200625415
 20
56.736356021192748
 30
0.0
  0
VERTEX
  5
6ECE
  8
0
 10
205.96363663806829
 20
56.529592038410939
 30
0.0
  0
VERTEX
  5
6ECF
  8
0
 10
205.8769912080036
 20
56.42533349816803
 30
0.0
  0
SEQEND
  5
6ED0
  8
0
  0
LINE
  5
671F
  8
0
 10
205.8769912080036
 20
58.026908568580311
 30
0.0
 11
202.33699120800361
 21
58.026908568580311
 31
0.0
  0
POLYLINE
  5
6720
  8
0
 66
     1
 10
0.0
 20
0.0
 30
0.0
  0
VERTEX
  5
6ED1
  8
0
 10
206.3769912080036
 20
58.579341109446652
 30
0.0
  0
VERTEX
  5
6ED2
  8
0
 10
206.29693396338871
 20
58.488507296016493
 30
0.0
  0
VERTEX
  5
6ED3
  8
0
 10
206.1329200625415
 20
58.305389346998631
 30
0.0
  0
VERTEX
  5
6ED4
  8
0
 10
205.96363663806841
 20
58.120258719435142
 30
0.0
  0
VERTEX
  5
6ED5
  8
0
 10
205.8769912080036
 20
58.026908568580311
 30
0.0
  0
SEQEND
  5
6ED6
  8
0
  0
LINE
  5
6721
  8
0
 10
205.8769912080036
 20
59.592615876471612
 30
0.0
 11
202.33699120800361
 21
59.592615876471612
 31
0.0
  0
POLYLINE
  5
6722
  8
0
 66
     1
 10
0.0
 20
0.0
 30
0.0
  0
VERTEX
  5
6ED7
  8
0
 10
206.3769912080036
 20
60.074441597703263
 30
0.0
  0
VERTEX
  5
6ED8
  8
0
 10
206.2969339633888
 20
59.995217322464988
 30
0.0
  0
VERTEX
  5
6ED9
  8
0
 10
206.1329200625415
 20
59.835503816599307
 30
0.0
  0
VERTEX
  5
6EDA
  8
0
 10
205.96363663806821
 20
59.674034874150699
 30
0.0
  0
VERTEX
  5
6EDB
  8
0
 10
205.8769912080036
 20
59.592615876471612
 30
0.0
  0
SEQEND
  5
6EDC
  8
0
  0
LINE
  5
6723
  8
0
 10
205.8769912080036
 20
61.105301204931372
 30
0.0
 11
202.33699120800361
 21
61.105301204931372
 31
0.0
  0
POLYLINE
  5
6724
  8
0
 66
     1
 10
0.0
 20
0.0
 30
0.0
  0
VERTEX
  5
6EDD
  8
0
 10
206.3769912080036
 20
61.511241123097982
 30
0.0
  0
VERTEX
  5
6EDE
  8
0
 10
206.2969339633888
 20
61.44449438378976
 30
0.0
  0
VERTEX
  5
6EDF
  8
0
 10
206.1329200625415
 20
61.30993517566889
 30
0.0
  0
VERTEX
  5
6EE0
  8
0
 10
205.96363663806829
 20
61.173897005858258
 30
0.0
  0
VERTEX
  5
6EE1
  8
0
 10
205.8769912080036
 20
61.105301204931372
 30
0.0
  0
SEQEND
  5
6EE2
  8
0
  0
LINE
  5
6725
  8
0
 10
205.8769912080036
 20
62.548391256951192
 30
0.0
 11
202.33699120800361
 21
62.548391256951192
 31
0.0
  0
POLYLINE
  5
6726
  8
0
 66
     1
 10
0.0
 20
0.0
 30
0.0
  0
VERTEX
  5
6EE3
  8
0
 10
206.3769912080036
 20
62.873997809360951
 30
0.0
  0
VERTEX
  5
6EE4
  8
0
 10
206.29693396338871
 20
62.8204598972263
 30
0.0
  0
VERTEX
  5
6EE5
  8
0
 10
206.1329200625415
 20
62.712529245692721
 30
0.0
  0
VERTEX
  5
6EE6
  8
0
 10
205.96363663806829
 20
62.603412311176371
 30
0.0
  0
VERTEX
  5
6EE7
  8
0
 10
205.8769912080036
 20
62.548391256951192
 30
0.0
  0
SEQEND
  5
6EE8
  8
0
  0
LINE
  5
6727
  8
0
 10
205.8769912080036
 20
63.906075235935177
 30
0.0
 11
202.33699120800361
 21
63.906075235935177
 31
0.0
  0
POLYLINE
  5
6728
  8
0
 66
     1
 10
0.0
 20
0.0
 30
0.0
  0
VERTEX
  5
6EE9
  8
0
 10
206.3769912080036
 20
64.147781009062314
 30
0.0
  0
VERTEX
  5
6EEA
  8
0
 10
206.2969339633888
 20
64.108038496670176
 30
0.0
  0
VERTEX
  5
6EEB
  8
0
 10
206.1329200625415
 20
64.027918912527952
 30
0.0
  0
VERTEX
  5
6EEC
  8
0
 10
205.96363663806821
 20
63.946918721274542
 30
0.0
  0
VERTEX
  5
6EED
  8
0
 10
205.8769912080036
 20
63.906075235935177
 30
0.0
  0
SEQEND
  5
6EEE
  8
0
  0
LINE
  5
6729
  8
0
 10
205.8769912080036
 20
65.163478072095913
 30
0.0
 11
202.33699120800361
 21
65.163478072095913
 31
0.0
  0
POLYLINE
  5
672A
  8
0
 66
     1
 10
0.0
 20
0.0
 30
0.0
  0
VERTEX
  5
6EEF
  8
0
 10
206.3769912080036
 20
65.318634886909862
 30
0.0
  0
VERTEX
  5
6EF0
  8
0
 10
206.29693396338871
 20
65.293123201542599
 30
0.0
  0
VERTEX
  5
6EF1
  8
0
 10
206.13292006254139
 20
65.24169249172175
 30
0.0
  0
VERTEX
  5
6EF2
  8
0
 10
205.96363663806829
 20
65.189696498777096
 30
0.0
  0
VERTEX
  5
6EF3
  8
0
 10
205.8769912080036
 20
65.163478072095899
 30
0.0
  0
SEQEND
  5
6EF4
  8
0
  0
LINE
  5
672B
  8
0
 10
205.8769912080036
 20
66.306823396831973
 30
0.0
 11
202.33699120800361
 21
66.306823396831973
 31
0.0
  0
POLYLINE
  5
672C
  8
0
 66
     1
 10
0.0
 20
0.0
 30
0.0
  0
VERTEX
  5
6EF5
  8
0
 10
206.3769912080036
 20
66.373731322801007
 30
0.0
  0
VERTEX
  5
6EF6
  8
0
 10
206.2969339633888
 20
66.362729975822177
 30
0.0
  0
VERTEX
  5
6EF7
  8
0
 10
206.1329200625415
 20
66.340551625942069
 30
0.0
  0
VERTEX
  5
6EF8
  8
0
 10
205.96363663806829
 20
66.318129510285729
 30
0.0
  0
VERTEX
  5
6EF9
  8
0
 10
205.8769912080036
 20
66.306823396831973
 30
0.0
  0
SEQEND
  5
6EFA
  8
0
  0
LINE
  5
672D
  8
0
 10
205.8769912080036
 20
67.323584479505143
 30
0.0
 11
202.33699120800361
 21
67.323584479505143
 31
0.0
  0
POLYLINE
  5
672E
  8
0
 66
     1
 10
0.0
 20
0.0
 30
0.0
  0
VERTEX
  5
6EFB
  8
0
 10
206.3769912080036
 20
67.301510459390954
 30
0.0
  0
VERTEX
  5
6EFC
  8
0
 10
206.2969339633888
 20
67.305139983860244
 30
0.0
  0
VERTEX
  5
6EFD
  8
0
 10
206.1329200625415
 20
67.312456984563255
 30
0.0
  0
VERTEX
  5
6EFE
  8
0
 10
205.96363663806829
 20
67.31985440758649
 30
0.0
  0
VERTEX
  5
6EFF
  8
0
 10
205.8769912080036
 20
67.323584479505143
 30
0.0
  0
SEQEND
  5
6F00
  8
0
  0
LINE
  5
672F
  8
0
 10
205.8769912080036
 20
68.202621472922772
 30
0.0
 11
202.33699120800361
 21
68.202621472922772
 31
0.0
  0
POLYLINE
  5
6730
  8
0
 66
     1
 10
0.0
 20
0.0
 30
0.0
  0
VERTEX
  5
6F01
  8
0
 10
206.3769912080036
 20
68.091807354308983
 30
0.0
  0
VERTEX
  5
6F02
  8
0
 10
206.2969339633888
 20
68.110027984396766
 30
0.0
  0
VERTEX
  5
6F03
  8
0
 10
206.1329200625415
 20
68.146760169092062
 30
0.0
  0
VERTEX
  5
6F04
  8
0
 10
205.96363663806821
 20
68.183896083080242
 30
0.0
  0
VERTEX
  5
6F05
  8
0
 10
205.8769912080036
 20
68.202621472922772
 30
0.0
  0
SEQEND
  5
6F06
  8
0
  0
LINE
  5
6731
  8
0
 10
205.8769912080036
 20
68.934303463834567
 30
0.0
 11
202.33699120800361
 21
68.934303463834567
 31
0.0
  0
POLYLINE
  5
6732
  8
0
 66
     1
 10
0.0
 20
0.0
 30
0.0
  0
VERTEX
  5
6F07
  8
0
 10
206.3769912080036
 20
68.735963349394126
 30
0.0
  0
VERTEX
  5
6F08
  8
0
 10
206.29693396338871
 20
68.768575456064255
 30
0.0
  0
VERTEX
  5
6F09
  8
0
 10
206.13292006254139
 20
68.834320379249561
 30
0.0
  0
VERTEX
  5
6F0A
  8
0
 10
205.96363663806829
 20
68.900787915357796
 30
0.0
  0
VERTEX
  5
6F0B
  8
0
 10
205.8769912080036
 20
68.934303463834567
 30
0.0
  0
SEQEND
  5
6F0C
  8
0
  0
LINE
  5
6733
  8
0
 10
205.8769912080036
 20
69.510613991233896
 30
0.0
 11
202.33699120800361
 21
69.510613991233896
 31
0.0
  0
POLYLINE
  5
6734
  8
0
 66
     1
 10
0.0
 20
0.0
 30
0.0
  0
VERTEX
  5
6F0D
  8
0
 10
206.3769912080036
 20
69.226920936765907
 30
0.0
  0
VERTEX
  5
6F0E
  8
0
 10
206.29693396338871
 20
69.273567214953232
 30
0.0
  0
VERTEX
  5
6F0F
  8
0
 10
206.13292006254139
 20
69.367604561492129
 30
0.0
  0
VERTEX
  5
6F10
  8
0
 10
205.96363663806829
 20
69.462675487485569
 30
0.0
  0
VERTEX
  5
6F11
  8
0
 10
205.8769912080036
 20
69.510613991233896
 30
0.0
  0
SEQEND
  5
6F12
  8
0
  0
LINE
  5
6735
  8
0
 10
205.8769912080036
 20
69.925238876381798
 30
0.0
 11
202.33699120800361
 21
69.925238876381798
 31
0.0
  0
POLYLINE
  5
6736
  8
0
 66
     1
 10
0.0
 20
0.0
 30
0.0
  0
VERTEX
  5
6F13
  8
0
 10
206.3769912080036
 20
69.559301082357592
 30
0.0
  0
VERTEX
  5
6F14
  8
0
 10
206.29693396338891
 20
69.619470465676784
 30
0.0
  0
VERTEX
  5
6F15
  8
0
 10
206.1329200625415
 20
69.740769942722054
 30
0.0
  0
VERTEX
  5
6F16
  8
0
 10
205.96363663806821
 20
69.863402641640789
 30
0.0
  0
VERTEX
  5
6F17
  8
0
 10
205.8769912080036
 20
69.925238876381798
 30
0.0
  0
SEQEND
  5
6F18
  8
0
  0
LINE
  5
6737
  8
0
 10
205.8769912080036
 20
70.173635402270747
 30
0.0
 11
202.33699120800361
 21
70.173635402270747
 31
0.0
  0
POLYLINE
  5
6738
  8
0
 66
     1
 10
0.0
 20
0.0
 30
0.0
  0
VERTEX
  5
6F19
  8
0
 10
206.3769912080036
 20
69.729462159739043
 30
0.0
  0
VERTEX
  5
6F1A
  8
0
 10
206.2969339633888
 20
69.802495419835338
 30
0.0
  0
VERTEX
  5
6F1B
  8
0
 10
206.1329200625415
 20
69.949728044932897
 30
0.0
  0
VERTEX
  5
6F1C
  8
0
 10
205.96363663806829
 20
70.098578927264839
 30
0.0
  0
VERTEX
  5
6F1D
  8
0
 10
205.8769912080036
 20
70.173635402270747
 30
0.0
  0
SEQEND
  5
6F1E
  8
0
  0
LINE
  5
6758
  8
0
 10
202.33699120800361
 20
39.253258337136621
 30
0.0
 11
202.33699120800361
 21
39.33270501944866
 31
0.0
  0
LINE
  5
6759
  8
0
 10
205.8769912080036
 20
70.162708488841247
 30
0.0
 11
205.8769912080036
 21
70.173635402270747
 31
0.0
  0
LINE
  5
675A
  8
0
 10
205.8769912080036
 20
69.903504767072945
 30
0.0
 11
205.8769912080036
 21
69.925238876381798
 31
0.0
  0
LINE
  5
675B
  8
0
 10
205.8769912080036
 20
69.478310809495412
 30
0.0
 11
205.8769912080036
 21
69.510613991233853
 31
0.0
  0
LINE
  5
675C
  8
0
 10
205.8769912080036
 20
68.891785130085509
 30
0.0
 11
205.8769912080036
 21
68.934303463834567
 31
0.0
  0
LINE
  5
675D
  8
0
 10
205.8769912080036
 20
68.150353826925141
 30
0.0
 11
205.8769912080036
 21
68.202621472922772
 31
0.0
  0
LINE
  5
675E
  8
0
 10
205.8769912080036
 20
67.262140176526259
 30
0.0
 11
205.8769912080036
 21
67.323584479505143
 31
0.0
  0
LINE
  5
675F
  8
0
 10
205.8769912080036
 20
66.236875633513279
 30
0.0
 11
205.8769912080036
 21
66.306823396831973
 31
0.0
  0
LINE
  5
6760
  8
0
 10
205.8769912080036
 20
65.085793210769864
 30
0.0
 11
205.8769912080036
 21
65.163478072095899
 31
0.0
  0
LINE
  5
6761
  8
0
 10
205.8769912080036
 20
63.821504408199061
 30
0.0
 11
205.8769912080036
 21
63.906075235935148
 31
0.0
  0
LINE
  5
6762
  8
0
 10
205.8769912080036
 20
62.457861038491266
 30
0.0
 11
205.8769912080036
 21
62.548391256951192
 31
0.0
  0
LINE
  5
6763
  8
0
 10
205.8769912080036
 20
61.009803463765749
 30
0.0
 11
205.8769912080036
 21
61.105301204931351
 31
0.0
  0
LINE
  5
6764
  8
0
 10
205.8769912080036
 20
59.493196905836697
 30
0.0
 11
205.8769912080036
 21
59.592615876471612
 31
0.0
  0
LINE
  5
6765
  8
0
 10
205.8769912080036
 20
57.924657623523132
 30
0.0
 11
205.8769912080036
 21
58.026908568580311
 31
0.0
  0
LINE
  5
6766
  8
0
 10
205.8769912080036
 20
56.321370861440023
 30
0.0
 11
205.8769912080036
 21
56.425333498168008
 31
0.0
  0
LINE
  5
6767
  8
0
 10
205.8769912080036
 20
54.700902564862048
 30
0.0
 11
205.8769912080036
 21
54.805437856857317
 31
0.0
  0
LINE
  5
6768
  8
0
 10
205.8769912080036
 20
53.081006923551357
 30
0.0
 11
205.8769912080036
 21
53.18496956027937
 31
0.0
  0
LINE
  5
6769
  8
0
 10
205.8769912080036
 20
51.479431853139062
 30
0.0
 11
205.8769912080036
 21
51.581682798196262
 31
0.0
  0
LINE
  5
676A
  8
0
 10
205.8769912080036
 20
49.91372454524776
 30
0.0
 11
205.8769912080036
 21
50.013143515882689
 31
0.0
  0
LINE
  5
676B
  8
0
 10
205.8769912080036
 20
48.401039216788021
 30
0.0
 11
205.8769912080036
 21
48.496536957953637
 31
0.0
  0
LINE
  5
676C
  8
0
 10
205.8769912080036
 20
46.957949164768181
 30
0.0
 11
205.8769912080036
 21
47.048479383228127
 31
0.0
  0
LINE
  5
676D
  8
0
 10
205.8769912080036
 20
45.600265185784188
 30
0.0
 11
205.8769912080036
 21
45.684836013520339
 31
0.0
  0
LINE
  5
676E
  8
0
 10
205.8769912080036
 20
44.342862349623452
 30
0.0
 11
205.8769912080036
 21
44.420547210949543
 31
0.0
  0
LINE
  5
676F
  8
0
 10
205.8769912080036
 20
43.199517024887392
 30
0.0
 11
205.8769912080036
 21
43.269464788206122
 31
0.0
  0
LINE
  5
6770
  8
0
 10
206.3769912080036
 20
39.753170210859693
 30
0.0
 11
206.3769912080036
 21
69.753170210859693
 31
0.0
  0
LINE
  5
6771
  8
0
 10
205.8769912080036
 20
42.182755942214207
 30
0.0
 11
205.8769912080036
 21
42.244200245193127
 31
0.0
  0
LINE
  5
6772
  8
0
 10
205.8769912080036
 20
41.303718948796607
 30
0.0
 11
205.8769912080036
 21
41.35598659479426
 31
0.0
  0
LINE
  5
6773
  8
0
 10
205.8769912080036
 20
40.572036957884798
 30
0.0
 11
205.8769912080036
 21
40.614555291633913
 31
0.0
  0
LINE
  5
6774
  8
0
 10
205.8769912080036
 20
39.99572643048549
 30
0.0
 11
205.8769912080036
 21
40.028029612223989
 31
0.0
  0
LINE
  5
6775
  8
0
 10
205.8769912080036
 20
39.58110154533761
 30
0.0
 11
205.8769912080036
 21
39.602835654646469
 31
0.0
  0
LINE
  5
6776
  8
0
 10
205.8769912080036
 20
39.33270501944866
 30
0.0
 11
205.8769912080036
 21
39.343631932878168
 31
0.0
  0
LINE
  5
6778
  8
0
 10
199.90605879822721
 20
39.2531702108597
 30
0.0
 11
199.90605879822721
 21
70.253170210859707
 31
0.0
  0
LINE
  5
6779
  8
0
 10
197.2669227399391
 20
41.38311682226945
 30
0.0
 11
197.2669227399391
 21
68.123223599449943
 31
0.0
  0
LINE
  5
677A
  8
0
 10
196.60702544203579
 20
44.438196905154818
 30
0.0
 11
196.60702544203579
 21
65.068143516564575
 31
0.0
  0
LINE
  5
677B
  8
0
 10
195.28745741289171
 20
45.5031702108597
 30
0.0
 11
195.28745741289171
 21
64.003170210859707
 31
0.0
  0
LINE
  5
677C
  8
0
 10
179.57699120800359
 20
45.5031702108597
 30
0.0
 11
179.57699120800359
 21
64.003170210859707
 31
0.0
  0
LINE
  5
677F
  8
0
 10
136.3769912080036
 20
59.7531702108597
 30
0.0
 11
129.8769912080036
 21
59.7531702108597
 31
0.0
  0
LINE
  5
6782
  8
0
 10
129.8769912080036
 20
49.7531702108597
 30
0.0
 11
136.37699120800349
 21
49.7531702108597
 31
0.0
  0
ARC
  5
6783
  8
0
 10
133.6269912080036
 20
54.753170210859722
 30
0.0
 40
7.2499999999999858
 50
139.35219968656619
 51
220.64780031343369
  0
LINE
  5
6784
  8
0
 10
129.8769912080036
 20
59.7531702108597
 30
0.0
 11
128.1262123386968
 21
59.475874079512529
 31
0.0
  0
LINE
  5
6785
  8
0
 10
128.1262123386968
 20
50.030466342206871
 30
0.0
 11
129.8769912080036
 21
49.7531702108597
 31
0.0
  0
LINE
  5
6786
  8
0
 10
206.3769912080036
 20
69.753170210859693
 30
0.0
 11
205.8769912080036
 21
70.253170210859707
 31
0.0
  0
LINE
  5
6787
  8
0
 10
205.8769912080036
 20
39.2531702108597
 30
0.0
 11
206.3769912080036
 21
39.753170210859693
 31
0.0
  0
LINE
  5
6789
  8
0
 10
199.90605879822721
 20
39.2531702108597
 30
0.0
 11
205.8769912080036
 21
39.2531702108597
 31
0.0
  0
LINE
  5
678A
  8
0
 10
205.8769912080036
 20
70.253170210859707
 30
0.0
 11
199.90605879822721
 21
70.253170210859707
 31
0.0
  0
ARC
  5
678B
  8
0
 10
199.90605879822721
 20
67.553170210859705
 30
0.0
 40
2.6999999999999948
 50
89.999999999999986
 51
167.81136679806841
  0
ARC
  5
678C
  8
0
 10
199.90605879822721
 20
41.95317021085971
 30
0.0
 40
2.6999999999999931
 50
192.18863320193159
 51
270.0
  0
LINE
  5
678D
  8
0
 10
196.60702544203579
 20
44.438196905154818
 30
0.0
 11
197.2669227399391
 21
41.38311682226945
 31
0.0
  0
LINE
  5
678E
  8
0
 10
197.2669227399391
 20
68.123223599449943
 30
0.0
 11
196.60702544203579
 21
65.068143516564575
 31
0.0
  0
ARC
  5
678F
  8
0
 10
195.28745741289171
 20
65.353170210859716
 30
0.0
 40
1.3500000000000081
 50
270.0
 51
347.81136679806741
  0
ARC
  5
6790
  8
0
 10
195.28745741289171
 20
44.153170210859699
 30
0.0
 40
1.3500000000000101
 50
12.188633201932539
 51
89.999999999999986
  0
LINE
  5
6791
  8
0
 10
179.57699120800359
 20
45.5031702108597
 30
0.0
 11
195.28745741289171
 21
45.5031702108597
 31
0.0
  0
LINE
  5
6792
  8
0
 10
195.28745741289171
 20
64.003170210859707
 30
0.0
 11
179.57699120800359
 21
64.003170210859707
 31
0.0
  0
LINE
  5
6793
  8
0
 10
179.37699120800349
 20
48.648170210859703
 30
0.0
 11
179.57699120800359
 21
48.648170210859703
 31
0.0
  0
LINE
  5
6794
  8
0
 10
179.57699120800359
 20
60.858170210859711
 30
0.0
 11
179.37699120800349
 21
60.858170210859711
 31
0.0
  0
LINE
  5
6797
  8
3
 10
136.37699120800349
 20
45.673170210859709
 30
0.0
 11
169.3769912080036
 21
45.673170210859723
 31
0.0
  0
LINE
  5
679A
  8
3
 10
136.37699120800349
 20
63.833170210859713
 30
0.0
 11
169.3769912080036
 21
63.833170210859699
 31
0.0
  0
LINE
  5
67A0
  8
0
 10
178.9210204804024
 20
42.051464288687932
 30
0.0
 11
169.3769912080036
 21
42.051464288687932
 31
0.0
  0
POLYLINE
  5
67A1
  8
0
 66
     1
 10
0.0
 20
0.0
 30
0.0
  0
VERTEX
  5
6F1F
  8
0
 10
179.37699120800349
 20
45.226890769230877
 30
0.0
  0
VERTEX
  5
6F20
  8
0
 10
179.36445676166059
 20
44.719118555093971
 30
0.0
  0
VERTEX
  5
6F21
  8
0
 10
179.26511756728729
 20
43.697207810319291
 30
0.0
  0
VERTEX
  5
6F22
  8
0
 10
179.06364467463681
 20
42.624252238709829
 30
0.0
  0
VERTEX
  5
6F23
  8
0
 10
178.9210204804024
 20
42.051464288687932
 30
0.0
  0
SEQEND
  5
6F24
  8
0
  0
POLYLINE
  5
67A2
  8
0
 66
     1
 10
0.0
 20
0.0
 30
0.0
  0
VERTEX
  5
6F25
  8
0
 10
178.9210204804024
 20
48.40231724977383
 30
0.0
  0
VERTEX
  5
6F26
  8
0
 10
179.06364467463681
 20
47.829529299751947
 30
0.0
  0
VERTEX
  5
6F27
  8
0
 10
179.26511756728729
 20
46.756573728142449
 30
0.0
  0
VERTEX
  5
6F28
  8
0
 10
179.36445676166059
 20
45.734662983367791
 30
0.0
  0
VERTEX
  5
6F29
  8
0
 10
179.37699120800349
 20
45.226890769230877
 30
0.0
  0
SEQEND
  5
6F2A
  8
0
  0
LINE
  5
67A3
  8
0
 10
178.9210204804024
 20
48.40231724977383
 30
0.0
 11
169.3769912080036
 21
48.402317249773823
 31
0.0
  0
POLYLINE
  5
67AB
  8
0
 66
     1
 10
0.0
 20
0.0
 30
0.0
  0
VERTEX
  5
6F2B
  8
0
 10
179.37699120800349
 20
54.7531702108597
 30
0.0
  0
VERTEX
  5
6F2C
  8
0
 10
179.36445676166059
 20
53.73762578258588
 30
0.0
  0
VERTEX
  5
6F2D
  8
0
 10
179.26511756728729
 20
51.693804293036543
 30
0.0
  0
VERTEX
  5
6F2E
  8
0
 10
179.06364467463681
 20
49.547893149817568
 30
0.0
  0
VERTEX
  5
6F2F
  8
0
 10
178.9210204804024
 20
48.40231724977383
 30
0.0
  0
SEQEND
  5
6F30
  8
0
  0
POLYLINE
  5
67AC
  8
0
 66
     1
 10
0.0
 20
0.0
 30
0.0
  0
VERTEX
  5
6F31
  8
0
 10
178.9210204804024
 20
61.104023171945592
 30
0.0
  0
VERTEX
  5
6F32
  8
0
 10
179.06364467463681
 20
59.958447271901854
 30
0.0
  0
VERTEX
  5
6F33
  8
0
 10
179.26511756728729
 20
57.812536128682879
 30
0.0
  0
VERTEX
  5
6F34
  8
0
 10
179.36445676166059
 20
55.768714639133528
 30
0.0
  0
VERTEX
  5
6F35
  8
0
 10
179.37699120800349
 20
54.7531702108597
 30
0.0
  0
SEQEND
  5
6F36
  8
0
  0
LINE
  5
67AD
  8
0
 10
178.9210204804024
 20
61.104023171945592
 30
0.0
 11
169.3769912080036
 21
61.104023171945592
 31
0.0
  0
POLYLINE
  5
67B0
  8
0
 66
     1
 10
0.0
 20
0.0
 30
0.0
  0
VERTEX
  5
6F37
  8
0
 10
179.37699120800349
 20
64.279449652488537
 30
0.0
  0
VERTEX
  5
6F38
  8
0
 10
179.36445676166059
 20
63.771677438351617
 30
0.0
  0
VERTEX
  5
6F39
  8
0
 10
179.26511756728729
 20
62.749766693576952
 30
0.0
  0
VERTEX
  5
6F3A
  8
0
 10
179.06364467463681
 20
61.676811121967461
 30
0.0
  0
VERTEX
  5
6F3B
  8
0
 10
178.9210204804024
 20
61.104023171945592
 30
0.0
  0
SEQEND
  5
6F3C
  8
0
  0
POLYLINE
  5
67B1
  8
0
 66
     1
 10
0.0
 20
0.0
 30
0.0
  0
VERTEX
  5
6F3D
  8
0
 10
178.9210204804024
 20
67.454876133031462
 30
0.0
  0
VERTEX
  5
6F3E
  8
0
 10
179.06364467463681
 20
66.8820881830096
 30
0.0
  0
VERTEX
  5
6F3F
  8
0
 10
179.26511756728729
 20
65.809132611400116
 30
0.0
  0
VERTEX
  5
6F40
  8
0
 10
179.36445676166059
 20
64.787221866625444
 30
0.0
  0
VERTEX
  5
6F41
  8
0
 10
179.37699120800349
 20
64.279449652488537
 30
0.0
  0
SEQEND
  5
6F42
  8
0
  0
LINE
  5
67B2
  8
0
 10
178.9210204804024
 20
67.454876133031462
 30
0.0
 11
169.3769912080036
 21
67.454876133031462
 31
0.0
  0
LINE
  5
67B7
  8
0
 10
169.3769912080036
 20
42.051464288687939
 30
0.0
 11
169.3769912080036
 21
67.454876133031462
 31
0.0
  0
LINE
  5
67B8
  8
0
 10
179.37699120800349
 20
43.753170210859707
 30
0.0
 11
179.37699120800349
 21
65.753170210859707
 31
0.0
  0
LINE
  5
67B9
  8
0
 10
137.29699120800359
 20
64.753170210859693
 30
0.0
 11
137.29699120800359
 21
44.7531702108597
 31
0.0
  0
LINE
  5
67BA
  8
0
 10
136.37699120800349
 20
63.833170210859713
 30
0.0
 11
136.37699120800349
 21
45.673170210859709
 31
0.0
  0
LINE
  5
67C1
  8
0
 10
179.37699120800349
 20
65.753170210859707
 30
0.0
 11
178.9210204804024
 21
67.454876133031462
 31
0.0
  0
LINE
  5
67C2
  8
0
 10
178.9210204804024
 20
42.051464288687932
 30
0.0
 11
179.37699120800349
 21
43.753170210859707
 31
0.0
  0
LINE
  5
67C3
  8
0
 10
137.29699120800359
 20
64.753170210859693
 30
0.0
 11
136.37699120800349
 21
63.833170210859713
 31
0.0
  0
LINE
  5
67C4
  8
0
 10
136.37699120800349
 20
45.673170210859709
 30
0.0
 11
137.29699120800359
 21
44.7531702108597
 31
0.0
  0
LINE
  5
67C5
  8
0
 10
169.3769912080036
 20
64.753170210859693
 30
0.0
 11
137.29699120800359
 21
64.753170210859693
 31
0.0
  0
LINE
  5
67C6
  8
0
 10
137.29699120800359
 20
44.7531702108597
 30
0.0
 11
169.3769912080036
 21
44.7531702108597
 31
0.0
  0
LINE
  5
67CE
  8
0
 10
79.856179281173581
 20
48.40231724977383
 30
0.0
 11
79.856179281173581
 21
61.104023171945592
 31
0.0
  0
LINE
  5
67CF
  8
0
 10
79.856179281173581
 20
48.40231724977383
 30
0.0
 11
68.856179281173581
 21
42.051464288687953
 31
0.0
  0
LINE
  5
67D0
  8
0
 10
68.856179281173581
 20
42.051464288687953
 30
0.0
 11
57.856179281173581
 21
48.40231724977383
 31
0.0
  0
LINE
  5
67D1
  8
0
 10
68.856179281173581
 20
67.454876133031462
 30
0.0
 11
57.856179281173581
 21
61.104023171945592
 31
0.0
  0
LINE
  5
67D2
  8
0
 10
57.856179281173581
 20
48.40231724977383
 30
0.0
 11
57.856179281173581
 21
61.104023171945592
 31
0.0
  0
LINE
  5
67D3
  8
0
 10
79.856179281173581
 20
61.104023171945592
 30
0.0
 11
68.856179281173581
 21
67.454876133031462
 31
0.0
  0
CIRCLE
  5
67D4
  8
0
 10
68.856179281173581
 20
54.7531702108597
 30
0.0
 40
10.0
  0
CIRCLE
  5
67D5
  8
3
 10
68.856179281173581
 20
54.753170210859693
 30
0.0
 40
9.0799999999999983
  0
CIRCLE
  5
67D6
  8
0
 10
68.856179281173581
 20
54.753170210859693
 30
0.0
 40
5.0000000000000142
  0
CIRCLE
  5
67D7
  8
0
 10
68.856179281173581
 20
54.7531702108597
 30
0.0
 40
4.7227038686528351
  0
ARC
  5
67E4
  8
0
 10
68.856179281173695
 20
54.753170210861299
 30
0.0
 40
14.999999999998421
 50
81.221789385365497
 51
86.778210614634176
  0
ARC
  5
67E5
  8
0
 10
68.856179281173581
 20
54.753170210860532
 30
0.0
 40
14.999999999999179
 50
87.221789385366066
 51
92.778210614633906
  0
ARC
  5
67E6
  8
0
 10
68.856179281173695
 20
54.75317021086056
 30
0.0
 40
14.99999999999911
 50
75.221789385365639
 51
80.778210614633934
  0
ARC
  5
67E7
  8
0
 10
68.856179281173354
 20
54.753170210861327
 30
0.0
 40
14.999999999998369
 50
93.221789385365824
 51
98.778210614634077
  0
ARC
  5
67E8
  8
0
 10
68.856179281173468
 20
54.753170210859423
 30
0.0
 40
15.000000000000311
 50
69.221789385365923
 51
74.778210614633835
  0
ARC
  5
67E9
  8
0
 10
68.856179281173695
 20
54.753170210858741
 30
0.0
 40
15.000000000000981
 50
99.221789385366421
 51
104.77821061463349
  0
ARC
  5
67EA
  8
0
 10
68.856179281173468
 20
54.753170210859508
 30
0.0
 40
15.00000000000022
 50
63.22178938536603
 51
68.778210614633622
  0
ARC
  5
67EB
  8
0
 10
68.856179281173183
 20
54.753170210860837
 30
0.0
 40
14.999999999998799
 50
105.22178938536609
 51
110.77821061463401
  0
ARC
  5
67EC
  8
0
 10
68.85617928117432
 20
54.753170210861072
 30
0.0
 40
14.999999999998449
 50
57.221789385365298
 51
62.778210614633892
  0
ARC
  5
67ED
  8
0
 10
68.856179281173468
 20
54.753170210859821
 30
0.0
 40
14.999999999999879
 50
111.22178938536631
 51
116.77821061463391
  0
ARC
  5
67EE
  8
0
 10
68.856179281173524
 20
54.753170210859651
 30
0.0
 40
15.00000000000005
 50
51.221789385366087
 51
56.778210614633679
  0
ARC
  5
67EF
  8
0
 10
68.856179281173411
 20
54.753170210859928
 30
0.0
 40
14.999999999999741
 50
117.22178938536609
 51
122.77821061463349
  0
ARC
  5
67F0
  8
0
 10
68.856179281173809
 20
54.753170210859928
 30
0.0
 40
14.999999999999661
 50
45.221789385365852
 51
50.778210614633672
  0
ARC
  5
67F1
  8
0
 10
68.856179281172274
 20
54.75317021086147
 30
0.0
 40
14.99999999999781
 50
123.22178938536619
 51
128.77821061463419
  0
ARC
  5
67F2
  8
0
 10
68.856179281175059
 20
54.753170210861043
 30
0.0
 40
14.999999999997989
 50
39.221789385366023
 51
44.778210614634119
  0
ARC
  5
67F3
  8
0
 10
68.856179281175628
 20
54.75317021085732
 30
0.0
 40
15.000000000003171
 50
129.22178938536661
 51
134.778210614633
  0
ARC
  5
67F4
  8
0
 10
68.856179281172331
 20
54.753170210858819
 30
0.0
 40
15.00000000000148
 50
33.221789385366293
 51
38.778210614633892
  0
ARC
  5
67F5
  8
0
 10
68.856179281171535
 20
54.753170210861548
 30
0.0
 40
14.99999999999724
 50
135.22178938536581
 51
140.77821061463399
  0
ARC
  5
67F6
  8
0
 10
68.856179281172331
 20
54.753170210858968
 30
0.0
 40
15.000000000001419
 50
27.221789385366431
 51
32.778210614633551
  0
ARC
  5
67F7
  8
0
 10
68.85617928117324
 20
54.753170210859913
 30
0.0
 40
14.999999999999609
 50
141.22178938536601
 51
146.77821061463371
  0
ARC
  5
67F8
  8
0
 10
68.856179281174605
 20
54.753170210860162
 30
0.0
 40
14.999999999998851
 50
21.221789385365831
 51
26.778210614633949
  0
ARC
  5
67F9
  8
0
 10
68.856179281173581
 20
54.7531702108597
 30
0.0
 40
14.99999999999998
 50
147.22178938536641
 51
152.77821061463351
  0
ARC
  5
67FA
  8
0
 10
68.856179281170853
 20
54.753170210858848
 30
0.0
 40
15.000000000002821
 50
15.221789385366559
 51
20.778210614633139
  0
ARC
  5
67FB
  8
0
 10
68.85617928117324
 20
54.753170210859821
 30
0.0
 40
14.99999999999967
 50
153.22178938536601
 51
158.77821061463411
  0
ARC
  5
67FC
  8
0
 10
68.856179281172672
 20
54.75317021085953
 30
0.0
 40
15.000000000000901
 50
9.2217893853660424
 51
14.778210614633821
  0
ARC
  5
67FD
  8
0
 10
68.856179281172672
 20
54.753170210859992
 30
0.0
 40
14.99999999999908
 50
159.22178938536601
 51
164.77821061463339
  0
ARC
  5
67FE
  8
0
 10
68.856179281175173
 20
54.753170210859878
 30
0.0
 40
14.99999999999841
 50
3.221789385365422
 51
8.7782106146344674
  0
ARC
  5
67FF
  8
0
 10
68.856179281174036
 20
54.753170210859601
 30
0.0
 40
15.00000000000049
 50
165.22178938536609
 51
170.77821061463391
  0
ARC
  5
6800
  8
0
 10
68.85617928117523
 20
54.7531702108597
 30
0.0
 40
14.99999999999833
 50
357.2217893853657
 51
2.7782106146343311
  0
ARC
  5
6801
  8
0
 10
68.856179281173809
 20
54.753170210859679
 30
0.0
 40
15.000000000000281
 50
171.22178938536629
 51
176.77821061463371
  0
ARC
  5
6802
  8
0
 10
68.856179281174533
 20
54.753170210859601
 30
0.0
 40
14.999999999999
 50
351.22178938536632
 51
356.77821061463368
  0
ARC
  5
6803
  8
0
 10
68.856179281173524
 20
54.7531702108597
 30
0.0
 40
14.999999999999959
 50
177.22178938536649
 51
182.77821061463351
  0
ARC
  5
6804
  8
0
 10
68.856179281174605
 20
54.75317021085953
 30
0.0
 40
14.99999999999897
 50
345.22178938536609
 51
350.77821061463402
  0
ARC
  5
6805
  8
0
 10
68.856179281171762
 20
54.75317021085953
 30
0.0
 40
14.999999999998231
 50
183.22178938536621
 51
188.77821061463439
  0
ARC
  5
6806
  8
0
 10
68.856179281173809
 20
54.753170210859651
 30
0.0
 40
14.99999999999976
 50
339.22178938536609
 51
344.77821061463339
  0
ARC
  5
6807
  8
0
 10
68.856179281174363
 20
54.753170210859842
 30
0.0
 40
15.00000000000086
 50
189.22178938536601
 51
194.77821061463311
  0
ARC
  5
6808
  8
0
 10
68.856179281173411
 20
54.7531702108597
 30
0.0
 40
15.00000000000013
 50
333.22178938536598
 51
338.77821061463419
  0
ARC
  5
6809
  8
0
 10
68.856179281174946
 20
54.753170210860162
 30
0.0
 40
15.00000000000148
 50
195.22178938536661
 51
200.7782106146332
  0
ARC
  5
680A
  8
0
 10
68.856179281172331
 20
54.753170210860389
 30
0.0
 40
15.000000000001361
 50
327.22178938536638
 51
332.77821061463362
  0
ARC
  5
680B
  8
0
 10
68.856179281174661
 20
54.753170210860219
 30
0.0
 40
15.00000000000122
 50
201.2217893853668
 51
206.77821061463391
  0
ARC
  5
680C
  8
0
 10
68.856179281173581
 20
54.753170210859679
 30
0.0
 40
14.999999999999959
 50
321.22178938536609
 51
326.77821061463368
  0
ARC
  5
680D
  8
0
 10
68.856179281174946
 20
54.753170210860532
 30
0.0
 40
15.00000000000165
 50
207.22178938536649
 51
212.77821061463359
  0
ARC
  5
680E
  8
0
 10
68.856179281173354
 20
54.753170210859878
 30
0.0
 40
15.000000000000259
 50
315.22178938536581
 51
320.77821061463402
  0
ARC
  5
680F
  8
0
 10
68.856179281173922
 20
54.753170210859992
 30
0.0
 40
15.00000000000048
 50
213.22178938536629
 51
218.77821061463391
  0
ARC
  5
6810
  8
0
 10
68.856179281171876
 20
54.75317021086164
 30
0.0
 40
15.00000000000257
 50
309.22178938536661
 51
314.77821061463288
  0
ARC
  5
6811
  8
0
 10
68.856179281173809
 20
54.753170210859928
 30
0.0
 40
15.000000000000339
 50
219.22178938536609
 51
224.77821061463411
  0
ARC
  5
6812
  8
0
 10
68.856179281173468
 20
54.753170210859757
 30
0.0
 40
15.000000000000069
 50
303.22178938536632
 51
308.77821061463391
  0
ARC
  5
6813
  8
0
 10
68.856179281171976
 20
54.753170210857917
 30
0.0
 40
14.99999999999762
 50
225.22178938536589
 51
230.77821061463371
  0
ARC
  5
6814
  8
0
 10
68.85617928117324
 20
54.753170210860219
 30
0.0
 40
15.000000000000581
 50
297.22178938536649
 51
302.77821061463351
  0
ARC
  5
6815
  8
0
 10
68.856179281172615
 20
54.7531702108584
 30
0.0
 40
14.9999999999984
 50
231.22178938536609
 51
236.77821061463371
  0
ARC
  5
6816
  8
0
 10
68.856179281173922
 20
54.753170210858741
 30
0.0
 40
14.99999999999897
 50
291.22178938536638
 51
296.77821061463402
  0
ARC
  5
6817
  8
0
 10
68.856179281173127
 20
54.753170210859032
 30
0.0
 40
14.999999999999231
 50
237.22178938536641
 51
242.77821061463391
  0
ARC
  5
6818
  8
0
 10
68.856179281173695
 20
54.753170210859203
 30
0.0
 40
14.999999999999449
 50
285.22178938536621
 51
290.77821061463402
  0
ARC
  5
6819
  8
0
 10
68.856179281173752
 20
54.753170210860269
 30
0.0
 40
15.00000000000059
 50
243.22178938536641
 51
248.77821061463359
  0
ARC
  5
681A
  8
0
 10
68.856179281173468
 20
54.753170210860361
 30
0.0
 40
15.000000000000661
 50
279.22178938536598
 51
284.77821061463362
  0
ARC
  5
681B
  8
0
 10
68.856179281173866
 20
54.75317021086056
 30
0.0
 40
15.000000000000909
 50
249.22178938536589
 51
254.77821061463339
  0
ARC
  5
681C
  8
0
 10
68.856179281173695
 20
54.753170210858848
 30
0.0
 40
14.999999999999149
 50
273.22178938536581
 51
278.77821061463408
  0
ARC
  5
681D
  8
0
 10
68.856179281173297
 20
54.753170210858343
 30
0.0
 40
14.9999999999986
 50
255.2217893853657
 51
260.77821061463391
  0
ARC
  5
681E
  8
0
 10
68.856179281173524
 20
54.753170210858968
 30
0.0
 40
14.99999999999927
 50
267.22178938536649
 51
272.77821061463391
  0
ARC
  5
681F
  8
0
 10
68.856179281173524
 20
54.753170210859601
 30
0.0
 40
14.999999999999901
 50
261.22178938536592
 51
266.77821061463368
  0
LINE
  5
6820
  8
0
 10
68.073233375779068
 20
69.692668050788114
 30
0.0
 11
68.013161213792273
 21
69.729462159739043
 31
0.0
  0
POLYLINE
  5
6821
  8
0
 66
     1
 10
0.0
 20
0.0
 30
0.0
  0
VERTEX
  5
6F43
  8
0
 10
68.013161213792273
 20
69.729462159739043
 30
0.0
  0
VERTEX
  5
6F44
  8
0
 10
67.893922945601503
 20
69.802495419835452
 30
0.0
  0
VERTEX
  5
6F45
  8
0
 10
67.653542559806965
 20
69.949728044932925
 30
0.0
  0
VERTEX
  5
6F46
  8
0
 10
67.410520114903193
 20
70.098578927264811
 30
0.0
  0
VERTEX
  5
6F47
  8
0
 10
67.287978630593216
 20
70.173635402270747
 30
0.0
  0
SEQEND
  5
6F48
  8
0
  0
LINE
  5
6822
  8
0
 10
66.515919684171706
 20
69.528987786162929
 30
0.0
 11
66.452330572107712
 21
69.559301082357592
 31
0.0
  0
POLYLINE
  5
6823
  8
0
 66
     1
 10
0.0
 20
0.0
 30
0.0
  0
VERTEX
  5
6F49
  8
0
 10
66.452330572107712
 20
69.559301082357592
 30
0.0
  0
VERTEX
  5
6F4A
  8
0
 10
66.326111449181099
 20
69.619470465676784
 30
0.0
  0
VERTEX
  5
6F4B
  8
0
 10
66.071657892246947
 20
69.740769942722054
 30
0.0
  0
VERTEX
  5
6F4C
  8
0
 10
65.814407595737805
 20
69.863402641640761
 30
0.0
  0
VERTEX
  5
6F4D
  8
0
 10
65.684691868510072
 20
69.925238876381798
 30
0.0
  0
SEQEND
  5
6F4E
  8
0
  0
LINE
  5
6824
  8
0
 10
64.984246366439834
 20
69.203420572144125
 30
0.0
 11
64.917836999917427
 21
69.226920936765907
 31
0.0
  0
POLYLINE
  5
6825
  8
0
 66
     1
 10
0.0
 20
0.0
 30
0.0
  0
VERTEX
  5
6F4F
  8
0
 10
64.917836999917427
 20
69.226920936765907
 30
0.0
  0
VERTEX
  5
6F50
  8
0
 10
64.786019905378339
 20
69.273567214953232
 30
0.0
  0
VERTEX
  5
6F51
  8
0
 10
64.520281023722475
 20
69.367604561492101
 30
0.0
  0
VERTEX
  5
6F52
  8
0
 10
64.251621363690106
 20
69.462675487485484
 30
0.0
  0
VERTEX
  5
6F53
  8
0
 10
64.116152586196449
 20
69.510613991233896
 30
0.0
  0
SEQEND
  5
6F54
  8
0
  0
LINE
  5
6826
  8
0
 10
63.494994755975881
 20
68.719533391257812
 30
0.0
 11
63.426492729911608
 21
68.735963349394126
 31
0.0
  0
POLYLINE
  5
6827
  8
0
 66
     1
 10
0.0
 20
0.0
 30
0.0
  0
VERTEX
  5
6F55
  8
0
 10
63.426492729911608
 20
68.735963349394126
 30
0.0
  0
VERTEX
  5
6F56
  8
0
 10
63.29052187943261
 20
68.768575456064298
 30
0.0
  0
VERTEX
  5
6F57
  8
0
 10
63.016409163851733
 20
68.834320379249561
 30
0.0
  0
VERTEX
  5
6F58
  8
0
 10
62.739283631751732
 20
68.900787915357739
 30
0.0
  0
VERTEX
  5
6F59
  8
0
 10
62.599546028267469
 20
68.934303463834567
 30
0.0
  0
SEQEND
  5
6F5A
  8
0
  0
LINE
  5
6828
  8
0
 10
62.064481405069962
 20
68.082627812717647
 30
0.0
 11
61.994637241996429
 21
68.091807354308983
 31
0.0
  0
POLYLINE
  5
6829
  8
0
 66
     1
 10
0.0
 20
0.0
 30
0.0
  0
VERTEX
  5
6F5B
  8
0
 10
61.994637241996429
 20
68.091807354308983
 30
0.0
  0
VERTEX
  5
6F5C
  8
0
 10
61.856002360669208
 20
68.110027984396794
 30
0.0
  0
VERTEX
  5
6F5D
  8
0
 10
61.576519047436818
 20
68.146760169092033
 30
0.0
  0
VERTEX
  5
6F5E
  8
0
 10
61.293963888591179
 20
68.183896083080185
 30
0.0
  0
VERTEX
  5
6F5F
  8
0
 10
61.151488453541901
 20
68.202621472922743
 30
0.0
  0
SEQEND
  5
6F60
  8
0
  0
LINE
  5
682A
  8
0
 10
60.708379317348772
 20
67.299681907323205
 30
0.0
 11
60.637958244532449
 21
67.301510459390954
 31
0.0
  0
POLYLINE
  5
682B
  8
0
 66
     1
 10
0.0
 20
0.0
 30
0.0
  0
VERTEX
  5
6F61
  8
0
 10
60.637958244532449
 20
67.301510459390954
 30
0.0
  0
VERTEX
  5
6F62
  8
0
 10
60.498178245127967
 20
67.305139983860244
 30
0.0
  0
VERTEX
  5
6F63
  8
0
 10
60.216386411909411
 20
67.312456984563255
 30
0.0
  0
VERTEX
  5
6F64
  8
0
 10
59.931497359766809
 20
67.31985440758649
 30
0.0
  0
VERTEX
  5
6F65
  8
0
 10
59.787845083834164
 20
67.323584479505143
 30
0.0
  0
SEQEND
  5
6F66
  8
0
  0
LINE
  5
682C
  8
0
 10
59.441546231068003
 20
66.379273794255937
 30
0.0
 11
59.371319796519167
 21
66.373731322801007
 31
0.0
  0
POLYLINE
  5
682D
  8
0
 66
     1
 10
0.0
 20
0.0
 30
0.0
  0
VERTEX
  5
6F67
  8
0
 10
59.371319796519167
 20
66.373731322801007
 30
0.0
  0
VERTEX
  5
6F68
  8
0
 10
59.231926137961693
 20
66.362729975822162
 30
0.0
  0
VERTEX
  5
6F69
  8
0
 10
58.950913155050841
 20
66.340551625942055
 30
0.0
  0
VERTEX
  5
6F6A
  8
0
 10
58.66681151368357
 20
66.318129510285729
 30
0.0
  0
VERTEX
  5
6F6B
  8
0
 10
58.523556281263382
 20
66.306823396831959
 30
0.0
  0
SEQEND
  5
6F6C
  8
0
  0
LINE
  5
682E
  8
0
 10
58.277861834622847
 20
65.331487657410435
 30
0.0
 11
58.208599453854283
 21
65.318634886909877
 31
0.0
  0
POLYLINE
  5
682F
  8
0
 66
     1
 10
0.0
 20
0.0
 30
0.0
  0
VERTEX
  5
6F6D
  8
0
 10
58.208599453854283
 20
65.318634886909877
 30
0.0
  0
VERTEX
  5
6F6E
  8
0
 10
58.071119362236907
 20
65.293123201542585
 30
0.0
  0
VERTEX
  5
6F6F
  8
0
 10
57.793964066680019
 20
65.24169249172175
 30
0.0
  0
VERTEX
  5
6F70
  8
0
 10
57.51376251312297
 20
65.189696498777096
 30
0.0
  0
VERTEX
  5
6F71
  8
0
 10
57.372473858519932
 20
65.16347807209587
 30
0.0
  0
SEQEND
  5
6F72
  8
0
  0
LINE
  5
6830
  8
0
 10
57.230075697777288
 20
64.167803260965243
 30
0.0
 11
57.162536223926793
 21
64.1477810090623
 31
0.0
  0
POLYLINE
  5
6831
  8
0
 66
     1
 10
0.0
 20
0.0
 30
0.0
  0
VERTEX
  5
6F73
  8
0
 10
57.162536223926793
 20
64.1477810090623
 30
0.0
  0
VERTEX
  5
6F74
  8
0
 10
57.028475959902721
 20
64.108038496670133
 30
0.0
  0
VERTEX
  5
6F75
  8
0
 10
56.758214923116611
 20
64.027918912527923
 30
0.0
  0
VERTEX
  5
6F76
  8
0
 10
56.484983404226618
 20
63.946918721274557
 30
0.0
  0
VERTEX
  5
6F77
  8
0
 10
56.347209315506973
 20
63.906075235935127
 30
0.0
  0
SEQEND
  5
6F78
  8
0
  0
LINE
  5
6832
  8
0
 10
56.309667584710041
 20
62.900970174684488
 30
0.0
 11
56.244590994386613
 21
62.87399780936093
 31
0.0
  0
POLYLINE
  5
6833
  8
0
 66
     1
 10
0.0
 20
0.0
 30
0.0
  0
VERTEX
  5
6F79
  8
0
 10
56.244590994386613
 20
62.87399780936093
 30
0.0
  0
VERTEX
  5
6F7A
  8
0
 10
56.115419350262577
 20
62.820459897226243
 30
0.0
  0
VERTEX
  5
6F7B
  8
0
 10
55.855013608721947
 20
62.712529245692672
 30
0.0
  0
VERTEX
  5
6F7C
  8
0
 10
55.59174570619728
 20
62.603412311176392
 30
0.0
  0
VERTEX
  5
6F7D
  8
0
 10
55.458995665108091
 20
62.54839125695117
 30
0.0
  0
SEQEND
  5
6F7E
  8
0
  0
LINE
  5
6834
  8
0
 10
55.526721679315578
 20
61.544868086963298
 30
0.0
 11
55.464820965261019
 21
61.51124112309796
 31
0.0
  0
POLYLINE
  5
6835
  8
0
 66
     1
 10
0.0
 20
0.0
 30
0.0
  0
VERTEX
  5
6F7F
  8
0
 10
55.464820965261019
 20
61.511241123097932
 30
0.0
  0
VERTEX
  5
6F80
  8
0
 10
55.341953172601052
 20
61.444494383789731
 30
0.0
  0
VERTEX
  5
6F81
  8
0
 10
55.094255786103417
 20
61.309935175668869
 30
0.0
  0
VERTEX
  5
6F82
  8
0
 10
54.843835918176289
 20
61.173897005858237
 30
0.0
  0
VERTEX
  5
6F83
  8
0
 10
54.71756436194778
 20
61.105301204931322
 30
0.0
  0
SEQEND
  5
6F84
  8
0
  0
LINE
  5
6836
  8
0
 10
54.88981610077542
 20
60.114354736057379
 30
0.0
 11
54.83176946016647
 21
60.074441597703242
 31
0.0
  0
POLYLINE
  5
6837
  8
0
 66
     1
 10
0.0
 20
0.0
 30
0.0
  0
VERTEX
  5
6F85
  8
0
 10
54.83176946016647
 20
60.074441597703242
 30
0.0
  0
VERTEX
  5
6F86
  8
0
 10
54.716551684218359
 20
59.995217322464782
 30
0.0
  0
VERTEX
  5
6F87
  8
0
 10
54.484276477164599
 20
59.835503816599299
 30
0.0
  0
VERTEX
  5
6F88
  8
0
 10
54.249448296312039
 20
59.674034874150863
 30
0.0
  0
VERTEX
  5
6F89
  8
0
 10
54.131038682537792
 20
59.592615876471591
 30
0.0
  0
SEQEND
  5
6F8A
  8
0
  0
LINE
  5
6838
  8
0
 10
54.405928919889099
 20
58.625103125593398
 30
0.0
 11
54.35237232386725
 21
58.579341109446631
 31
0.0
  0
POLYLINE
  5
6839
  8
0
 66
     1
 10
0.0
 20
0.0
 30
0.0
  0
VERTEX
  5
6F8B
  8
0
 10
54.35237232386725
 20
58.579341109446659
 30
0.0
  0
VERTEX
  5
6F8C
  8
0
 10
54.246066914695568
 20
58.4885072960165
 30
0.0
  0
VERTEX
  5
6F8D
  8
0
 10
54.031758742860461
 20
58.305389346998631
 30
0.0
  0
VERTEX
  5
6F8E
  8
0
 10
53.815095075772547
 20
58.1202587194351
 30
0.0
  0
VERTEX
  5
6F8F
  8
0
 10
53.705844724960343
 20
58.026908568580268
 30
0.0
  0
SEQEND
  5
6F90
  8
0
  0
LINE
  5
683A
  8
0
 10
54.080361705870359
 20
57.093429807861547
 30
0.0
 11
54.031881931708988
 21
57.042320292147402
 31
0.0
  0
POLYLINE
  5
683B
  8
0
 66
     1
 10
0.0
 20
0.0
 30
0.0
  0
VERTEX
  5
6F91
  8
0
 10
54.031881931708988
 20
57.042320292147402
 30
0.0
  0
VERTEX
  5
6F92
  8
0
 10
53.935653593622312
 20
56.940872134793601
 30
0.0
  0
VERTEX
  5
6F93
  8
0
 10
53.741660462183461
 20
56.736356021192698
 30
0.0
  0
VERTEX
  5
6F94
  8
0
 10
53.545535121336741
 20
56.529592038410811
 30
0.0
  0
VERTEX
  5
6F95
  8
0
 10
53.446641003191992
 20
56.425333498168008
 30
0.0
  0
SEQEND
  5
6F96
  8
0
  0
LINE
  5
683C
  8
0
 10
53.916681441245153
 20
55.536116116254171
 30
0.0
 11
53.873809643495171
 21
55.480219067522107
 31
0.0
  0
POLYLINE
  5
683D
  8
0
 66
     1
 10
0.0
 20
0.0
 30
0.0
  0
VERTEX
  5
6F97
  8
0
 10
53.873809643495171
 20
55.480219067522079
 30
0.0
  0
VERTEX
  5
6F98
  8
0
 10
53.788712674302587
 20
55.369268053485939
 30
0.0
  0
VERTEX
  5
6F99
  8
0
 10
53.617160012603847
 20
55.14559449664057
 30
0.0
  0
VERTEX
  5
6F9A
  8
0
 10
53.443721788274502
 20
54.919462508103891
 30
0.0
  0
VERTEX
  5
6F9B
  8
0
 10
53.356267407450453
 20
54.805437856857282
 30
0.0
  0
SEQEND
  5
6F9C
  8
0
  0
LINE
  5
683E
  8
0
 10
53.916681441245153
 20
53.970224305465251
 30
0.0
 11
53.879887332294167
 21
53.910152143478449
 31
0.0
  0
POLYLINE
  5
683F
  8
0
 66
     1
 10
0.0
 20
0.0
 30
0.0
  0
VERTEX
  5
6F9D
  8
0
 10
53.879887332294167
 20
53.910152143478449
 30
0.0
  0
VERTEX
  5
6F9E
  8
0
 10
53.806854072197901
 20
53.790913875287799
 30
0.0
  0
VERTEX
  5
6F9F
  8
0
 10
53.659621447100328
 20
53.550533489493198
 30
0.0
  0
VERTEX
  5
6FA0
  8
0
 10
53.510770564768393
 20
53.307511044589262
 30
0.0
  0
VERTEX
  5
6FA1
  8
0
 10
53.435714089762541
 20
53.184969560279342
 30
0.0
  0
SEQEND
  5
6FA2
  8
0
  0
LINE
  5
6840
  8
0
 10
54.080361705870359
 20
52.412910613857861
 30
0.0
 11
54.050048409675703
 21
52.349321501793888
 31
0.0
  0
POLYLINE
  5
6841
  8
0
 66
     1
 10
0.0
 20
0.0
 30
0.0
  0
VERTEX
  5
6FA3
  8
0
 10
54.050048409675703
 20
52.349321501793931
 30
0.0
  0
VERTEX
  5
6FA4
  8
0
 10
53.989879026356327
 20
52.223102378867111
 30
0.0
  0
VERTEX
  5
6FA5
  8
0
 10
53.868579549311107
 20
51.968648821933023
 30
0.0
  0
VERTEX
  5
6FA6
  8
0
 10
53.745946850392549
 20
51.711398525424073
 30
0.0
  0
VERTEX
  5
6FA7
  8
0
 10
53.684110615651441
 20
51.581682798196233
 30
0.0
  0
SEQEND
  5
6FA8
  8
0
  0
LINE
  5
6842
  8
0
 10
54.405928919889099
 20
50.88123729612601
 30
0.0
 11
54.382428555267317
 21
50.814827929603581
 31
0.0
  0
POLYLINE
  5
6843
  8
0
 66
     1
 10
0.0
 20
0.0
 30
0.0
  0
VERTEX
  5
6FA9
  8
0
 10
54.382428555267317
 20
50.814827929603581
 30
0.0
  0
VERTEX
  5
6FAA
  8
0
 10
54.33578227708
 20
50.683010835064522
 30
0.0
  0
VERTEX
  5
6FAB
  8
0
 10
54.241744930541188
 20
50.417271953408722
 30
0.0
  0
VERTEX
  5
6FAC
  8
0
 10
54.146674004547783
 20
50.148612293376289
 30
0.0
  0
VERTEX
  5
6FAD
  8
0
 10
54.098735500799307
 20
50.01314351588266
 30
0.0
  0
SEQEND
  5
6FAE
  8
0
  0
LINE
  5
6844
  8
0
 10
54.88981610077542
 20
49.391985685662007
 30
0.0
 11
54.873386142639113
 21
49.323483659597791
 31
0.0
  0
POLYLINE
  5
6845
  8
0
 66
     1
 10
0.0
 20
0.0
 30
0.0
  0
VERTEX
  5
6FAF
  8
0
 10
54.873386142639113
 20
49.323483659597791
 30
0.0
  0
VERTEX
  5
6FB0
  8
0
 10
54.840774035968927
 20
49.187512809118708
 30
0.0
  0
VERTEX
  5
6FB1
  8
0
 10
54.77502911278367
 20
48.913400093537859
 30
0.0
  0
VERTEX
  5
6FB2
  8
0
 10
54.708561576675493
 20
48.636274561437972
 30
0.0
  0
VERTEX
  5
6FB3
  8
0
 10
54.675046028198658
 20
48.496536957953623
 30
0.0
  0
SEQEND
  5
6FB4
  8
0
  0
LINE
  5
6846
  8
0
 10
55.526721679315578
 20
47.961472334756081
 30
0.0
 11
55.517542137724263
 21
47.891628171682612
 31
0.0
  0
POLYLINE
  5
6847
  8
0
 66
     1
 10
0.0
 20
0.0
 30
0.0
  0
VERTEX
  5
6FB5
  8
0
 10
55.517542137724263
 20
47.891628171682612
 30
0.0
  0
VERTEX
  5
6FB6
  8
0
 10
55.499321507636459
 20
47.752993290355363
 30
0.0
  0
VERTEX
  5
6FB7
  8
0
 10
55.462589322941199
 20
47.473509977123001
 30
0.0
  0
VERTEX
  5
6FB8
  8
0
 10
55.425453408953047
 20
47.190954818277298
 30
0.0
  0
VERTEX
  5
6FB9
  8
0
 10
55.40672801911046
 20
47.048479383228077
 30
0.0
  0
SEQEND
  5
6FBA
  8
0
  0
LINE
  5
6848
  8
0
 10
56.309667584710041
 20
46.605370247034926
 30
0.0
 11
56.307839032642271
 21
46.53494917421861
 31
0.0
  0
POLYLINE
  5
6849
  8
0
 66
     1
 10
0.0
 20
0.0
 30
0.0
  0
VERTEX
  5
6FBB
  8
0
 10
56.307839032642271
 20
46.53494917421861
 30
0.0
  0
VERTEX
  5
6FBC
  8
0
 10
56.304209508173017
 20
46.395169174813958
 30
0.0
  0
VERTEX
  5
6FBD
  8
0
 10
56.296892507469977
 20
46.113377341595537
 30
0.0
  0
VERTEX
  5
6FBE
  8
0
 10
56.289495084446742
 20
45.828488289453077
 30
0.0
  0
VERTEX
  5
6FBF
  8
0
 10
56.285765012528081
 20
45.684836013520297
 30
0.0
  0
SEQEND
  5
6FC0
  8
0
  0
LINE
  5
684A
  8
0
 10
57.230075697777288
 20
45.33853716075415
 30
0.0
 11
57.235618169232218
 21
45.26831072620535
 31
0.0
  0
POLYLINE
  5
684B
  8
0
 66
     1
 10
0.0
 20
0.0
 30
0.0
  0
VERTEX
  5
6FC1
  8
0
 10
57.235618169232218
 20
45.26831072620535
 30
0.0
  0
VERTEX
  5
6FC2
  8
0
 10
57.246619516211069
 20
45.128917067647961
 30
0.0
  0
VERTEX
  5
6FC3
  8
0
 10
57.26879786609117
 20
44.847904084736989
 30
0.0
  0
VERTEX
  5
6FC4
  8
0
 10
57.291219981747531
 20
44.563802443369582
 30
0.0
  0
VERTEX
  5
6FC5
  8
0
 10
57.302526095201301
 20
44.420547210949501
 30
0.0
  0
SEQEND
  5
6FC6
  8
0
  0
LINE
  5
684C
  8
0
 10
58.27786183462279
 20
44.174852764308973
 30
0.0
 11
58.290714605123412
 21
44.105590383540459
 31
0.0
  0
POLYLINE
  5
684D
  8
0
 66
     1
 10
0.0
 20
0.0
 30
0.0
  0
VERTEX
  5
6FC7
  8
0
 10
58.290714605123412
 20
44.105590383540459
 30
0.0
  0
VERTEX
  5
6FC8
  8
0
 10
58.31622629049064
 20
43.968110291922919
 30
0.0
  0
VERTEX
  5
6FC9
  8
0
 10
58.36765700031151
 20
43.690954996366202
 30
0.0
  0
VERTEX
  5
6FCA
  8
0
 10
58.419652993256143
 20
43.410753442809259
 30
0.0
  0
VERTEX
  5
6FCB
  8
0
 10
58.445871419937362
 20
43.269464788206108
 30
0.0
  0
SEQEND
  5
6FCC
  8
0
  0
LINE
  5
684E
  8
0
 10
59.441546231068003
 20
43.127066627463449
 30
0.0
 11
59.461568482970961
 21
43.059527153612969
 31
0.0
  0
POLYLINE
  5
684F
  8
0
 66
     1
 10
0.0
 20
0.0
 30
0.0
  0
VERTEX
  5
6FCD
  8
0
 10
59.461568482970961
 20
43.059527153612969
 30
0.0
  0
VERTEX
  5
6FCE
  8
0
 10
59.501310995363099
 20
42.925466889588989
 30
0.0
  0
VERTEX
  5
6FCF
  8
0
 10
59.581430579505309
 20
42.655205852802851
 30
0.0
  0
VERTEX
  5
6FD0
  8
0
 10
59.662430770758647
 20
42.381974333912801
 30
0.0
  0
VERTEX
  5
6FD1
  8
0
 10
59.703274256098091
 20
42.244200245193127
 30
0.0
  0
SEQEND
  5
6FD2
  8
0
  0
LINE
  5
6850
  8
0
 10
60.708379317348772
 20
42.20665851439616
 30
0.0
 11
60.735351682672331
 21
42.141581924072788
 31
0.0
  0
POLYLINE
  5
6851
  8
0
 66
     1
 10
0.0
 20
0.0
 30
0.0
  0
VERTEX
  5
6FD3
  8
0
 10
60.735351682672331
 20
42.141581924072788
 30
0.0
  0
VERTEX
  5
6FD4
  8
0
 10
60.78888959480696
 20
42.012410279948767
 30
0.0
  0
VERTEX
  5
6FD5
  8
0
 10
60.896820246340553
 20
41.75200453840813
 30
0.0
  0
VERTEX
  5
6FD6
  8
0
 10
61.005937180856847
 20
41.488736635883413
 30
0.0
  0
VERTEX
  5
6FD7
  8
0
 10
61.060958235082069
 20
41.355986594794267
 30
0.0
  0
SEQEND
  5
6FD8
  8
0
  0
LINE
  5
6852
  8
0
 10
62.064481405069962
 20
41.42371260900174
 30
0.0
 11
62.0981083689353
 21
41.361811894947202
 31
0.0
  0
POLYLINE
  5
6853
  8
0
 66
     1
 10
0.0
 20
0.0
 30
0.0
  0
VERTEX
  5
6FD9
  8
0
 10
62.0981083689353
 20
41.361811894947202
 30
0.0
  0
VERTEX
  5
6FDA
  8
0
 10
62.164855108243501
 20
41.238944102287171
 30
0.0
  0
VERTEX
  5
6FDB
  8
0
 10
62.299414316364391
 20
40.991246715789572
 30
0.0
  0
VERTEX
  5
6FDC
  8
0
 10
62.435452486175002
 20
40.740826847862472
 30
0.0
  0
VERTEX
  5
6FDD
  8
0
 10
62.504048287101909
 20
40.614555291633899
 30
0.0
  0
SEQEND
  5
6FDE
  8
0
  0
LINE
  5
6854
  8
0
 10
63.494994755975881
 20
40.786807030461603
 30
0.0
 11
63.53490789432999
 21
40.728760389852589
 31
0.0
  0
POLYLINE
  5
6855
  8
0
 66
     1
 10
0.0
 20
0.0
 30
0.0
  0
VERTEX
  5
6FDF
  8
0
 10
63.53490789432999
 20
40.728760389852589
 30
0.0
  0
VERTEX
  5
6FE0
  8
0
 10
63.614132169568329
 20
40.613542613904677
 30
0.0
  0
VERTEX
  5
6FE1
  8
0
 10
63.773845675433911
 20
40.381267406850718
 30
0.0
  0
VERTEX
  5
6FE2
  8
0
 10
63.935314617882462
 20
40.146439225998037
 30
0.0
  0
VERTEX
  5
6FE3
  8
0
 10
64.016733615561634
 20
40.028029612223968
 30
0.0
  0
SEQEND
  5
6FE4
  8
0
  0
LINE
  5
6856
  8
0
 10
64.984246366439834
 20
40.302919849575282
 30
0.0
 11
65.03000838258663
 21
40.249363253553412
 31
0.0
  0
POLYLINE
  5
6857
  8
0
 66
     1
 10
0.0
 20
0.0
 30
0.0
  0
VERTEX
  5
6FE5
  8
0
 10
65.03000838258663
 20
40.249363253553412
 30
0.0
  0
VERTEX
  5
6FE6
  8
0
 10
65.120842196016724
 20
40.143057844381779
 30
0.0
  0
VERTEX
  5
6FE7
  8
0
 10
65.303960145034637
 20
39.928749672546587
 30
0.0
  0
VERTEX
  5
6FE8
  8
0
 10
65.489090772598203
 20
39.712086005458637
 30
0.0
  0
VERTEX
  5
6FE9
  8
0
 10
65.582440923452964
 20
39.602835654646469
 30
0.0
  0
SEQEND
  5
6FEA
  8
0
  0
LINE
  5
6858
  8
0
 10
66.515919684171706
 20
39.977352635556493
 30
0.0
 11
66.567029199885837
 21
39.928872861395178
 31
0.0
  0
POLYLINE
  5
6859
  8
0
 66
     1
 10
0.0
 20
0.0
 30
0.0
  0
VERTEX
  5
6FEB
  8
0
 10
66.567029199885837
 20
39.928872861395178
 30
0.0
  0
VERTEX
  5
6FEC
  8
0
 10
66.668477357239794
 20
39.832644523308382
 30
0.0
  0
VERTEX
  5
6FED
  8
0
 10
66.872993470840527
 20
39.638651391869637
 30
0.0
  0
VERTEX
  5
6FEE
  8
0
 10
67.079757453622278
 20
39.442526051023037
 30
0.0
  0
VERTEX
  5
6FEF
  8
0
 10
67.184015993865216
 20
39.343631932878168
 30
0.0
  0
SEQEND
  5
6FF0
  8
0
  0
LINE
  5
685A
  8
0
 10
68.073233375779068
 20
39.8136723709313
 30
0.0
 11
68.129130424511104
 21
39.770800573181361
 31
0.0
  0
POLYLINE
  5
685B
  8
0
 66
     1
 10
0.0
 20
0.0
 30
0.0
  0
VERTEX
  5
6FF1
  8
0
 10
68.129130424511104
 20
39.770800573181361
 30
0.0
  0
VERTEX
  5
6FF2
  8
0
 10
68.24008143854735
 20
39.685703603988657
 30
0.0
  0
VERTEX
  5
6FF3
  8
0
 10
68.463754995392776
 20
39.514150942289909
 30
0.0
  0
VERTEX
  5
6FF4
  8
0
 10
68.689886983929341
 20
39.340712717960692
 30
0.0
  0
VERTEX
  5
6FF5
  8
0
 10
68.80391163517595
 20
39.253258337136629
 30
0.0
  0
SEQEND
  5
6FF6
  8
0
  0
LINE
  5
685C
  8
0
 10
69.639125186567981
 20
39.8136723709313
 30
0.0
 11
69.699197348554776
 21
39.776878261980357
 31
0.0
  0
POLYLINE
  5
685D
  8
0
 66
     1
 10
0.0
 20
0.0
 30
0.0
  0
VERTEX
  5
6FF7
  8
0
 10
69.699197348554776
 20
39.776878261980357
 30
0.0
  0
VERTEX
  5
6FF8
  8
0
 10
69.818435616745433
 20
39.703845001884019
 30
0.0
  0
VERTEX
  5
6FF9
  8
0
 10
70.058816002540027
 20
39.556612376786518
 30
0.0
  0
VERTEX
  5
6FFA
  8
0
 10
70.301838447443856
 20
39.407761494454583
 30
0.0
  0
VERTEX
  5
6FFB
  8
0
 10
70.42437993175389
 20
39.332705019448667
 30
0.0
  0
SEQEND
  5
6FFC
  8
0
  0
LINE
  5
685E
  8
0
 10
71.1964388781754
 20
39.977352635556493
 30
0.0
 11
71.260027990239337
 21
39.947039339361822
 31
0.0
  0
POLYLINE
  5
685F
  8
0
 66
     1
 10
0.0
 20
0.0
 30
0.0
  0
VERTEX
  5
6FFD
  8
0
 10
71.260027990239337
 20
39.947039339361822
 30
0.0
  0
VERTEX
  5
6FFE
  8
0
 10
71.38624711316595
 20
39.886869956042602
 30
0.0
  0
VERTEX
  5
6FFF
  8
0
 10
71.640700670100045
 20
39.765570478997347
 30
0.0
  0
VERTEX
  5
7000
  8
0
 10
71.897950966609244
 20
39.642937780078661
 30
0.0
  0
VERTEX
  5
7001
  8
0
 10
72.027666693836977
 20
39.581101545337617
 30
0.0
  0
SEQEND
  5
7002
  8
0
  0
LINE
  5
6860
  8
0
 10
72.728112195907215
 20
40.302919849575261
 30
0.0
 11
72.794521562429622
 21
40.2794194849535
 31
0.0
  0
POLYLINE
  5
6861
  8
0
 66
     1
 10
0.0
 20
0.0
 30
0.0
  0
VERTEX
  5
7003
  8
0
 10
72.794521562429622
 20
40.2794194849535
 30
0.0
  0
VERTEX
  5
7004
  8
0
 10
72.926338656968596
 20
40.232773206766183
 30
0.0
  0
VERTEX
  5
7005
  8
0
 10
73.192077538624673
 20
40.13873586022725
 30
0.0
  0
VERTEX
  5
7006
  8
0
 10
73.460737198657228
 20
40.043664934233838
 30
0.0
  0
VERTEX
  5
7007
  8
0
 10
73.5962059761506
 20
39.99572643048549
 30
0.0
  0
SEQEND
  5
7008
  8
0
  0
LINE
  5
6862
  8
0
 10
74.217363806371225
 20
40.786807030461603
 30
0.0
 11
74.285865832435434
 21
40.770377072325289
 31
0.0
  0
POLYLINE
  5
6863
  8
0
 66
     1
 10
0.0
 20
0.0
 30
0.0
  0
VERTEX
  5
7009
  8
0
 10
74.285865832435434
 20
40.770377072325289
 30
0.0
  0
VERTEX
  5
700A
  8
0
 10
74.421836682914304
 20
40.73776496565511
 30
0.0
  0
VERTEX
  5
700B
  8
0
 10
74.695949398495372
 20
40.672020042469818
 30
0.0
  0
VERTEX
  5
700C
  8
0
 10
74.97307493059543
 20
40.605552506361619
 30
0.0
  0
VERTEX
  5
700D
  8
0
 10
75.11281253407958
 20
40.572036957884819
 30
0.0
  0
SEQEND
  5
700E
  8
0
  0
LINE
  5
6864
  8
0
 10
75.647877157277151
 20
41.42371260900174
 30
0.0
 11
75.71772132035062
 21
41.414533067410389
 31
0.0
  0
POLYLINE
  5
6865
  8
0
 66
     1
 10
0.0
 20
0.0
 30
0.0
  0
VERTEX
  5
700F
  8
0
 10
75.71772132035062
 20
41.414533067410389
 30
0.0
  0
VERTEX
  5
7010
  8
0
 10
75.856356201678054
 20
41.396312437322592
 30
0.0
  0
VERTEX
  5
7011
  8
0
 10
76.135839514910288
 20
41.359580252627318
 30
0.0
  0
VERTEX
  5
7012
  8
0
 10
76.41839467375587
 20
41.322444338639229
 30
0.0
  0
VERTEX
  5
7013
  8
0
 10
76.560870108805148
 20
41.303718948796643
 30
0.0
  0
SEQEND
  5
7014
  8
0
  0
LINE
  5
6866
  8
0
 10
77.003979244998334
 20
42.20665851439616
 30
0.0
 11
77.07440031781465
 21
42.204829962328432
 31
0.0
  0
POLYLINE
  5
6867
  8
0
 66
     1
 10
0.0
 20
0.0
 30
0.0
  0
VERTEX
  5
7015
  8
0
 10
77.07440031781465
 20
42.204829962328432
 30
0.0
  0
VERTEX
  5
7016
  8
0
 10
77.214180317219132
 20
42.201200437859143
 30
0.0
  0
VERTEX
  5
7017
  8
0
 10
77.495972150437524
 20
42.193883437156131
 30
0.0
  0
VERTEX
  5
7018
  8
0
 10
77.780861202580127
 20
42.186486014132889
 30
0.0
  0
VERTEX
  5
7019
  8
0
 10
77.924513478512949
 20
42.182755942214257
 30
0.0
  0
SEQEND
  5
701A
  8
0
  0
LINE
  5
6868
  8
0
 10
78.270812331279103
 20
43.127066627463421
 30
0.0
 11
78.341038765827875
 21
43.132609098918401
 31
0.0
  0
POLYLINE
  5
6869
  8
0
 66
     1
 10
0.0
 20
0.0
 30
0.0
  0
VERTEX
  5
701B
  8
0
 10
78.341038765827875
 20
43.132609098918401
 30
0.0
  0
VERTEX
  5
701C
  8
0
 10
78.480432424385413
 20
43.143610445897217
 30
0.0
  0
VERTEX
  5
701D
  8
0
 10
78.761445407296264
 20
43.165788795777331
 30
0.0
  0
VERTEX
  5
701E
  8
0
 10
79.045547048663479
 20
43.18821091143365
 30
0.0
  0
VERTEX
  5
701F
  8
0
 10
79.188802281083724
 20
43.199517024887427
 30
0.0
  0
SEQEND
  5
7020
  8
0
  0
LINE
  5
686A
  8
0
 10
79.434496727724294
 20
44.174852764308973
 30
0.0
 11
79.503759108492773
 21
44.187705534809531
 31
0.0
  0
POLYLINE
  5
686B
  8
0
 66
     1
 10
0.0
 20
0.0
 30
0.0
  0
VERTEX
  5
7021
  8
0
 10
79.503759108492773
 20
44.187705534809531
 30
0.0
  0
VERTEX
  5
7022
  8
0
 10
79.641239200110135
 20
44.213217220176773
 30
0.0
  0
VERTEX
  5
7023
  8
0
 10
79.918394495667087
 20
44.264647929997629
 30
0.0
  0
VERTEX
  5
7024
  8
0
 10
80.198596049224193
 20
44.316643922942291
 30
0.0
  0
VERTEX
  5
7025
  8
0
 10
80.339884703827124
 20
44.342862349623488
 30
0.0
  0
SEQEND
  5
7026
  8
0
  0
LINE
  5
686C
  8
0
 10
80.482282864569797
 20
45.338537160754122
 30
0.0
 11
80.549822338420299
 21
45.35855941265708
 31
0.0
  0
POLYLINE
  5
686D
  8
0
 66
     1
 10
0.0
 20
0.0
 30
0.0
  0
VERTEX
  5
7027
  8
0
 10
80.549822338420299
 20
45.35855941265708
 30
0.0
  0
VERTEX
  5
7028
  8
0
 10
80.683882602444214
 20
45.398301925049253
 30
0.0
  0
VERTEX
  5
7029
  8
0
 10
80.954143639230395
 20
45.478421509191442
 30
0.0
  0
VERTEX
  5
702A
  8
0
 10
81.227375158120481
 20
45.55942170044483
 30
0.0
  0
VERTEX
  5
702B
  8
0
 10
81.365149246840119
 20
45.600265185784217
 30
0.0
  0
SEQEND
  5
702C
  8
0
  0
LINE
  5
686E
  8
0
 10
81.402690977637064
 20
46.605370247034891
 30
0.0
 11
81.467767567960436
 21
46.63234261235845
 31
0.0
  0
POLYLINE
  5
686F
  8
0
 66
     1
 10
0.0
 20
0.0
 30
0.0
  0
VERTEX
  5
702D
  8
0
 10
81.467767567960436
 20
46.63234261235845
 30
0.0
  0
VERTEX
  5
702E
  8
0
 10
81.596939212084521
 20
46.685880524493143
 30
0.0
  0
VERTEX
  5
702F
  8
0
 10
81.857344953625145
 20
46.793811176026701
 30
0.0
  0
VERTEX
  5
7030
  8
0
 10
82.120612856149819
 20
46.902928110543002
 30
0.0
  0
VERTEX
  5
7031
  8
0
 10
82.253362897238958
 20
46.957949164768202
 30
0.0
  0
SEQEND
  5
7032
  8
0
  0
LINE
  5
6870
  8
0
 10
82.18563688303152
 20
47.961472334756081
 30
0.0
 11
82.24753759708608
 21
47.995099298621419
 31
0.0
  0
POLYLINE
  5
6871
  8
0
 66
     1
 10
0.0
 20
0.0
 30
0.0
  0
VERTEX
  5
7033
  8
0
 10
82.24753759708608
 20
47.995099298621419
 30
0.0
  0
VERTEX
  5
7034
  8
0
 10
82.370405389745997
 20
48.061846037929627
 30
0.0
  0
VERTEX
  5
7035
  8
0
 10
82.618102776243632
 20
48.196405246050553
 30
0.0
  0
VERTEX
  5
7036
  8
0
 10
82.86852264417081
 20
48.33244341586115
 30
0.0
  0
VERTEX
  5
7037
  8
0
 10
82.994794200399326
 20
48.401039216788028
 30
0.0
  0
SEQEND
  5
7038
  8
0
  0
LINE
  5
6872
  8
0
 10
82.822542461571629
 20
49.391985685662007
 30
0.0
 11
82.880589102180636
 21
49.431898824016152
 31
0.0
  0
POLYLINE
  5
6873
  8
0
 66
     1
 10
0.0
 20
0.0
 30
0.0
  0
VERTEX
  5
7039
  8
0
 10
82.880589102180636
 20
49.431898824016152
 30
0.0
  0
VERTEX
  5
703A
  8
0
 10
82.995806878128519
 20
49.511123099254412
 30
0.0
  0
VERTEX
  5
703B
  8
0
 10
83.228082085182564
 20
49.670836605120087
 30
0.0
  0
VERTEX
  5
703C
  8
0
 10
83.462910266035223
 20
49.832305547568687
 30
0.0
  0
VERTEX
  5
703D
  8
0
 10
83.581319879809243
 20
49.913724545247781
 30
0.0
  0
SEQEND
  5
703E
  8
0
  0
LINE
  5
6874
  8
0
 10
83.306429642457999
 20
50.88123729612601
 30
0.0
 11
83.359986238479792
 21
50.926999312272763
 31
0.0
  0
POLYLINE
  5
6875
  8
0
 66
     1
 10
0.0
 20
0.0
 30
0.0
  0
VERTEX
  5
703F
  8
0
 10
83.359986238479792
 20
50.926999312272763
 30
0.0
  0
VERTEX
  5
7040
  8
0
 10
83.466291647651474
 20
51.01783312570285
 30
0.0
  0
VERTEX
  5
7041
  8
0
 10
83.680599819486702
 20
51.200951074720813
 30
0.0
  0
VERTEX
  5
7042
  8
0
 10
83.897263486574616
 20
51.3860817022844
 30
0.0
  0
VERTEX
  5
7043
  8
0
 10
84.006513837386805
 20
51.47943185313909
 30
0.0
  0
SEQEND
  5
7044
  8
0
  0
LINE
  5
6876
  8
0
 10
83.631996856476803
 20
52.412910613857861
 30
0.0
 11
83.680476630638054
 21
52.46402012957202
 31
0.0
  0
POLYLINE
  5
6877
  8
0
 66
     1
 10
0.0
 20
0.0
 30
0.0
  0
VERTEX
  5
7045
  8
0
 10
83.680476630638054
 20
52.464020129571992
 30
0.0
  0
VERTEX
  5
7046
  8
0
 10
83.776704968724744
 20
52.565468286925807
 30
0.0
  0
VERTEX
  5
7047
  8
0
 10
83.970698100163588
 20
52.769984400526653
 30
0.0
  0
VERTEX
  5
7048
  8
0
 10
84.166823441010308
 20
52.976748383308518
 30
0.0
  0
VERTEX
  5
7049
  8
0
 10
84.265717559155064
 20
53.081006923551371
 30
0.0
  0
SEQEND
  5
704A
  8
0
  0
LINE
  5
6878
  8
0
 10
83.79567712110196
 20
53.970224305465251
 30
0.0
 11
83.83854891885187
 21
54.026121354197301
 31
0.0
  0
POLYLINE
  5
6879
  8
0
 66
     1
 10
0.0
 20
0.0
 30
0.0
  0
VERTEX
  5
704B
  8
0
 10
83.83854891885187
 20
54.026121354197301
 30
0.0
  0
VERTEX
  5
704C
  8
0
 10
83.923645888044447
 20
54.137072368233333
 30
0.0
  0
VERTEX
  5
704D
  8
0
 10
84.095198549743316
 20
54.360745925078902
 30
0.0
  0
VERTEX
  5
704E
  8
0
 10
84.268636774072775
 20
54.586877913615659
 30
0.0
  0
VERTEX
  5
704F
  8
0
 10
84.356091154896589
 20
54.700902564862083
 30
0.0
  0
SEQEND
  5
7050
  8
0
  0
LINE
  5
687A
  8
0
 10
83.79567712110196
 20
55.536116116254171
 30
0.0
 11
83.832471230052874
 21
55.59618827824093
 31
0.0
  0
POLYLINE
  5
687B
  8
0
 66
     1
 10
0.0
 20
0.0
 30
0.0
  0
VERTEX
  5
7051
  8
0
 10
83.832471230052874
 20
55.59618827824093
 30
0.0
  0
VERTEX
  5
7052
  8
0
 10
83.905504490149269
 20
55.715426546431559
 30
0.0
  0
VERTEX
  5
7053
  8
0
 10
84.052737115246714
 20
55.955806932226153
 30
0.0
  0
VERTEX
  5
7054
  8
0
 10
84.201587997578713
 20
56.198829377130089
 30
0.0
  0
VERTEX
  5
7055
  8
0
 10
84.276644472584636
 20
56.321370861440023
 30
0.0
  0
SEQEND
  5
7056
  8
0
  0
LINE
  5
687C
  8
0
 10
83.631996856476803
 20
57.093429807861547
 30
0.0
 11
83.662310152671466
 21
57.157018919925463
 31
0.0
  0
POLYLINE
  5
687D
  8
0
 66
     1
 10
0.0
 20
0.0
 30
0.0
  0
VERTEX
  5
7057
  8
0
 10
83.662310152671466
 20
57.157018919925463
 30
0.0
  0
VERTEX
  5
7058
  8
0
 10
83.722479535990715
 20
57.283238042852162
 30
0.0
  0
VERTEX
  5
7059
  8
0
 10
83.843779013035942
 20
57.537691599786278
 30
0.0
  0
VERTEX
  5
705A
  8
0
 10
83.966411711954606
 20
57.79494189629537
 30
0.0
  0
VERTEX
  5
705B
  8
0
 10
84.028247946695615
 20
57.92465762352316
 30
0.0
  0
SEQEND
  5
705C
  8
0
  0
LINE
  5
687E
  8
0
 10
83.306429642457999
 20
58.625103125593398
 30
0.0
 11
83.329930007079724
 21
58.691512492115798
 31
0.0
  0
POLYLINE
  5
687F
  8
0
 66
     1
 10
0.0
 20
0.0
 30
0.0
  0
VERTEX
  5
705D
  8
0
 10
83.329930007079724
 20
58.691512492115798
 30
0.0
  0
VERTEX
  5
705E
  8
0
 10
83.376576285267106
 20
58.823329586654893
 30
0.0
  0
VERTEX
  5
705F
  8
0
 10
83.470613631805904
 20
59.089068468310757
 30
0.0
  0
VERTEX
  5
7060
  8
0
 10
83.565684557799386
 20
59.35772812834319
 30
0.0
  0
VERTEX
  5
7061
  8
0
 10
83.613623061547742
 20
59.493196905836719
 30
0.0
  0
SEQEND
  5
7062
  8
0
  0
LINE
  5
6880
  8
0
 10
82.822542461571686
 20
60.1143547360574
 30
0.0
 11
82.838972419708
 21
60.182856762121581
 31
0.0
  0
POLYLINE
  5
6881
  8
0
 66
     1
 10
0.0
 20
0.0
 30
0.0
  0
VERTEX
  5
7063
  8
0
 10
82.838972419708
 20
60.182856762121581
 30
0.0
  0
VERTEX
  5
7064
  8
0
 10
82.871584526378115
 20
60.318827612600472
 30
0.0
  0
VERTEX
  5
7065
  8
0
 10
82.937329449563435
 20
60.592940328181527
 30
0.0
  0
VERTEX
  5
7066
  8
0
 10
83.003796985671684
 20
60.870065860281613
 30
0.0
  0
VERTEX
  5
7067
  8
0
 10
83.037312534148427
 20
61.00980346376577
 30
0.0
  0
SEQEND
  5
7068
  8
0
  0
LINE
  5
6882
  8
0
 10
82.18563688303152
 20
61.544868086963326
 30
0.0
 11
82.194816424622886
 21
61.614712250036803
 31
0.0
  0
POLYLINE
  5
6883
  8
0
 66
     1
 10
0.0
 20
0.0
 30
0.0
  0
VERTEX
  5
7069
  8
0
 10
82.194816424622886
 20
61.614712250036803
 30
0.0
  0
VERTEX
  5
706A
  8
0
 10
82.213037054710625
 20
61.75334713136408
 30
0.0
  0
VERTEX
  5
706B
  8
0
 10
82.249769239405907
 20
62.032830444596421
 30
0.0
  0
VERTEX
  5
706C
  8
0
 10
82.286905153394059
 20
62.315385603442053
 30
0.0
  0
VERTEX
  5
706D
  8
0
 10
82.305630543236575
 20
62.457861038491266
 30
0.0
  0
SEQEND
  5
706E
  8
0
  0
LINE
  5
6884
  8
0
 10
81.402690977637107
 20
62.90097017468451
 30
0.0
 11
81.404519529704828
 21
62.971391247500783
 31
0.0
  0
POLYLINE
  5
6885
  8
0
 66
     1
 10
0.0
 20
0.0
 30
0.0
  0
VERTEX
  5
706F
  8
0
 10
81.404519529704828
 20
62.971391247500783
 30
0.0
  0
VERTEX
  5
7070
  8
0
 10
81.408149054174146
 20
63.111171246905307
 30
0.0
  0
VERTEX
  5
7071
  8
0
 10
81.415466054877129
 20
63.392963080123728
 30
0.0
  0
VERTEX
  5
7072
  8
0
 10
81.422863477900364
 20
63.67785213226631
 30
0.0
  0
VERTEX
  5
7073
  8
0
 10
81.426593549819003
 20
63.821504408199068
 30
0.0
  0
SEQEND
  5
7074
  8
0
  0
LINE
  5
6886
  8
0
 10
80.482282864569797
 20
64.167803260965286
 30
0.0
 11
80.476740393114881
 21
64.238029695514001
 31
0.0
  0
POLYLINE
  5
6887
  8
0
 66
     1
 10
0.0
 20
0.0
 30
0.0
  0
VERTEX
  5
7075
  8
0
 10
80.476740393114881
 20
64.238029695514015
 30
0.0
  0
VERTEX
  5
7076
  8
0
 10
80.465739046136036
 20
64.377423354071539
 30
0.0
  0
VERTEX
  5
7077
  8
0
 10
80.443560696255915
 20
64.65843633698239
 30
0.0
  0
VERTEX
  5
7078
  8
0
 10
80.421138580599631
 20
64.942537978349662
 30
0.0
  0
VERTEX
  5
7079
  8
0
 10
80.409832467145876
 20
65.08579321076985
 30
0.0
  0
SEQEND
  5
707A
  8
0
  0
LINE
  5
6888
  8
0
 10
79.434496727724294
 20
65.331487657410435
 30
0.0
 11
79.42164395722375
 21
65.400750038178955
 31
0.0
  0
POLYLINE
  5
6889
  8
0
 66
     1
 10
0.0
 20
0.0
 30
0.0
  0
VERTEX
  5
707B
  8
0
 10
79.42164395722375
 20
65.400750038178955
 30
0.0
  0
VERTEX
  5
707C
  8
0
 10
79.396132271856445
 20
65.538230129796261
 30
0.0
  0
VERTEX
  5
707D
  8
0
 10
79.344701562035652
 20
65.815385425353242
 30
0.0
  0
VERTEX
  5
707E
  8
0
 10
79.29270556909097
 20
66.095586978910305
 30
0.0
  0
VERTEX
  5
707F
  8
0
 10
79.266487142409801
 20
66.236875633513307
 30
0.0
  0
SEQEND
  5
7080
  8
0
  0
LINE
  5
688A
  8
0
 10
78.270812331279103
 20
66.379273794255994
 30
0.0
 11
78.250790079376202
 21
66.446813268106439
 31
0.0
  0
POLYLINE
  5
688B
  8
0
 66
     1
 10
0.0
 20
0.0
 30
0.0
  0
VERTEX
  5
7081
  8
0
 10
78.250790079376202
 20
66.446813268106439
 30
0.0
  0
VERTEX
  5
7082
  8
0
 10
78.211047566984007
 20
66.580873532130454
 30
0.0
  0
VERTEX
  5
7083
  8
0
 10
78.130927982841797
 20
66.851134568916621
 30
0.0
  0
VERTEX
  5
7084
  8
0
 10
78.049927791588402
 20
67.124366087806607
 30
0.0
  0
VERTEX
  5
7085
  8
0
 10
78.009084306249065
 20
67.262140176526259
 30
0.0
  0
SEQEND
  5
7086
  8
0
  0
LINE
  5
688C
  8
0
 10
77.003979244998391
 20
67.299681907323247
 30
0.0
 11
76.977006879674832
 21
67.364758497646591
 31
0.0
  0
POLYLINE
  5
688D
  8
0
 66
     1
 10
0.0
 20
0.0
 30
0.0
  0
VERTEX
  5
7087
  8
0
 10
76.977006879674832
 20
67.364758497646591
 30
0.0
  0
VERTEX
  5
7088
  8
0
 10
76.923468967540202
 20
67.493930141770363
 30
0.0
  0
VERTEX
  5
7089
  8
0
 10
76.815538316006609
 20
67.754335883311214
 30
0.0
  0
VERTEX
  5
708A
  8
0
 10
76.706421381490145
 20
68.017603785836172
 30
0.0
  0
VERTEX
  5
708B
  8
0
 10
76.651400327265037
 20
68.150353826925141
 30
0.0
  0
SEQEND
  5
708C
  8
0
  0
LINE
  5
688E
  8
0
 10
75.647877157277208
 20
68.082627812717703
 30
0.0
 11
75.614250193411863
 21
68.144528526772206
 31
0.0
  0
POLYLINE
  5
688F
  8
0
 66
     1
 10
0.0
 20
0.0
 30
0.0
  0
VERTEX
  5
708D
  8
0
 10
75.614250193411863
 20
68.144528526772206
 30
0.0
  0
VERTEX
  5
708E
  8
0
 10
75.547503454103605
 20
68.26739631943218
 30
0.0
  0
VERTEX
  5
708F
  8
0
 10
75.412944245982771
 20
68.515093705929743
 30
0.0
  0
VERTEX
  5
7090
  8
0
 10
75.276906076172153
 20
68.76551357385685
 30
0.0
  0
VERTEX
  5
7091
  8
0
 10
75.208310275245253
 20
68.891785130085481
 30
0.0
  0
SEQEND
  5
7092
  8
0
  0
LINE
  5
6890
  8
0
 10
74.217363806371281
 20
68.719533391257841
 30
0.0
 11
74.177450668017173
 21
68.77758003186679
 31
0.0
  0
POLYLINE
  5
6891
  8
0
 66
     1
 10
0.0
 20
0.0
 30
0.0
  0
VERTEX
  5
7093
  8
0
 10
74.177450668017173
 20
68.777580031866762
 30
0.0
  0
VERTEX
  5
7094
  8
0
 10
74.098226392778884
 20
68.892797807814588
 30
0.0
  0
VERTEX
  5
7095
  8
0
 10
73.938512886913259
 20
69.125073014868576
 30
0.0
  0
VERTEX
  5
7096
  8
0
 10
73.777043944464651
 20
69.359901195721363
 30
0.0
  0
VERTEX
  5
7097
  8
0
 10
73.695624946785529
 20
69.47831080949544
 30
0.0
  0
SEQEND
  5
7098
  8
0
  0
LINE
  5
6892
  8
0
 10
72.728112195907272
 20
69.203420572144182
 30
0.0
 11
72.682350179760533
 21
69.256977168165974
 31
0.0
  0
POLYLINE
  5
6893
  8
0
 66
     1
 10
0.0
 20
0.0
 30
0.0
  0
VERTEX
  5
7099
  8
0
 10
72.682350179760533
 20
69.256977168165974
 30
0.0
  0
VERTEX
  5
709A
  8
0
 10
72.591516366330552
 20
69.363282577337543
 30
0.0
  0
VERTEX
  5
709B
  8
0
 10
72.408398417312526
 20
69.577590749172771
 30
0.0
  0
VERTEX
  5
709C
  8
0
 10
72.223267789748874
 20
69.794254416260799
 30
0.0
  0
VERTEX
  5
709D
  8
0
 10
72.129917638894185
 20
69.903504767072945
 30
0.0
  0
SEQEND
  5
709E
  8
0
  0
LINE
  5
6894
  8
0
 10
71.1964388781754
 20
69.528987786162986
 30
0.0
 11
71.145329362461325
 21
69.577467560324195
 31
0.0
  0
POLYLINE
  5
6895
  8
0
 66
     1
 10
0.0
 20
0.0
 30
0.0
  0
VERTEX
  5
709F
  8
0
 10
71.145329362461325
 20
69.577467560324195
 30
0.0
  0
VERTEX
  5
70A0
  8
0
 10
71.043881205107368
 20
69.673695898410983
 30
0.0
  0
VERTEX
  5
70A1
  8
0
 10
70.839365091506693
 20
69.867689029849714
 30
0.0
  0
VERTEX
  5
70A2
  8
0
 10
70.632601108724884
 20
70.063814370696335
 30
0.0
  0
VERTEX
  5
70A3
  8
0
 10
70.528342568481889
 20
70.162708488841247
 30
0.0
  0
SEQEND
  5
70A4
  8
0
  0
LINE
  5
6896
  8
0
 10
69.639125186567981
 20
69.692668050788143
 30
0.0
 11
69.583228137835988
 21
69.735539848538053
 31
0.0
  0
POLYLINE
  5
6897
  8
0
 66
     1
 10
0.0
 20
0.0
 30
0.0
  0
VERTEX
  5
70A5
  8
0
 10
69.583228137835988
 20
69.735539848538053
 30
0.0
  0
VERTEX
  5
70A6
  8
0
 10
69.472277123799813
 20
69.820636817730673
 30
0.0
  0
VERTEX
  5
70A7
  8
0
 10
69.248603566954444
 20
69.992189479429442
 30
0.0
  0
VERTEX
  5
70A8
  8
0
 10
69.022471578417822
 20
70.165627703758759
 30
0.0
  0
VERTEX
  5
70A9
  8
0
 10
68.908446927171212
 20
70.253082084582786
 30
0.0
  0
SEQEND
  5
70AA
  8
0
  0
POLYLINE
  5
6898
  8
0
 66
     1
 10
0.0
 20
0.0
 30
0.0
  0
VERTEX
  5
70AB
  8
0
 10
68.803911635175893
 20
70.253082084582786
 30
0.0
  0
VERTEX
  5
70AC
  8
0
 10
68.689886983929455
 20
70.165627703758844
 30
0.0
  0
VERTEX
  5
70AD
  8
0
 10
68.463754995392719
 20
69.992189479429442
 30
0.0
  0
VERTEX
  5
70AE
  8
0
 10
68.240081438547122
 20
69.820636817730588
 30
0.0
  0
VERTEX
  5
70AF
  8
0
 10
68.129130424511104
 20
69.735539848538053
 30
0.0
  0
SEQEND
  5
70B0
  8
0
  0
LINE
  5
6899
  8
0
 10
68.129130424511104
 20
69.735539848538053
 30
0.0
 11
68.073233375779068
 21
69.692668050788114
 31
0.0
  0
POLYLINE
  5
689A
  8
0
 66
     1
 10
0.0
 20
0.0
 30
0.0
  0
VERTEX
  5
70B1
  8
0
 10
67.184015993865273
 20
70.162708488841247
 30
0.0
  0
VERTEX
  5
70B2
  8
0
 10
67.079757453622392
 20
70.063814370696463
 30
0.0
  0
VERTEX
  5
70B3
  8
0
 10
66.87299347084047
 20
69.867689029849714
 30
0.0
  0
VERTEX
  5
70B4
  8
0
 10
66.668477357239624
 20
69.67369589841087
 30
0.0
  0
VERTEX
  5
70B5
  8
0
 10
66.567029199885837
 20
69.577467560324237
 30
0.0
  0
SEQEND
  5
70B6
  8
0
  0
LINE
  5
689B
  8
0
 10
66.567029199885837
 20
69.577467560324237
 30
0.0
 11
66.515919684171706
 21
69.528987786162929
 31
0.0
  0
POLYLINE
  5
689C
  8
0
 66
     1
 10
0.0
 20
0.0
 30
0.0
  0
VERTEX
  5
70B7
  8
0
 10
65.582440923452964
 20
69.903504767072945
 30
0.0
  0
VERTEX
  5
70B8
  8
0
 10
65.489090772598274
 20
69.794254416260827
 30
0.0
  0
VERTEX
  5
70B9
  8
0
 10
65.303960145034694
 20
69.577590749172828
 30
0.0
  0
VERTEX
  5
70BA
  8
0
 10
65.120842196016724
 20
69.3632825773376
 30
0.0
  0
VERTEX
  5
70BB
  8
0
 10
65.03000838258663
 20
69.256977168166003
 30
0.0
  0
SEQEND
  5
70BC
  8
0
  0
LINE
  5
689D
  8
0
 10
65.03000838258663
 20
69.256977168166003
 30
0.0
 11
64.984246366439834
 21
69.203420572144125
 31
0.0
  0
POLYLINE
  5
689E
  8
0
 66
     1
 10
0.0
 20
0.0
 30
0.0
  0
VERTEX
  5
70BD
  8
0
 10
64.016733615561634
 20
69.47831080949544
 30
0.0
  0
VERTEX
  5
70BE
  8
0
 10
63.935314617882462
 20
69.359901195721307
 30
0.0
  0
VERTEX
  5
70BF
  8
0
 10
63.773845675433911
 20
69.125073014868633
 30
0.0
  0
VERTEX
  5
70C0
  8
0
 10
63.614132169568329
 20
68.892797807814702
 30
0.0
  0
VERTEX
  5
70C1
  8
0
 10
63.53490789432999
 20
68.777580031866819
 30
0.0
  0
SEQEND
  5
70C2
  8
0
  0
LINE
  5
689F
  8
0
 10
63.53490789432999
 20
68.777580031866819
 30
0.0
 11
63.494994755975881
 21
68.719533391257812
 31
0.0
  0
POLYLINE
  5
68A0
  8
0
 66
     1
 10
0.0
 20
0.0
 30
0.0
  0
VERTEX
  5
70C3
  8
0
 10
62.504048287101909
 20
68.891785130085509
 30
0.0
  0
VERTEX
  5
70C4
  8
0
 10
62.435452486174881
 20
68.765513573856765
 30
0.0
  0
VERTEX
  5
70C5
  8
0
 10
62.299414316364391
 20
68.515093705929743
 30
0.0
  0
VERTEX
  5
70C6
  8
0
 10
62.16485510824355
 20
68.267396319432294
 30
0.0
  0
VERTEX
  5
70C7
  8
0
 10
62.0981083689353
 20
68.144528526772206
 30
0.0
  0
SEQEND
  5
70C8
  8
0
  0
LINE
  5
68A1
  8
0
 10
62.0981083689353
 20
68.144528526772206
 30
0.0
 11
62.064481405069962
 21
68.082627812717647
 31
0.0
  0
POLYLINE
  5
68A2
  8
0
 66
     1
 10
0.0
 20
0.0
 30
0.0
  0
VERTEX
  5
70C9
  8
0
 10
61.060958235082069
 20
68.150353826925141
 30
0.0
  0
VERTEX
  5
70CA
  8
0
 10
61.005937180856961
 20
68.017603785836172
 30
0.0
  0
VERTEX
  5
70CB
  8
0
 10
60.896820246340553
 20
67.754335883311214
 30
0.0
  0
VERTEX
  5
70CC
  8
0
 10
60.788889594806847
 20
67.493930141770392
 30
0.0
  0
VERTEX
  5
70CD
  8
0
 10
60.735351682672331
 20
67.364758497646619
 30
0.0
  0
SEQEND
  5
70CE
  8
0
  0
LINE
  5
68A3
  8
0
 10
60.735351682672331
 20
67.364758497646619
 30
0.0
 11
60.708379317348772
 21
67.299681907323205
 31
0.0
  0
POLYLINE
  5
68A4
  8
0
 66
     1
 10
0.0
 20
0.0
 30
0.0
  0
VERTEX
  5
70CF
  8
0
 10
59.703274256098091
 20
67.262140176526259
 30
0.0
  0
VERTEX
  5
70D0
  8
0
 10
59.662430770758647
 20
67.124366087806663
 30
0.0
  0
VERTEX
  5
70D1
  8
0
 10
59.581430579505309
 20
66.851134568916535
 30
0.0
  0
VERTEX
  5
70D2
  8
0
 10
59.501310995363099
 20
66.58087353213034
 30
0.0
  0
VERTEX
  5
70D3
  8
0
 10
59.461568482970961
 20
66.446813268106439
 30
0.0
  0
SEQEND
  5
70D4
  8
0
  0
LINE
  5
68A5
  8
0
 10
59.461568482970961
 20
66.446813268106467
 30
0.0
 11
59.441546231068003
 21
66.379273794255965
 31
0.0
  0
POLYLINE
  5
68A6
  8
0
 66
     1
 10
0.0
 20
0.0
 30
0.0
  0
VERTEX
  5
70D5
  8
0
 10
58.445871419937362
 20
66.236875633513307
 30
0.0
  0
VERTEX
  5
70D6
  8
0
 10
58.419652993256072
 20
66.095586978909978
 30
0.0
  0
VERTEX
  5
70D7
  8
0
 10
58.36765700031151
 20
65.815385425353114
 30
0.0
  0
VERTEX
  5
70D8
  8
0
 10
58.316226290490697
 20
65.538230129796545
 30
0.0
  0
VERTEX
  5
70D9
  8
0
 10
58.290714605123412
 20
65.400750038178955
 30
0.0
  0
SEQEND
  5
70DA
  8
0
  0
LINE
  5
68A7
  8
0
 10
58.290714605123412
 20
65.400750038178984
 30
0.0
 11
58.277861834622847
 21
65.331487657410435
 31
0.0
  0
POLYLINE
  5
68A8
  8
0
 66
     1
 10
0.0
 20
0.0
 30
0.0
  0
VERTEX
  5
70DB
  8
0
 10
57.302526095201301
 20
65.085793210769907
 30
0.0
  0
VERTEX
  5
70DC
  8
0
 10
57.291219981747531
 20
64.942537978349833
 30
0.0
  0
VERTEX
  5
70DD
  8
0
 10
57.26879786609117
 20
64.658436336982476
 30
0.0
  0
VERTEX
  5
70DE
  8
0
 10
57.246619516211069
 20
64.37742335407151
 30
0.0
  0
VERTEX
  5
70DF
  8
0
 10
57.235618169232218
 20
64.238029695514058
 30
0.0
  0
SEQEND
  5
70E0
  8
0
  0
LINE
  5
68A9
  8
0
 10
57.235618169232218
 20
64.238029695514058
 30
0.0
 11
57.230075697777288
 21
64.167803260965243
 31
0.0
  0
POLYLINE
  5
68AA
  8
0
 66
     1
 10
0.0
 20
0.0
 30
0.0
  0
VERTEX
  5
70E1
  8
0
 10
56.285765012528152
 20
63.821504408199068
 30
0.0
  0
VERTEX
  5
70E2
  8
0
 10
56.289495084446742
 20
63.67785213226643
 30
0.0
  0
VERTEX
  5
70E3
  8
0
 10
56.296892507469977
 20
63.392963080123756
 30
0.0
  0
VERTEX
  5
70E4
  8
0
 10
56.304209508173017
 20
63.111171246905251
 30
0.0
  0
VERTEX
  5
70E5
  8
0
 10
56.307839032642271
 20
62.971391247500833
 30
0.0
  0
SEQEND
  5
70E6
  8
0
  0
LINE
  5
68AB
  8
0
 10
56.307839032642271
 20
62.971391247500833
 30
0.0
 11
56.309667584710041
 21
62.900970174684488
 31
0.0
  0
POLYLINE
  5
68AC
  8
0
 66
     1
 10
0.0
 20
0.0
 30
0.0
  0
VERTEX
  5
70E7
  8
0
 10
55.40672801911046
 20
62.457861038491302
 30
0.0
  0
VERTEX
  5
70E8
  8
0
 10
55.42545340895299
 20
62.31538560344223
 30
0.0
  0
VERTEX
  5
70E9
  8
0
 10
55.462589322941199
 20
62.032830444596442
 30
0.0
  0
VERTEX
  5
70EA
  8
0
 10
55.499321507636459
 20
61.753347131363967
 30
0.0
  0
VERTEX
  5
70EB
  8
0
 10
55.517542137724263
 20
61.614712250036803
 30
0.0
  0
SEQEND
  5
70EC
  8
0
  0
LINE
  5
68AD
  8
0
 10
55.517542137724263
 20
61.614712250036831
 30
0.0
 11
55.526721679315578
 21
61.544868086963298
 31
0.0
  0
POLYLINE
  5
68AE
  8
0
 66
     1
 10
0.0
 20
0.0
 30
0.0
  0
VERTEX
  5
70ED
  8
0
 10
54.675046028198658
 20
61.009803463765792
 30
0.0
  0
VERTEX
  5
70EE
  8
0
 10
54.708561576675493
 20
60.870065860281557
 30
0.0
  0
VERTEX
  5
70EF
  8
0
 10
54.775029112783727
 20
60.592940328181498
 30
0.0
  0
VERTEX
  5
70F0
  8
0
 10
54.840774035968927
 20
60.318827612600501
 30
0.0
  0
VERTEX
  5
70F1
  8
0
 10
54.873386142639113
 20
60.182856762121617
 30
0.0
  0
SEQEND
  5
70F2
  8
0
  0
LINE
  5
68AF
  8
0
 10
54.873386142639113
 20
60.182856762121617
 30
0.0
 11
54.88981610077542
 21
60.114354736057379
 31
0.0
  0
POLYLINE
  5
68B0
  8
0
 66
     1
 10
0.0
 20
0.0
 30
0.0
  0
VERTEX
  5
70F3
  8
0
 10
54.098735500799357
 20
59.493196905836719
 30
0.0
  0
VERTEX
  5
70F4
  8
0
 10
54.14667400454772
 20
59.35772812834324
 30
0.0
  0
VERTEX
  5
70F5
  8
0
 10
54.241744930541188
 20
59.089068468310671
 30
0.0
  0
VERTEX
  5
70F6
  8
0
 10
54.335782277080057
 20
58.823329586654722
 30
0.0
  0
VERTEX
  5
70F7
  8
0
 10
54.382428555267317
 20
58.691512492115827
 30
0.0
  0
SEQEND
  5
70F8
  8
0
  0
LINE
  5
68B1
  8
0
 10
54.382428555267317
 20
58.691512492115827
 30
0.0
 11
54.405928919889099
 21
58.625103125593398
 31
0.0
  0
POLYLINE
  5
68B2
  8
0
 66
     1
 10
0.0
 20
0.0
 30
0.0
  0
VERTEX
  5
70F9
  8
0
 10
53.684110615651441
 20
57.92465762352316
 30
0.0
  0
VERTEX
  5
70FA
  8
0
 10
53.7459468503925
 20
57.794941896295398
 30
0.0
  0
VERTEX
  5
70FB
  8
0
 10
53.868579549311221
 20
57.537691599786278
 30
0.0
  0
VERTEX
  5
70FC
  8
0
 10
53.989879026356448
 20
57.28323804285214
 30
0.0
  0
VERTEX
  5
70FD
  8
0
 10
54.050048409675703
 20
57.157018919925513
 30
0.0
  0
SEQEND
  5
70FE
  8
0
  0
LINE
  5
68B3
  8
0
 10
54.050048409675703
 20
57.157018919925513
 30
0.0
 11
54.080361705870359
 21
57.093429807861547
 31
0.0
  0
POLYLINE
  5
68B4
  8
0
 66
     1
 10
0.0
 20
0.0
 30
0.0
  0
VERTEX
  5
70FF
  8
0
 10
53.435714089762541
 20
56.321370861440073
 30
0.0
  0
VERTEX
  5
7100
  8
0
 10
53.51077056476845
 20
56.198829377130011
 30
0.0
  0
VERTEX
  5
7101
  8
0
 10
53.659621447100328
 20
55.95580693222621
 30
0.0
  0
VERTEX
  5
7102
  8
0
 10
53.80685407219778
 20
55.715426546431729
 30
0.0
  0
VERTEX
  5
7103
  8
0
 10
53.879887332294167
 20
55.596188278240952
 30
0.0
  0
SEQEND
  5
7104
  8
0
  0
LINE
  5
68B5
  8
0
 10
53.879887332294167
 20
55.596188278240952
 30
0.0
 11
53.916681441245153
 21
55.536116116254171
 31
0.0
  0
POLYLINE
  5
68B6
  8
0
 66
     1
 10
0.0
 20
0.0
 30
0.0
  0
VERTEX
  5
7105
  8
0
 10
53.356267407450453
 20
54.700902564862098
 30
0.0
  0
VERTEX
  5
7106
  8
0
 10
53.443721788274551
 20
54.58687791361541
 30
0.0
  0
VERTEX
  5
7107
  8
0
 10
53.617160012603847
 20
54.360745925078852
 30
0.0
  0
VERTEX
  5
7108
  8
0
 10
53.788712674302531
 20
54.137072368233532
 30
0.0
  0
VERTEX
  5
7109
  8
0
 10
53.873809643495171
 20
54.026121354197301
 30
0.0
  0
SEQEND
  5
710A
  8
0
  0
LINE
  5
68B7
  8
0
 10
53.873809643495171
 20
54.026121354197301
 30
0.0
 11
53.916681441245153
 21
53.970224305465251
 31
0.0
  0
POLYLINE
  5
68B8
  8
0
 66
     1
 10
0.0
 20
0.0
 30
0.0
  0
VERTEX
  5
710B
  8
0
 10
53.446641003191992
 20
53.081006923551392
 30
0.0
  0
VERTEX
  5
710C
  8
0
 10
53.545535121336677
 20
52.976748383308603
 30
0.0
  0
VERTEX
  5
710D
  8
0
 10
53.741660462183518
 20
52.769984400526653
 30
0.0
  0
VERTEX
  5
710E
  8
0
 10
53.935653593622412
 20
52.565468286925693
 30
0.0
  0
VERTEX
  5
710F
  8
0
 10
54.031881931708988
 20
52.46402012957202
 30
0.0
  0
SEQEND
  5
7110
  8
0
  0
LINE
  5
68B9
  8
0
 10
54.031881931708988
 20
52.46402012957202
 30
0.0
 11
54.080361705870359
 21
52.412910613857861
 31
0.0
  0
POLYLINE
  5
68BA
  8
0
 66
     1
 10
0.0
 20
0.0
 30
0.0
  0
VERTEX
  5
7111
  8
0
 10
53.705844724960343
 20
51.47943185313909
 30
0.0
  0
VERTEX
  5
7112
  8
0
 10
53.815095075772547
 20
51.386081702284287
 30
0.0
  0
VERTEX
  5
7113
  8
0
 10
54.031758742860461
 20
51.200951074720791
 30
0.0
  0
VERTEX
  5
7114
  8
0
 10
54.246066914695568
 20
51.0178331257029
 30
0.0
  0
VERTEX
  5
7115
  8
0
 10
54.35237232386725
 20
50.926999312272763
 30
0.0
  0
SEQEND
  5
7116
  8
0
  0
LINE
  5
68BB
  8
0
 10
54.35237232386725
 20
50.926999312272763
 30
0.0
 11
54.405928919889099
 21
50.88123729612601
 31
0.0
  0
POLYLINE
  5
68BC
  8
0
 66
     1
 10
0.0
 20
0.0
 30
0.0
  0
VERTEX
  5
7117
  8
0
 10
54.131038682537792
 20
49.913724545247817
 30
0.0
  0
VERTEX
  5
7118
  8
0
 10
54.249448296311932
 20
49.832305547568637
 30
0.0
  0
VERTEX
  5
7119
  8
0
 10
54.484276477164599
 20
49.670836605120087
 30
0.0
  0
VERTEX
  5
711A
  8
0
 10
54.71655168421853
 20
49.511123099254519
 30
0.0
  0
VERTEX
  5
711B
  8
0
 10
54.83176946016647
 20
49.431898824016173
 30
0.0
  0
SEQEND
  5
711C
  8
0
  0
LINE
  5
68BD
  8
0
 10
54.83176946016647
 20
49.431898824016173
 30
0.0
 11
54.88981610077542
 21
49.391985685662007
 31
0.0
  0
POLYLINE
  5
68BE
  8
0
 66
     1
 10
0.0
 20
0.0
 30
0.0
  0
VERTEX
  5
711D
  8
0
 10
54.71756436194778
 20
48.401039216788028
 30
0.0
  0
VERTEX
  5
711E
  8
0
 10
54.843835918176289
 20
48.332443415861121
 30
0.0
  0
VERTEX
  5
711F
  8
0
 10
55.094255786103467
 20
48.196405246050517
 30
0.0
  0
VERTEX
  5
7120
  8
0
 10
55.341953172601052
 20
48.061846037929648
 30
0.0
  0
VERTEX
  5
7121
  8
0
 10
55.464820965261019
 20
47.995099298621447
 30
0.0
  0
SEQEND
  5
7122
  8
0
  0
LINE
  5
68BF
  8
0
 10
55.464820965261019
 20
47.995099298621447
 30
0.0
 11
55.526721679315578
 21
47.961472334756081
 31
0.0
  0
POLYLINE
  5
68C0
  8
0
 66
     1
 10
0.0
 20
0.0
 30
0.0
  0
VERTEX
  5
7123
  8
0
 10
55.458995665108091
 20
46.957949164768223
 30
0.0
  0
VERTEX
  5
7124
  8
0
 10
55.59174570619723
 20
46.90292811054303
 30
0.0
  0
VERTEX
  5
7125
  8
0
 10
55.855013608721947
 20
46.793811176026679
 30
0.0
  0
VERTEX
  5
7126
  8
0
 10
56.115419350262641
 20
46.685880524493143
 30
0.0
  0
VERTEX
  5
7127
  8
0
 10
56.244590994386613
 20
46.63234261235845
 30
0.0
  0
SEQEND
  5
7128
  8
0
  0
LINE
  5
68C1
  8
0
 10
56.244590994386613
 20
46.63234261235845
 30
0.0
 11
56.309667584710041
 21
46.605370247034926
 31
0.0
  0
POLYLINE
  5
68C2
  8
0
 66
     1
 10
0.0
 20
0.0
 30
0.0
  0
VERTEX
  5
7129
  8
0
 10
56.347209315506973
 20
45.600265185784217
 30
0.0
  0
VERTEX
  5
712A
  8
0
 10
56.484983404226512
 20
45.559421700444851
 30
0.0
  0
VERTEX
  5
712B
  8
0
 10
56.758214923116661
 20
45.478421509191463
 30
0.0
  0
VERTEX
  5
712C
  8
0
 10
57.028475959902948
 20
45.398301925049218
 30
0.0
  0
VERTEX
  5
712D
  8
0
 10
57.162536223926793
 20
45.35855941265708
 30
0.0
  0
SEQEND
  5
712E
  8
0
  0
LINE
  5
68C3
  8
0
 10
57.162536223926793
 20
45.35855941265708
 30
0.0
 11
57.230075697777288
 21
45.33853716075415
 31
0.0
  0
POLYLINE
  5
68C4
  8
0
 66
     1
 10
0.0
 20
0.0
 30
0.0
  0
VERTEX
  5
712F
  8
0
 10
57.372473858519932
 20
44.342862349623488
 30
0.0
  0
VERTEX
  5
7130
  8
0
 10
57.51376251312319
 20
44.316643922942262
 30
0.0
  0
VERTEX
  5
7131
  8
0
 10
57.793964066680132
 20
44.264647929997629
 30
0.0
  0
VERTEX
  5
7132
  8
0
 10
58.0711193622368
 20
44.213217220176823
 30
0.0
  0
VERTEX
  5
7133
  8
0
 10
58.208599453854283
 20
44.187705534809531
 30
0.0
  0
SEQEND
  5
7134
  8
0
  0
LINE
  5
68C5
  8
0
 10
58.208599453854283
 20
44.187705534809531
 30
0.0
 11
58.27786183462279
 21
44.174852764308973
 31
0.0
  0
POLYLINE
  5
68C6
  8
0
 66
     1
 10
0.0
 20
0.0
 30
0.0
  0
VERTEX
  5
7135
  8
0
 10
58.523556281263382
 20
43.199517024887427
 30
0.0
  0
VERTEX
  5
7136
  8
0
 10
58.666811513683683
 20
43.18821091143365
 30
0.0
  0
VERTEX
  5
7137
  8
0
 10
58.950913155050777
 20
43.165788795777353
 30
0.0
  0
VERTEX
  5
7138
  8
0
 10
59.231926137961459
 20
43.143610445897252
 30
0.0
  0
VERTEX
  5
7139
  8
0
 10
59.371319796519167
 20
43.132609098918401
 30
0.0
  0
SEQEND
  5
713A
  8
0
  0
LINE
  5
68C7
  8
0
 10
59.371319796519167
 20
43.132609098918401
 30
0.0
 11
59.441546231068003
 21
43.127066627463421
 31
0.0
  0
POLYLINE
  5
68C8
  8
0
 66
     1
 10
0.0
 20
0.0
 30
0.0
  0
VERTEX
  5
713B
  8
0
 10
59.787845083834164
 20
42.182755942214257
 30
0.0
  0
VERTEX
  5
713C
  8
0
 10
59.931497359766922
 20
42.186486014132889
 30
0.0
  0
VERTEX
  5
713D
  8
0
 10
60.216386411909532
 20
42.193883437156131
 30
0.0
  0
VERTEX
  5
713E
  8
0
 10
60.498178245127967
 20
42.201200437859143
 30
0.0
  0
VERTEX
  5
713F
  8
0
 10
60.637958244532449
 20
42.204829962328461
 30
0.0
  0
SEQEND
  5
7140
  8
0
  0
LINE
  5
68C9
  8
0
 10
60.637958244532449
 20
42.204829962328461
 30
0.0
 11
60.708379317348772
 21
42.20665851439616
 31
0.0
  0
POLYLINE
  5
68CA
  8
0
 66
     1
 10
0.0
 20
0.0
 30
0.0
  0
VERTEX
  5
7141
  8
0
 10
61.151488453541958
 20
41.303718948796643
 30
0.0
  0
VERTEX
  5
7142
  8
0
 10
61.293963888591058
 20
41.322444338639173
 30
0.0
  0
VERTEX
  5
7143
  8
0
 10
61.576519047436818
 20
41.359580252627353
 30
0.0
  0
VERTEX
  5
7144
  8
0
 10
61.856002360669258
 20
41.396312437322621
 30
0.0
  0
VERTEX
  5
7145
  8
0
 10
61.994637241996429
 20
41.414533067410389
 30
0.0
  0
SEQEND
  5
7146
  8
0
  0
LINE
  5
68CB
  8
0
 10
61.994637241996429
 20
41.414533067410389
 30
0.0
 11
62.064481405069962
 21
41.42371260900174
 31
0.0
  0
POLYLINE
  5
68CC
  8
0
 66
     1
 10
0.0
 20
0.0
 30
0.0
  0
VERTEX
  5
7147
  8
0
 10
62.599546028267469
 20
40.572036957884819
 30
0.0
  0
VERTEX
  5
7148
  8
0
 10
62.739283631751562
 20
40.605552506361619
 30
0.0
  0
VERTEX
  5
7149
  8
0
 10
63.016409163851669
 20
40.672020042469818
 30
0.0
  0
VERTEX
  5
714A
  8
0
 10
63.290521879432788
 20
40.73776496565511
 30
0.0
  0
VERTEX
  5
714B
  8
0
 10
63.426492729911608
 20
40.770377072325289
 30
0.0
  0
SEQEND
  5
714C
  8
0
  0
LINE
  5
68CD
  8
0
 10
63.426492729911608
 20
40.770377072325289
 30
0.0
 11
63.494994755975881
 21
40.786807030461603
 31
0.0
  0
POLYLINE
  5
68CE
  8
0
 66
     1
 10
0.0
 20
0.0
 30
0.0
  0
VERTEX
  5
714D
  8
0
 10
64.116152586196506
 20
39.99572643048549
 30
0.0
  0
VERTEX
  5
714E
  8
0
 10
64.251621363689878
 20
40.043664934233838
 30
0.0
  0
VERTEX
  5
714F
  8
0
 10
64.520281023722418
 20
40.138735860227307
 30
0.0
  0
VERTEX
  5
7150
  8
0
 10
64.78601990537851
 20
40.232773206766211
 30
0.0
  0
VERTEX
  5
7151
  8
0
 10
64.917836999917427
 20
40.2794194849535
 30
0.0
  0
SEQEND
  5
7152
  8
0
  0
LINE
  5
68CF
  8
0
 10
64.917836999917427
 20
40.2794194849535
 30
0.0
 11
64.984246366439834
 21
40.302919849575261
 31
0.0
  0
POLYLINE
  5
68D0
  8
0
 66
     1
 10
0.0
 20
0.0
 30
0.0
  0
VERTEX
  5
7153
  8
0
 10
65.684691868510072
 20
39.581101545337617
 30
0.0
  0
VERTEX
  5
7154
  8
0
 10
65.814407595737748
 20
39.642937780078633
 30
0.0
  0
VERTEX
  5
7155
  8
0
 10
66.07165789224689
 20
39.765570478997319
 30
0.0
  0
VERTEX
  5
7156
  8
0
 10
66.326111449181099
 20
39.886869956042602
 30
0.0
  0
VERTEX
  5
7157
  8
0
 10
66.452330572107769
 20
39.947039339361822
 30
0.0
  0
SEQEND
  5
7158
  8
0
  0
LINE
  5
68D1
  8
0
 10
66.452330572107712
 20
39.947039339361822
 30
0.0
 11
66.515919684171635
 21
39.977352635556493
 31
0.0
  0
POLYLINE
  5
68D2
  8
0
 66
     1
 10
0.0
 20
0.0
 30
0.0
  0
VERTEX
  5
7159
  8
0
 10
67.287978630593216
 20
39.332705019448667
 30
0.0
  0
VERTEX
  5
715A
  8
0
 10
67.410520114903079
 20
39.407761494454519
 30
0.0
  0
VERTEX
  5
715B
  8
0
 10
67.653542559807079
 20
39.556612376786518
 30
0.0
  0
VERTEX
  5
715C
  8
0
 10
67.89392294560173
 20
39.703845001884048
 30
0.0
  0
VERTEX
  5
715D
  8
0
 10
68.013161213792273
 20
39.776878261980357
 30
0.0
  0
SEQEND
  5
715E
  8
0
  0
LINE
  5
68D3
  8
0
 10
68.013161213792273
 20
39.776878261980357
 30
0.0
 11
68.073233375779068
 21
39.8136723709313
 31
0.0
  0
POLYLINE
  5
68D4
  8
0
 66
     1
 10
0.0
 20
0.0
 30
0.0
  0
VERTEX
  5
715F
  8
0
 10
68.908446927171155
 20
39.253258337136629
 30
0.0
  0
VERTEX
  5
7160
  8
0
 10
69.022471578417694
 20
39.340712717960599
 30
0.0
  0
VERTEX
  5
7161
  8
0
 10
69.248603566954387
 20
39.514150942289973
 30
0.0
  0
VERTEX
  5
7162
  8
0
 10
69.472277123799927
 20
39.685703603988827
 30
0.0
  0
VERTEX
  5
7163
  8
0
 10
69.583228137835931
 20
39.770800573181361
 30
0.0
  0
SEQEND
  5
7164
  8
0
  0
LINE
  5
68D5
  8
0
 10
69.583228137835931
 20
39.770800573181361
 30
0.0
 11
69.639125186567981
 21
39.8136723709313
 31
0.0
  0
POLYLINE
  5
68D6
  8
0
 66
     1
 10
0.0
 20
0.0
 30
0.0
  0
VERTEX
  5
7165
  8
0
 10
70.528342568481889
 20
39.343631932878168
 30
0.0
  0
VERTEX
  5
7166
  8
0
 10
70.632601108724657
 20
39.442526051022867
 30
0.0
  0
VERTEX
  5
7167
  8
0
 10
70.839365091506465
 20
39.638651391869587
 30
0.0
  0
VERTEX
  5
7168
  8
0
 10
71.043881205107425
 20
39.83264452330846
 30
0.0
  0
VERTEX
  5
7169
  8
0
 10
71.145329362461212
 20
39.928872861395178
 30
0.0
  0
SEQEND
  5
716A
  8
0
  0
LINE
  5
68D7
  8
0
 10
71.145329362461212
 20
39.928872861395178
 30
0.0
 11
71.1964388781754
 21
39.977352635556493
 31
0.0
  0
POLYLINE
  5
68D8
  8
0
 66
     1
 10
0.0
 20
0.0
 30
0.0
  0
VERTEX
  5
716B
  8
0
 10
72.129917638894185
 20
39.602835654646469
 30
0.0
  0
VERTEX
  5
716C
  8
0
 10
72.223267789748874
 20
39.712086005458673
 30
0.0
  0
VERTEX
  5
716D
  8
0
 10
72.408398417312469
 20
39.928749672546637
 30
0.0
  0
VERTEX
  5
716E
  8
0
 10
72.591516366330438
 20
40.143057844381808
 30
0.0
  0
VERTEX
  5
716F
  8
0
 10
72.682350179760533
 20
40.249363253553412
 30
0.0
  0
SEQEND
  5
7170
  8
0
  0
LINE
  5
68D9
  8
0
 10
72.682350179760533
 20
40.249363253553412
 30
0.0
 11
72.728112195907215
 21
40.302919849575261
 31
0.0
  0
POLYLINE
  5
68DA
  8
0
 66
     1
 10
0.0
 20
0.0
 30
0.0
  0
VERTEX
  5
7171
  8
0
 10
73.695624946785472
 20
40.028029612223968
 30
0.0
  0
VERTEX
  5
7172
  8
0
 10
73.777043944464594
 20
40.146439225998037
 30
0.0
  0
VERTEX
  5
7173
  8
0
 10
73.938512886913145
 20
40.381267406850718
 30
0.0
  0
VERTEX
  5
7174
  8
0
 10
74.098226392778756
 20
40.613542613904713
 30
0.0
  0
VERTEX
  5
7175
  8
0
 10
74.177450668017059
 20
40.728760389852617
 30
0.0
  0
SEQEND
  5
7176
  8
0
  0
LINE
  5
68DB
  8
0
 10
74.177450668017059
 20
40.728760389852589
 30
0.0
 11
74.217363806371225
 21
40.786807030461603
 31
0.0
  0
POLYLINE
  5
68DC
  8
0
 66
     1
 10
0.0
 20
0.0
 30
0.0
  0
VERTEX
  5
7177
  8
0
 10
75.208310275245253
 20
40.614555291633899
 30
0.0
  0
VERTEX
  5
7178
  8
0
 10
75.276906076172153
 20
40.740826847862557
 30
0.0
  0
VERTEX
  5
7179
  8
0
 10
75.412944245982771
 20
40.99124671578965
 30
0.0
  0
VERTEX
  5
717A
  8
0
 10
75.547503454103534
 20
41.238944102287213
 30
0.0
  0
VERTEX
  5
717B
  8
0
 10
75.614250193411806
 20
41.361811894947202
 30
0.0
  0
SEQEND
  5
717C
  8
0
  0
LINE
  5
68DD
  8
0
 10
75.614250193411806
 20
41.361811894947202
 30
0.0
 11
75.647877157277151
 21
41.42371260900174
 31
0.0
  0
POLYLINE
  5
68DE
  8
0
 66
     1
 10
0.0
 20
0.0
 30
0.0
  0
VERTEX
  5
717D
  8
0
 10
76.651400327265037
 20
41.355986594794267
 30
0.0
  0
VERTEX
  5
717E
  8
0
 10
76.706421381490259
 20
41.488736635883349
 30
0.0
  0
VERTEX
  5
717F
  8
0
 10
76.815538316006609
 20
41.752004538408151
 30
0.0
  0
VERTEX
  5
7180
  8
0
 10
76.923468967540146
 20
42.012410279948881
 30
0.0
  0
VERTEX
  5
7181
  8
0
 10
76.977006879674832
 20
42.141581924072788
 30
0.0
  0
SEQEND
  5
7182
  8
0
  0
LINE
  5
68DF
  8
0
 10
76.977006879674832
 20
42.141581924072788
 30
0.0
 11
77.003979244998334
 21
42.20665851439616
 31
0.0
  0
POLYLINE
  5
68E0
  8
0
 66
     1
 10
0.0
 20
0.0
 30
0.0
  0
VERTEX
  5
7183
  8
0
 10
78.009084306249065
 20
42.244200245193149
 30
0.0
  0
VERTEX
  5
7184
  8
0
 10
78.049927791588459
 20
42.381974333912922
 30
0.0
  0
VERTEX
  5
7185
  8
0
 10
78.130927982841797
 20
42.655205852802851
 30
0.0
  0
VERTEX
  5
7186
  8
0
 10
78.211047566984007
 20
42.925466889588897
 30
0.0
  0
VERTEX
  5
7187
  8
0
 10
78.250790079376202
 20
43.059527153612969
 30
0.0
  0
SEQEND
  5
7188
  8
0
  0
LINE
  5
68E1
  8
0
 10
78.250790079376202
 20
43.059527153612969
 30
0.0
 11
78.270812331279103
 21
43.127066627463421
 31
0.0
  0
POLYLINE
  5
68E2
  8
0
 66
     1
 10
0.0
 20
0.0
 30
0.0
  0
VERTEX
  5
7189
  8
0
 10
79.266487142409801
 20
43.269464788206108
 30
0.0
  0
VERTEX
  5
718A
  8
0
 10
79.292705569091027
 20
43.410753442809209
 30
0.0
  0
VERTEX
  5
718B
  8
0
 10
79.344701562035652
 20
43.690954996366202
 30
0.0
  0
VERTEX
  5
718C
  8
0
 10
79.396132271856445
 20
43.96811029192304
 30
0.0
  0
VERTEX
  5
718D
  8
0
 10
79.42164395722375
 20
44.105590383540459
 30
0.0
  0
SEQEND
  5
718E
  8
0
  0
LINE
  5
68E3
  8
0
 10
79.42164395722375
 20
44.105590383540459
 30
0.0
 11
79.434496727724294
 21
44.174852764308973
 31
0.0
  0
POLYLINE
  5
68E4
  8
0
 66
     1
 10
0.0
 20
0.0
 30
0.0
  0
VERTEX
  5
718F
  8
0
 10
80.409832467145876
 20
44.420547210949543
 30
0.0
  0
VERTEX
  5
7190
  8
0
 10
80.421138580599631
 20
44.563802443369809
 30
0.0
  0
VERTEX
  5
7191
  8
0
 10
80.443560696255915
 20
44.847904084737017
 30
0.0
  0
VERTEX
  5
7192
  8
0
 10
80.465739046136036
 20
45.128917067647819
 30
0.0
  0
VERTEX
  5
7193
  8
0
 10
80.476740393114824
 20
45.26831072620535
 30
0.0
  0
SEQEND
  5
7194
  8
0
  0
LINE
  5
68E5
  8
0
 10
80.476740393114824
 20
45.26831072620535
 30
0.0
 11
80.482282864569797
 21
45.33853716075415
 31
0.0
  0
POLYLINE
  5
68E6
  8
0
 66
     1
 10
0.0
 20
0.0
 30
0.0
  0
VERTEX
  5
7195
  8
0
 10
81.426593549819003
 20
45.684836013520339
 30
0.0
  0
VERTEX
  5
7196
  8
0
 10
81.422863477900364
 20
45.828488289453098
 30
0.0
  0
VERTEX
  5
7197
  8
0
 10
81.415466054877129
 20
46.113377341595637
 30
0.0
  0
VERTEX
  5
7198
  8
0
 10
81.408149054174146
 20
46.395169174814072
 30
0.0
  0
VERTEX
  5
7199
  8
0
 10
81.404519529704785
 20
46.53494917421861
 30
0.0
  0
SEQEND
  5
719A
  8
0
  0
LINE
  5
68E7
  8
0
 10
81.404519529704785
 20
46.53494917421861
 30
0.0
 11
81.402690977637064
 21
46.605370247034891
 31
0.0
  0
POLYLINE
  5
68E8
  8
0
 66
     1
 10
0.0
 20
0.0
 30
0.0
  0
VERTEX
  5
719B
  8
0
 10
82.305630543236575
 20
47.048479383228113
 30
0.0
  0
VERTEX
  5
719C
  8
0
 10
82.286905153394059
 20
47.190954818277191
 30
0.0
  0
VERTEX
  5
719D
  8
0
 10
82.249769239405964
 20
47.473509977122909
 30
0.0
  0
VERTEX
  5
719E
  8
0
 10
82.213037054710625
 20
47.752993290355391
 30
0.0
  0
VERTEX
  5
719F
  8
0
 10
82.194816424622843
 20
47.891628171682612
 30
0.0
  0
SEQEND
  5
71A0
  8
0
  0
LINE
  5
68E9
  8
0
 10
82.194816424622843
 20
47.891628171682612
 30
0.0
 11
82.18563688303152
 21
47.961472334756081
 31
0.0
  0
POLYLINE
  5
68EA
  8
0
 66
     1
 10
0.0
 20
0.0
 30
0.0
  0
VERTEX
  5
71A1
  8
0
 10
83.037312534148427
 20
48.496536957953651
 30
0.0
  0
VERTEX
  5
71A2
  8
0
 10
83.003796985671684
 20
48.636274561437567
 30
0.0
  0
VERTEX
  5
71A3
  8
0
 10
82.937329449563435
 20
48.913400093537888
 30
0.0
  0
VERTEX
  5
71A4
  8
0
 10
82.871584526378115
 20
49.187512809119141
 30
0.0
  0
VERTEX
  5
71A5
  8
0
 10
82.838972419707943
 20
49.323483659597791
 30
0.0
  0
SEQEND
  5
71A6
  8
0
  0
LINE
  5
68EB
  8
0
 10
82.838972419707943
 20
49.323483659597791
 30
0.0
 11
82.822542461571629
 21
49.391985685662007
 31
0.0
  0
POLYLINE
  5
68EC
  8
0
 66
     1
 10
0.0
 20
0.0
 30
0.0
  0
VERTEX
  5
71A7
  8
0
 10
83.613623061547742
 20
50.013143515882689
 30
0.0
  0
VERTEX
  5
71A8
  8
0
 10
83.565684557799386
 20
50.148612293376289
 30
0.0
  0
VERTEX
  5
71A9
  8
0
 10
83.470613631805904
 20
50.41727195340868
 30
0.0
  0
VERTEX
  5
71AA
  8
0
 10
83.376576285267106
 20
50.68301083506455
 30
0.0
  0
VERTEX
  5
71AB
  8
0
 10
83.329930007079724
 20
50.814827929603609
 30
0.0
  0
SEQEND
  5
71AC
  8
0
  0
LINE
  5
68ED
  8
0
 10
83.329930007079724
 20
50.814827929603609
 30
0.0
 11
83.306429642457999
 21
50.88123729612601
 31
0.0
  0
POLYLINE
  5
68EE
  8
0
 66
     1
 10
0.0
 20
0.0
 30
0.0
  0
VERTEX
  5
71AD
  8
0
 10
84.028247946695615
 20
51.581682798196262
 30
0.0
  0
VERTEX
  5
71AE
  8
0
 10
83.966411711954493
 20
51.711398525424158
 30
0.0
  0
VERTEX
  5
71AF
  8
0
 10
83.843779013035942
 20
51.968648821933179
 30
0.0
  0
VERTEX
  5
71B0
  8
0
 10
83.722479535990715
 20
52.223102378867218
 30
0.0
  0
VERTEX
  5
71B1
  8
0
 10
83.662310152671466
 20
52.349321501793952
 30
0.0
  0
SEQEND
  5
71B2
  8
0
  0
LINE
  5
68EF
  8
0
 10
83.662310152671466
 20
52.349321501793952
 30
0.0
 11
83.631996856476803
 21
52.412910613857861
 31
0.0
  0
POLYLINE
  5
68F0
  8
0
 66
     1
 10
0.0
 20
0.0
 30
0.0
  0
VERTEX
  5
71B3
  8
0
 10
84.276644472584636
 20
53.184969560279399
 30
0.0
  0
VERTEX
  5
71B4
  8
0
 10
84.201587997578599
 20
53.307511044589432
 30
0.0
  0
VERTEX
  5
71B5
  8
0
 10
84.052737115246714
 20
53.550533489493262
 30
0.0
  0
VERTEX
  5
71B6
  8
0
 10
83.905504490149269
 20
53.790913875287742
 30
0.0
  0
VERTEX
  5
71B7
  8
0
 10
83.832471230052874
 20
53.910152143478449
 30
0.0
  0
SEQEND
  5
71B8
  8
0
  0
LINE
  5
68F1
  8
0
 10
83.832471230052874
 20
53.910152143478491
 30
0.0
 11
83.79567712110196
 21
53.970224305465251
 31
0.0
  0
POLYLINE
  5
68F2
  8
0
 66
     1
 10
0.0
 20
0.0
 30
0.0
  0
VERTEX
  5
71B9
  8
0
 10
84.356091154896589
 20
54.805437856857338
 30
0.0
  0
VERTEX
  5
71BA
  8
0
 10
84.268636774072604
 20
54.919462508103919
 30
0.0
  0
VERTEX
  5
71BB
  8
0
 10
84.095198549743245
 20
55.14559449664057
 30
0.0
  0
VERTEX
  5
71BC
  8
0
 10
83.923645888044447
 20
55.369268053485989
 30
0.0
  0
VERTEX
  5
71BD
  8
0
 10
83.83854891885187
 20
55.480219067522107
 30
0.0
  0
SEQEND
  5
71BE
  8
0
  0
LINE
  5
68F3
  8
0
 10
83.83854891885187
 20
55.480219067522107
 30
0.0
 11
83.79567712110196
 21
55.536116116254171
 31
0.0
  0
POLYLINE
  5
68F4
  8
0
 66
     1
 10
0.0
 20
0.0
 30
0.0
  0
VERTEX
  5
71BF
  8
0
 10
84.265717559155064
 20
56.425333498168051
 30
0.0
  0
VERTEX
  5
71C0
  8
0
 10
84.166823441010308
 20
56.52959203841089
 30
0.0
  0
VERTEX
  5
71C1
  8
0
 10
83.970698100163517
 20
56.73635602119279
 30
0.0
  0
VERTEX
  5
71C2
  8
0
 10
83.776704968724744
 20
56.940872134793672
 30
0.0
  0
VERTEX
  5
71C3
  8
0
 10
83.680476630638054
 20
57.042320292147423
 30
0.0
  0
SEQEND
  5
71C4
  8
0
  0
LINE
  5
68F5
  8
0
 10
83.680476630638054
 20
57.042320292147423
 30
0.0
 11
83.631996856476803
 21
57.093429807861547
 31
0.0
  0
POLYLINE
  5
68F6
  8
0
 66
     1
 10
0.0
 20
0.0
 30
0.0
  0
VERTEX
  5
71C5
  8
0
 10
84.006513837386763
 20
58.026908568580318
 30
0.0
  0
VERTEX
  5
71C6
  8
0
 10
83.897263486574502
 20
58.120258719435128
 30
0.0
  0
VERTEX
  5
71C7
  8
0
 10
83.680599819486702
 20
58.305389346998652
 30
0.0
  0
VERTEX
  5
71C8
  8
0
 10
83.466291647651587
 20
58.4885072960165
 30
0.0
  0
VERTEX
  5
71C9
  8
0
 10
83.359986238479792
 20
58.579341109446659
 30
0.0
  0
SEQEND
  5
71CA
  8
0
  0
LINE
  5
68F7
  8
0
 10
83.359986238479792
 20
58.579341109446659
 30
0.0
 11
83.306429642457999
 21
58.625103125593398
 31
0.0
  0
POLYLINE
  5
68F8
  8
0
 66
     1
 10
0.0
 20
0.0
 30
0.0
  0
VERTEX
  5
71CB
  8
0
 10
83.581319879809243
 20
59.592615876471662
 30
0.0
  0
VERTEX
  5
71CC
  8
0
 10
83.462910266035223
 20
59.674034874150777
 30
0.0
  0
VERTEX
  5
71CD
  8
0
 10
83.228082085182436
 20
59.835503816599378
 30
0.0
  0
VERTEX
  5
71CE
  8
0
 10
82.995806878128477
 20
59.99521732246501
 30
0.0
  0
VERTEX
  5
71CF
  8
0
 10
82.880589102180636
 20
60.07444159770327
 30
0.0
  0
SEQEND
  5
71D0
  8
0
  0
LINE
  5
68F9
  8
0
 10
82.880589102180636
 20
60.07444159770327
 30
0.0
 11
82.822542461571686
 21
60.1143547360574
 31
0.0
  0
POLYLINE
  5
68FA
  8
0
 66
     1
 10
0.0
 20
0.0
 30
0.0
  0
VERTEX
  5
71D1
  8
0
 10
82.994794200399326
 20
61.105301204931372
 30
0.0
  0
VERTEX
  5
71D2
  8
0
 10
82.868522644170866
 20
61.173897005858237
 30
0.0
  0
VERTEX
  5
71D3
  8
0
 10
82.618102776243632
 20
61.30993517566889
 30
0.0
  0
VERTEX
  5
71D4
  8
0
 10
82.370405389745954
 20
61.444494383789788
 30
0.0
  0
VERTEX
  5
71D5
  8
0
 10
82.24753759708608
 20
61.511241123097989
 30
0.0
  0
SEQEND
  5
71D6
  8
0
  0
LINE
  5
68FB
  8
0
 10
82.24753759708608
 20
61.511241123097989
 30
0.0
 11
82.18563688303152
 21
61.544868086963326
 31
0.0
  0
POLYLINE
  5
68FC
  8
0
 66
     1
 10
0.0
 20
0.0
 30
0.0
  0
VERTEX
  5
71D7
  8
0
 10
82.253362897238958
 20
62.54839125695122
 30
0.0
  0
VERTEX
  5
71D8
  8
0
 10
82.120612856149819
 20
62.603412311176413
 30
0.0
  0
VERTEX
  5
71D9
  8
0
 10
81.857344953625102
 20
62.712529245692743
 30
0.0
  0
VERTEX
  5
71DA
  8
0
 10
81.596939212084408
 20
62.820459897226321
 30
0.0
  0
VERTEX
  5
71DB
  8
0
 10
81.467767567960436
 20
62.873997809360951
 30
0.0
  0
SEQEND
  5
71DC
  8
0
  0
LINE
  5
68FD
  8
0
 10
81.467767567960436
 20
62.873997809360951
 30
0.0
 11
81.402690977637107
 21
62.90097017468451
 31
0.0
  0
POLYLINE
  5
68FE
  8
0
 66
     1
 10
0.0
 20
0.0
 30
0.0
  0
VERTEX
  5
71DD
  8
0
 10
81.365149246840119
 20
63.906075235935191
 30
0.0
  0
VERTEX
  5
71DE
  8
0
 10
81.227375158120367
 20
63.946918721274642
 30
0.0
  0
VERTEX
  5
71DF
  8
0
 10
80.954143639230324
 20
64.02791891252798
 30
0.0
  0
VERTEX
  5
71E0
  8
0
 10
80.683882602444214
 20
64.108038496670176
 30
0.0
  0
VERTEX
  5
71E1
  8
0
 10
80.549822338420299
 20
64.147781009062314
 30
0.0
  0
SEQEND
  5
71E2
  8
0
  0
LINE
  5
68FF
  8
0
 10
80.549822338420299
 20
64.147781009062314
 30
0.0
 11
80.482282864569797
 21
64.167803260965286
 31
0.0
  0
POLYLINE
  5
6900
  8
0
 66
     1
 10
0.0
 20
0.0
 30
0.0
  0
VERTEX
  5
71E3
  8
0
 10
80.339884703827124
 20
65.163478072095927
 30
0.0
  0
VERTEX
  5
71E4
  8
0
 10
80.198596049224065
 20
65.189696498777153
 30
0.0
  0
VERTEX
  5
71E5
  8
0
 10
79.918394495667087
 20
65.241692491721778
 30
0.0
  0
VERTEX
  5
71E6
  8
0
 10
79.641239200110249
 20
65.293123201542642
 30
0.0
  0
VERTEX
  5
71E7
  8
0
 10
79.503759108492773
 20
65.318634886909905
 30
0.0
  0
SEQEND
  5
71E8
  8
0
  0
LINE
  5
6901
  8
0
 10
79.503759108492773
 20
65.318634886909905
 30
0.0
 11
79.434496727724294
 21
65.331487657410435
 31
0.0
  0
POLYLINE
  5
6902
  8
0
 66
     1
 10
0.0
 20
0.0
 30
0.0
  0
VERTEX
  5
71E9
  8
0
 10
79.188802281083667
 20
66.306823396831987
 30
0.0
  0
VERTEX
  5
71EA
  8
0
 10
79.045547048663479
 20
66.318129510285743
 30
0.0
  0
VERTEX
  5
71EB
  8
0
 10
78.761445407296321
 20
66.340551625942084
 30
0.0
  0
VERTEX
  5
71EC
  8
0
 10
78.480432424385526
 20
66.362729975822191
 30
0.0
  0
VERTEX
  5
71ED
  8
0
 10
78.341038765827875
 20
66.373731322801035
 30
0.0
  0
SEQEND
  5
71EE
  8
0
  0
LINE
  5
6903
  8
0
 10
78.341038765827875
 20
66.373731322801035
 30
0.0
 11
78.270812331279103
 21
66.379273794255994
 31
0.0
  0
POLYLINE
  5
6904
  8
0
 66
     1
 10
0.0
 20
0.0
 30
0.0
  0
VERTEX
  5
71EF
  8
0
 10
77.924513478512893
 20
67.323584479505172
 30
0.0
  0
VERTEX
  5
71F0
  8
0
 10
77.78086120258024
 20
67.319854407586547
 30
0.0
  0
VERTEX
  5
71F1
  8
0
 10
77.495972150437623
 20
67.312456984563312
 30
0.0
  0
VERTEX
  5
71F2
  8
0
 10
77.214180317219075
 20
67.305139983860272
 30
0.0
  0
VERTEX
  5
71F3
  8
0
 10
77.074400317814593
 20
67.301510459390983
 30
0.0
  0
SEQEND
  5
71F4
  8
0
  0
LINE
  5
6905
  8
0
 10
77.074400317814593
 20
67.301510459390983
 30
0.0
 11
77.003979244998391
 21
67.299681907323247
 31
0.0
  0
POLYLINE
  5
6906
  8
0
 66
     1
 10
0.0
 20
0.0
 30
0.0
  0
VERTEX
  5
71F5
  8
0
 10
76.560870108805148
 20
68.202621472922772
 30
0.0
  0
VERTEX
  5
71F6
  8
0
 10
76.418394673755927
 20
68.183896083080242
 30
0.0
  0
VERTEX
  5
71F7
  8
0
 10
76.135839514910231
 20
68.14676016909209
 30
0.0
  0
VERTEX
  5
71F8
  8
0
 10
75.856356201677841
 20
68.110027984396822
 30
0.0
  0
VERTEX
  5
71F9
  8
0
 10
75.71772132035062
 20
68.091807354309026
 30
0.0
  0
SEQEND
  5
71FA
  8
0
  0
LINE
  5
6907
  8
0
 10
75.71772132035062
 20
68.091807354309026
 30
0.0
 11
75.647877157277208
 21
68.082627812717703
 31
0.0
  0
POLYLINE
  5
6908
  8
0
 66
     1
 10
0.0
 20
0.0
 30
0.0
  0
VERTEX
  5
71FB
  8
0
 10
75.11281253407958
 20
68.934303463834596
 30
0.0
  0
VERTEX
  5
71FC
  8
0
 10
74.973074930595473
 20
68.900787915357824
 30
0.0
  0
VERTEX
  5
71FD
  8
0
 10
74.695949398495372
 20
68.83432037924959
 30
0.0
  0
VERTEX
  5
71FE
  8
0
 10
74.421836682914261
 20
68.768575456064298
 30
0.0
  0
VERTEX
  5
71FF
  8
0
 10
74.285865832435434
 20
68.735963349394154
 30
0.0
  0
SEQEND
  5
7200
  8
0
  0
LINE
  5
6909
  8
0
 10
74.285865832435434
 20
68.735963349394154
 30
0.0
 11
74.217363806371281
 21
68.719533391257841
 31
0.0
  0
POLYLINE
  5
690A
  8
0
 66
     1
 10
0.0
 20
0.0
 30
0.0
  0
VERTEX
  5
7201
  8
0
 10
73.596205976150543
 20
69.510613991233924
 30
0.0
  0
VERTEX
  5
7202
  8
0
 10
73.460737198656943
 20
69.462675487485512
 30
0.0
  0
VERTEX
  5
7203
  8
0
 10
73.192077538624517
 20
69.367604561492101
 30
0.0
  0
VERTEX
  5
7204
  8
0
 10
72.926338656968696
 20
69.27356721495326
 30
0.0
  0
VERTEX
  5
7205
  8
0
 10
72.794521562429622
 20
69.226920936765907
 30
0.0
  0
SEQEND
  5
7206
  8
0
  0
LINE
  5
690B
  8
0
 10
72.794521562429622
 20
69.226920936765907
 30
0.0
 11
72.728112195907272
 21
69.203420572144182
 31
0.0
  0
POLYLINE
  5
690C
  8
0
 66
     1
 10
0.0
 20
0.0
 30
0.0
  0
VERTEX
  5
7207
  8
0
 10
72.027666693836977
 20
69.925238876381798
 30
0.0
  0
VERTEX
  5
7208
  8
0
 10
71.897950966609073
 20
69.863402641640675
 30
0.0
  0
VERTEX
  5
7209
  8
0
 10
71.640700670100045
 20
69.740769942722054
 30
0.0
  0
VERTEX
  5
720A
  8
0
 10
71.386247113166064
 20
69.619470465676898
 30
0.0
  0
VERTEX
  5
720B
  8
0
 10
71.260027990239337
 20
69.559301082357592
 30
0.0
  0
SEQEND
  5
720C
  8
0
  0
LINE
  5
690D
  8
0
 10
71.260027990239337
 20
69.559301082357592
 30
0.0
 11
71.1964388781754
 21
69.528987786162986
 31
0.0
  0
POLYLINE
  5
690E
  8
0
 66
     1
 10
0.0
 20
0.0
 30
0.0
  0
VERTEX
  5
720D
  8
0
 10
70.424379931753833
 20
70.173635402270747
 30
0.0
  0
VERTEX
  5
720E
  8
0
 10
70.30183844744397
 20
70.098578927264896
 30
0.0
  0
VERTEX
  5
720F
  8
0
 10
70.05881600253997
 20
69.949728044932897
 30
0.0
  0
VERTEX
  5
7210
  8
0
 10
69.818435616745319
 20
69.802495419835338
 30
0.0
  0
VERTEX
  5
7211
  8
0
 10
69.699197348554776
 20
69.729462159739043
 30
0.0
  0
SEQEND
  5
7212
  8
0
  0
LINE
  5
690F
  8
0
 10
69.699197348554776
 20
69.729462159739043
 30
0.0
 11
69.639125186567981
 21
69.692668050788143
 31
0.0
  0
LINE
  5
6910
  8
1
 10
68.856179281173581
 20
76.20373482558125
 30
0.0
 11
68.856179281173581
 21
33.302605596138143
 31
0.0
  0
LINE
  5
6911
  8
1
 10
47.405614666452031
 20
54.7531702108597
 30
0.0
 11
90.306743895895124
 21
54.7531702108597
 31
0.0
  0
CIRCLE
  5
6912
  8
0
 10
68.856179281162497
 20
54.753170210750461
 30
0.0
 40
15.4999999998902
  0
CIRCLE
  5
6927
  8
0
 10
273.49991089435849
 20
54.753170210750461
 30
0.0
 40
15.4999999998902
  0
LINE
  5
6928
  8
1
 10
252.04934627964801
 20
54.7531702108597
 30
0.0
 11
294.95047550909112
 21
54.7531702108597
 31
0.0
  0
LINE
  5
6929
  8
1
 10
273.49991089436958
 20
76.20373482558125
 30
0.0
 11
273.49991089436958
 21
33.302605596138143
 31
0.0
  0
LINE
  5
692A
  8
0
 10
274.34292896175077
 20
69.729462159739043
 30
0.0
 11
274.28285679976398
 21
69.692668050788143
 31
0.0
  0
POLYLINE
  5
692B
  8
0
 66
     1
 10
0.0
 20
0.0
 30
0.0
  0
VERTEX
  5
7213
  8
0
 10
275.06811154494989
 20
70.173635402270747
 30
0.0
  0
VERTEX
  5
7214
  8
0
 10
274.94557006064002
 20
70.098578927264896
 30
0.0
  0
VERTEX
  5
7215
  8
0
 10
274.70254761573602
 20
69.949728044932897
 30
0.0
  0
VERTEX
  5
7216
  8
0
 10
274.46216722994131
 20
69.802495419835338
 30
0.0
  0
VERTEX
  5
7217
  8
0
 10
274.34292896175077
 20
69.729462159739043
 30
0.0
  0
SEQEND
  5
7218
  8
0
  0
LINE
  5
692C
  8
0
 10
275.90375960343528
 20
69.559301082357592
 30
0.0
 11
275.8401704913714
 21
69.528987786162986
 31
0.0
  0
POLYLINE
  5
692D
  8
0
 66
     1
 10
0.0
 20
0.0
 30
0.0
  0
VERTEX
  5
7219
  8
0
 10
276.67139830703297
 20
69.925238876381798
 30
0.0
  0
VERTEX
  5
721A
  8
0
 10
276.54168257980513
 20
69.863402641640675
 30
0.0
  0
VERTEX
  5
721B
  8
0
 10
276.2844322832961
 20
69.740769942722054
 30
0.0
  0
VERTEX
  5
721C
  8
0
 10
276.02997872636212
 20
69.619470465676898
 30
0.0
  0
VERTEX
  5
721D
  8
0
 10
275.90375960343528
 20
69.559301082357592
 30
0.0
  0
SEQEND
  5
721E
  8
0
  0
LINE
  5
692E
  8
0
 10
277.43825317562562
 20
69.226920936765907
 30
0.0
 11
277.37184380910332
 21
69.203420572144182
 31
0.0
  0
POLYLINE
  5
692F
  8
0
 66
     1
 10
0.0
 20
0.0
 30
0.0
  0
VERTEX
  5
721F
  8
0
 10
278.23993758934648
 20
69.510613991233924
 30
0.0
  0
VERTEX
  5
7220
  8
0
 10
278.10446881185288
 20
69.462675487485512
 30
0.0
  0
VERTEX
  5
7221
  8
0
 10
277.83580915182051
 20
69.367604561492101
 30
0.0
  0
VERTEX
  5
7222
  8
0
 10
277.57007027016471
 20
69.27356721495326
 30
0.0
  0
VERTEX
  5
7223
  8
0
 10
277.43825317562562
 20
69.226920936765907
 30
0.0
  0
SEQEND
  5
7224
  8
0
  0
LINE
  5
6930
  8
0
 10
278.92959744563137
 20
68.735963349394154
 30
0.0
 11
278.86109541956728
 21
68.719533391257841
 31
0.0
  0
POLYLINE
  5
6931
  8
0
 66
     1
 10
0.0
 20
0.0
 30
0.0
  0
VERTEX
  5
7225
  8
0
 10
279.75654414727558
 20
68.934303463834596
 30
0.0
  0
VERTEX
  5
7226
  8
0
 10
279.61680654379148
 20
68.900787915357824
 30
0.0
  0
VERTEX
  5
7227
  8
0
 10
279.33968101169131
 20
68.83432037924959
 30
0.0
  0
VERTEX
  5
7228
  8
0
 10
279.0655682961102
 20
68.768575456064298
 30
0.0
  0
VERTEX
  5
7229
  8
0
 10
278.92959744563137
 20
68.735963349394154
 30
0.0
  0
SEQEND
  5
722A
  8
0
  0
LINE
  5
6932
  8
0
 10
280.36145293354662
 20
68.091807354309026
 30
0.0
 11
280.2916087704732
 21
68.082627812717703
 31
0.0
  0
POLYLINE
  5
6933
  8
0
 66
     1
 10
0.0
 20
0.0
 30
0.0
  0
VERTEX
  5
722B
  8
0
 10
281.2046017220012
 20
68.202621472922772
 30
0.0
  0
VERTEX
  5
722C
  8
0
 10
281.06212628695192
 20
68.183896083080242
 30
0.0
  0
VERTEX
  5
722D
  8
0
 10
280.77957112810623
 20
68.14676016909209
 30
0.0
  0
VERTEX
  5
722E
  8
0
 10
280.50008781487378
 20
68.110027984396822
 30
0.0
  0
VERTEX
  5
722F
  8
0
 10
280.36145293354662
 20
68.091807354309026
 30
0.0
  0
SEQEND
  5
7230
  8
0
  0
LINE
  5
6934
  8
0
 10
281.71813193101059
 20
67.301510459390983
 30
0.0
 11
281.64771085819439
 21
67.299681907323247
 31
0.0
  0
POLYLINE
  5
6935
  8
0
 66
     1
 10
0.0
 20
0.0
 30
0.0
  0
VERTEX
  5
7231
  8
0
 10
282.56824509170889
 20
67.323584479505172
 30
0.0
  0
VERTEX
  5
7232
  8
0
 10
282.42459281577629
 20
67.319854407586547
 30
0.0
  0
VERTEX
  5
7233
  8
0
 10
282.13970376363358
 20
67.312456984563312
 30
0.0
  0
VERTEX
  5
7234
  8
0
 10
281.85791193041513
 20
67.305139983860272
 30
0.0
  0
VERTEX
  5
7235
  8
0
 10
281.71813193101059
 20
67.301510459390983
 30
0.0
  0
SEQEND
  5
7236
  8
0
  0
LINE
  5
6936
  8
0
 10
282.98477037902393
 20
66.373731322801035
 30
0.0
 11
282.9145439444751
 21
66.379273794255994
 31
0.0
  0
POLYLINE
  5
6937
  8
0
 66
     1
 10
0.0
 20
0.0
 30
0.0
  0
VERTEX
  5
7237
  8
0
 10
283.83253389427972
 20
66.306823396831987
 30
0.0
  0
VERTEX
  5
7238
  8
0
 10
283.68927866185948
 20
66.318129510285743
 30
0.0
  0
VERTEX
  5
7239
  8
0
 10
283.40517702049232
 20
66.340551625942084
 30
0.0
  0
VERTEX
  5
723A
  8
0
 10
283.12416403758152
 20
66.362729975822191
 30
0.0
  0
VERTEX
  5
723B
  8
0
 10
282.98477037902393
 20
66.373731322801035
 30
0.0
  0
SEQEND
  5
723C
  8
0
  0
LINE
  5
6938
  8
0
 10
284.14749072168883
 20
65.318634886909905
 30
0.0
 11
284.0782283409203
 21
65.331487657410435
 31
0.0
  0
POLYLINE
  5
6939
  8
0
 66
     1
 10
0.0
 20
0.0
 30
0.0
  0
VERTEX
  5
723D
  8
0
 10
284.98361631702312
 20
65.163478072095927
 30
0.0
  0
VERTEX
  5
723E
  8
0
 10
284.84232766242008
 20
65.189696498777153
 30
0.0
  0
VERTEX
  5
723F
  8
0
 10
284.56212610886308
 20
65.241692491721778
 30
0.0
  0
VERTEX
  5
7240
  8
0
 10
284.28497081330619
 20
65.293123201542642
 30
0.0
  0
VERTEX
  5
7241
  8
0
 10
284.14749072168883
 20
65.318634886909905
 30
0.0
  0
SEQEND
  5
7242
  8
0
  0
LINE
  5
693A
  8
0
 10
285.19355395161631
 20
64.147781009062314
 30
0.0
 11
285.12601447776581
 21
64.167803260965286
 31
0.0
  0
POLYLINE
  5
693B
  8
0
 66
     1
 10
0.0
 20
0.0
 30
0.0
  0
VERTEX
  5
7243
  8
0
 10
286.00888086003607
 20
63.906075235935191
 30
0.0
  0
VERTEX
  5
7244
  8
0
 10
285.87110677131642
 20
63.946918721274642
 30
0.0
  0
VERTEX
  5
7245
  8
0
 10
285.59787525242632
 20
64.02791891252798
 30
0.0
  0
VERTEX
  5
7246
  8
0
 10
285.32761421564021
 20
64.108038496670176
 30
0.0
  0
VERTEX
  5
7247
  8
0
 10
285.19355395161631
 20
64.147781009062314
 30
0.0
  0
SEQEND
  5
7248
  8
0
  0
LINE
  5
693C
  8
0
 10
286.11149918115649
 20
62.873997809360951
 30
0.0
 11
286.04642259083312
 21
62.90097017468451
 31
0.0
  0
POLYLINE
  5
693D
  8
0
 66
     1
 10
0.0
 20
0.0
 30
0.0
  0
VERTEX
  5
7249
  8
0
 10
286.8970945104349
 20
62.54839125695122
 30
0.0
  0
VERTEX
  5
724A
  8
0
 10
286.76434446934582
 20
62.603412311176413
 30
0.0
  0
VERTEX
  5
724B
  8
0
 10
286.5010765668211
 20
62.712529245692743
 30
0.0
  0
VERTEX
  5
724C
  8
0
 10
286.2406708252804
 20
62.820459897226321
 30
0.0
  0
VERTEX
  5
724D
  8
0
 10
286.11149918115649
 20
62.873997809360951
 30
0.0
  0
SEQEND
  5
724E
  8
0
  0
LINE
  5
693E
  8
0
 10
286.89126921028208
 20
61.511241123097989
 30
0.0
 11
286.82936849622752
 21
61.544868086963326
 31
0.0
  0
POLYLINE
  5
693F
  8
0
 66
     1
 10
0.0
 20
0.0
 30
0.0
  0
VERTEX
  5
724F
  8
0
 10
287.63852581359538
 20
61.105301204931372
 30
0.0
  0
VERTEX
  5
7250
  8
0
 10
287.51225425736692
 20
61.173897005858237
 30
0.0
  0
VERTEX
  5
7251
  8
0
 10
287.26183438943963
 20
61.30993517566889
 30
0.0
  0
VERTEX
  5
7252
  8
0
 10
287.01413700294188
 20
61.444494383789788
 30
0.0
  0
VERTEX
  5
7253
  8
0
 10
286.89126921028208
 20
61.511241123097989
 30
0.0
  0
SEQEND
  5
7254
  8
0
  0
LINE
  5
6940
  8
0
 10
287.52432071537658
 20
60.07444159770327
 30
0.0
 11
287.46627407476768
 21
60.1143547360574
 31
0.0
  0
POLYLINE
  5
6941
  8
0
 66
     1
 10
0.0
 20
0.0
 30
0.0
  0
VERTEX
  5
7255
  8
0
 10
288.22505149300531
 20
59.592615876471662
 30
0.0
  0
VERTEX
  5
7256
  8
0
 10
288.10664187923129
 20
59.674034874150777
 30
0.0
  0
VERTEX
  5
7257
  8
0
 10
287.87181369837839
 20
59.835503816599378
 30
0.0
  0
VERTEX
  5
7258
  8
0
 10
287.6395384913244
 20
59.99521732246501
 30
0.0
  0
VERTEX
  5
7259
  8
0
 10
287.52432071537658
 20
60.07444159770327
 30
0.0
  0
SEQEND
  5
725A
  8
0
  0
LINE
  5
6942
  8
0
 10
288.00371785167579
 20
58.579341109446659
 30
0.0
 11
287.950161255654
 21
58.625103125593398
 31
0.0
  0
POLYLINE
  5
6943
  8
0
 66
     1
 10
0.0
 20
0.0
 30
0.0
  0
VERTEX
  5
725B
  8
0
 10
288.65024545058282
 20
58.026908568580318
 30
0.0
  0
VERTEX
  5
725C
  8
0
 10
288.5409950997705
 20
58.120258719435128
 30
0.0
  0
VERTEX
  5
725D
  8
0
 10
288.3243314326827
 20
58.305389346998652
 30
0.0
  0
VERTEX
  5
725E
  8
0
 10
288.11002326084758
 20
58.4885072960165
 30
0.0
  0
VERTEX
  5
725F
  8
0
 10
288.00371785167579
 20
58.579341109446659
 30
0.0
  0
SEQEND
  5
7260
  8
0
  0
LINE
  5
6944
  8
0
 10
288.32420824383411
 20
57.042320292147423
 30
0.0
 11
288.2757284696728
 21
57.093429807861547
 31
0.0
  0
POLYLINE
  5
6945
  8
0
 66
     1
 10
0.0
 20
0.0
 30
0.0
  0
VERTEX
  5
7261
  8
0
 10
288.90944917235112
 20
56.425333498168051
 30
0.0
  0
VERTEX
  5
7262
  8
0
 10
288.8105550542063
 20
56.52959203841089
 30
0.0
  0
VERTEX
  5
7263
  8
0
 10
288.61442971335953
 20
56.73635602119279
 30
0.0
  0
VERTEX
  5
7264
  8
0
 10
288.42043658192068
 20
56.940872134793672
 30
0.0
  0
VERTEX
  5
7265
  8
0
 10
288.32420824383411
 20
57.042320292147423
 30
0.0
  0
SEQEND
  5
7266
  8
0
  0
LINE
  5
6946
  8
0
 10
288.48228053204781
 20
55.480219067522107
 30
0.0
 11
288.4394087342979
 21
55.536116116254171
 31
0.0
  0
POLYLINE
  5
6947
  8
0
 66
     1
 10
0.0
 20
0.0
 30
0.0
  0
VERTEX
  5
7267
  8
0
 10
288.9998227680926
 20
54.805437856857338
 30
0.0
  0
VERTEX
  5
7268
  8
0
 10
288.9123683872686
 20
54.919462508103919
 30
0.0
  0
VERTEX
  5
7269
  8
0
 10
288.73893016293931
 20
55.14559449664057
 30
0.0
  0
VERTEX
  5
726A
  8
0
 10
288.56737750124051
 20
55.369268053485989
 30
0.0
  0
VERTEX
  5
726B
  8
0
 10
288.48228053204781
 20
55.480219067522107
 30
0.0
  0
SEQEND
  5
726C
  8
0
  0
LINE
  5
6948
  8
0
 10
288.47620284324881
 20
53.910152143478491
 30
0.0
 11
288.4394087342979
 21
53.970224305465251
 31
0.0
  0
POLYLINE
  5
6949
  8
0
 66
     1
 10
0.0
 20
0.0
 30
0.0
  0
VERTEX
  5
726D
  8
0
 10
288.92037608578062
 20
53.184969560279399
 30
0.0
  0
VERTEX
  5
726E
  8
0
 10
288.8453196107746
 20
53.307511044589432
 30
0.0
  0
VERTEX
  5
726F
  8
0
 10
288.69646872844271
 20
53.550533489493262
 30
0.0
  0
VERTEX
  5
7270
  8
0
 10
288.54923610334532
 20
53.790913875287742
 30
0.0
  0
VERTEX
  5
7271
  8
0
 10
288.47620284324881
 20
53.910152143478449
 30
0.0
  0
SEQEND
  5
7272
  8
0
  0
LINE
  5
694A
  8
0
 10
288.30604176586752
 20
52.349321501793952
 30
0.0
 11
288.2757284696728
 21
52.412910613857861
 31
0.0
  0
POLYLINE
  5
694B
  8
0
 66
     1
 10
0.0
 20
0.0
 30
0.0
  0
VERTEX
  5
7273
  8
0
 10
288.67197955989161
 20
51.581682798196262
 30
0.0
  0
VERTEX
  5
7274
  8
0
 10
288.61014332515049
 20
51.711398525424158
 30
0.0
  0
VERTEX
  5
7275
  8
0
 10
288.48751062623188
 20
51.968648821933179
 30
0.0
  0
VERTEX
  5
7276
  8
0
 10
288.36621114918671
 20
52.223102378867218
 30
0.0
  0
VERTEX
  5
7277
  8
0
 10
288.30604176586752
 20
52.349321501793952
 30
0.0
  0
SEQEND
  5
7278
  8
0
  0
LINE
  5
694C
  8
0
 10
287.97366162027572
 20
50.814827929603609
 30
0.0
 11
287.950161255654
 21
50.88123729612601
 31
0.0
  0
POLYLINE
  5
694D
  8
0
 66
     1
 10
0.0
 20
0.0
 30
0.0
  0
VERTEX
  5
7279
  8
0
 10
288.25735467474368
 20
50.013143515882689
 30
0.0
  0
VERTEX
  5
727A
  8
0
 10
288.20941617099538
 20
50.148612293376289
 30
0.0
  0
VERTEX
  5
727B
  8
0
 10
288.11434524500191
 20
50.41727195340868
 30
0.0
  0
VERTEX
  5
727C
  8
0
 10
288.0203078984631
 20
50.68301083506455
 30
0.0
  0
VERTEX
  5
727D
  8
0
 10
287.97366162027572
 20
50.814827929603609
 30
0.0
  0
SEQEND
  5
727E
  8
0
  0
LINE
  5
694E
  8
0
 10
287.48270403290388
 20
49.323483659597791
 30
0.0
 11
287.46627407476763
 21
49.391985685662007
 31
0.0
  0
POLYLINE
  5
694F
  8
0
 66
     1
 10
0.0
 20
0.0
 30
0.0
  0
VERTEX
  5
727F
  8
0
 10
287.68104414734438
 20
48.496536957953651
 30
0.0
  0
VERTEX
  5
7280
  8
0
 10
287.64752859886772
 20
48.636274561437567
 30
0.0
  0
VERTEX
  5
7281
  8
0
 10
287.58106106275937
 20
48.913400093537888
 30
0.0
  0
VERTEX
  5
7282
  8
0
 10
287.51531613957411
 20
49.187512809119141
 30
0.0
  0
VERTEX
  5
7283
  8
0
 10
287.48270403290388
 20
49.323483659597791
 30
0.0
  0
SEQEND
  5
7284
  8
0
  0
LINE
  5
6950
  8
0
 10
286.83854803781878
 20
47.891628171682612
 30
0.0
 11
286.82936849622752
 21
47.961472334756081
 31
0.0
  0
POLYLINE
  5
6951
  8
0
 66
     1
 10
0.0
 20
0.0
 30
0.0
  0
VERTEX
  5
7285
  8
0
 10
286.94936215643258
 20
47.048479383228113
 30
0.0
  0
VERTEX
  5
7286
  8
0
 10
286.93063676659011
 20
47.190954818277191
 30
0.0
  0
VERTEX
  5
7287
  8
0
 10
286.8935008526019
 20
47.473509977122909
 30
0.0
  0
VERTEX
  5
7288
  8
0
 10
286.85676866790669
 20
47.752993290355391
 30
0.0
  0
VERTEX
  5
7289
  8
0
 10
286.83854803781878
 20
47.891628171682612
 30
0.0
  0
SEQEND
  5
728A
  8
0
  0
LINE
  5
6952
  8
0
 10
286.04825114290082
 20
46.53494917421861
 30
0.0
 11
286.046422590833
 21
46.605370247034891
 31
0.0
  0
POLYLINE
  5
6953
  8
0
 66
     1
 10
0.0
 20
0.0
 30
0.0
  0
VERTEX
  5
728B
  8
0
 10
286.07032516301501
 20
45.684836013520339
 30
0.0
  0
VERTEX
  5
728C
  8
0
 10
286.06659509109642
 20
45.828488289453098
 30
0.0
  0
VERTEX
  5
728D
  8
0
 10
286.05919766807312
 20
46.113377341595637
 30
0.0
  0
VERTEX
  5
728E
  8
0
 10
286.05188066737009
 20
46.395169174814072
 30
0.0
  0
VERTEX
  5
728F
  8
0
 10
286.04825114290082
 20
46.53494917421861
 30
0.0
  0
SEQEND
  5
7290
  8
0
  0
LINE
  5
6954
  8
0
 10
285.12047200631082
 20
45.26831072620535
 30
0.0
 11
285.12601447776581
 21
45.33853716075415
 31
0.0
  0
POLYLINE
  5
6955
  8
0
 66
     1
 10
0.0
 20
0.0
 30
0.0
  0
VERTEX
  5
7291
  8
0
 10
285.05356408034191
 20
44.420547210949543
 30
0.0
  0
VERTEX
  5
7292
  8
0
 10
285.06487019379563
 20
44.563802443369809
 30
0.0
  0
VERTEX
  5
7293
  8
0
 10
285.08729230945193
 20
44.847904084737017
 30
0.0
  0
VERTEX
  5
7294
  8
0
 10
285.10947065933198
 20
45.128917067647819
 30
0.0
  0
VERTEX
  5
7295
  8
0
 10
285.12047200631082
 20
45.26831072620535
 30
0.0
  0
SEQEND
  5
7296
  8
0
  0
LINE
  5
6956
  8
0
 10
284.06537557041969
 20
44.105590383540459
 30
0.0
 11
284.0782283409203
 21
44.174852764308973
 31
0.0
  0
POLYLINE
  5
6957
  8
0
 66
     1
 10
0.0
 20
0.0
 30
0.0
  0
VERTEX
  5
7297
  8
0
 10
283.9102187556058
 20
43.269464788206108
 30
0.0
  0
VERTEX
  5
7298
  8
0
 10
283.93643718228702
 20
43.410753442809209
 30
0.0
  0
VERTEX
  5
7299
  8
0
 10
283.98843317523159
 20
43.690954996366202
 30
0.0
  0
VERTEX
  5
729A
  8
0
 10
284.0398638850524
 20
43.96811029192304
 30
0.0
  0
VERTEX
  5
729B
  8
0
 10
284.06537557041969
 20
44.105590383540459
 30
0.0
  0
SEQEND
  5
729C
  8
0
  0
LINE
  5
6958
  8
0
 10
282.8945216925722
 20
43.059527153612969
 30
0.0
 11
282.9145439444751
 21
43.127066627463421
 31
0.0
  0
POLYLINE
  5
6959
  8
0
 66
     1
 10
0.0
 20
0.0
 30
0.0
  0
VERTEX
  5
729D
  8
0
 10
282.65281591944512
 20
42.244200245193149
 30
0.0
  0
VERTEX
  5
729E
  8
0
 10
282.69365940478451
 20
42.381974333912922
 30
0.0
  0
VERTEX
  5
729F
  8
0
 10
282.77465959603779
 20
42.655205852802851
 30
0.0
  0
VERTEX
  5
72A0
  8
0
 10
282.85477918018
 20
42.925466889588897
 30
0.0
  0
VERTEX
  5
72A1
  8
0
 10
282.8945216925722
 20
43.059527153612969
 30
0.0
  0
SEQEND
  5
72A2
  8
0
  0
LINE
  5
695A
  8
0
 10
281.62073849287083
 20
42.141581924072788
 30
0.0
 11
281.64771085819427
 21
42.20665851439616
 31
0.0
  0
POLYLINE
  5
695B
  8
0
 66
     1
 10
0.0
 20
0.0
 30
0.0
  0
VERTEX
  5
72A3
  8
0
 10
281.29513194046098
 20
41.355986594794267
 30
0.0
  0
VERTEX
  5
72A4
  8
0
 10
281.3501529946862
 20
41.488736635883349
 30
0.0
  0
VERTEX
  5
72A5
  8
0
 10
281.45926992920261
 20
41.752004538408151
 30
0.0
  0
VERTEX
  5
72A6
  8
0
 10
281.56720058073608
 20
42.012410279948881
 30
0.0
  0
VERTEX
  5
72A7
  8
0
 10
281.62073849287083
 20
42.141581924072788
 30
0.0
  0
SEQEND
  5
72A8
  8
0
  0
LINE
  5
695C
  8
0
 10
280.2579818066078
 20
41.361811894947202
 30
0.0
 11
280.2916087704732
 21
41.42371260900174
 31
0.0
  0
POLYLINE
  5
695D
  8
0
 66
     1
 10
0.0
 20
0.0
 30
0.0
  0
VERTEX
  5
72A9
  8
0
 10
279.85204188844119
 20
40.614555291633899
 30
0.0
  0
VERTEX
  5
72AA
  8
0
 10
279.92063768936822
 20
40.740826847862557
 30
0.0
  0
VERTEX
  5
72AB
  8
0
 10
280.05667585917882
 20
40.99124671578965
 30
0.0
  0
VERTEX
  5
72AC
  8
0
 10
280.1912350672996
 20
41.238944102287213
 30
0.0
  0
VERTEX
  5
72AD
  8
0
 10
280.2579818066078
 20
41.361811894947202
 30
0.0
  0
SEQEND
  5
72AE
  8
0
  0
LINE
  5
695E
  8
0
 10
278.821182281213
 20
40.728760389852589
 30
0.0
 11
278.86109541956722
 21
40.786807030461603
 31
0.0
  0
POLYLINE
  5
695F
  8
0
 66
     1
 10
0.0
 20
0.0
 30
0.0
  0
VERTEX
  5
72AF
  8
0
 10
278.33935655998152
 20
40.028029612223968
 30
0.0
  0
VERTEX
  5
72B0
  8
0
 10
278.42077555766059
 20
40.146439225998037
 30
0.0
  0
VERTEX
  5
72B1
  8
0
 10
278.58224450010908
 20
40.381267406850718
 30
0.0
  0
VERTEX
  5
72B2
  8
0
 10
278.74195800597482
 20
40.613542613904713
 30
0.0
  0
VERTEX
  5
72B3
  8
0
 10
278.821182281213
 20
40.728760389852617
 30
0.0
  0
SEQEND
  5
72B4
  8
0
  0
LINE
  5
6960
  8
0
 10
277.32608179295647
 20
40.249363253553412
 30
0.0
 11
277.37184380910321
 21
40.302919849575261
 31
0.0
  0
POLYLINE
  5
6961
  8
0
 66
     1
 10
0.0
 20
0.0
 30
0.0
  0
VERTEX
  5
72B5
  8
0
 10
276.77364925209019
 20
39.602835654646469
 30
0.0
  0
VERTEX
  5
72B6
  8
0
 10
276.86699940294488
 20
39.712086005458673
 30
0.0
  0
VERTEX
  5
72B7
  8
0
 10
277.05213003050852
 20
39.928749672546637
 30
0.0
  0
VERTEX
  5
72B8
  8
0
 10
277.23524797952649
 20
40.143057844381808
 30
0.0
  0
VERTEX
  5
72B9
  8
0
 10
277.32608179295647
 20
40.249363253553412
 30
0.0
  0
SEQEND
  5
72BA
  8
0
  0
LINE
  5
6962
  8
0
 10
275.78906097565721
 20
39.928872861395178
 30
0.0
 11
275.8401704913714
 21
39.977352635556493
 31
0.0
  0
POLYLINE
  5
6963
  8
0
 66
     1
 10
0.0
 20
0.0
 30
0.0
  0
VERTEX
  5
72BB
  8
0
 10
275.17207418167789
 20
39.343631932878168
 30
0.0
  0
VERTEX
  5
72BC
  8
0
 10
275.27633272192071
 20
39.442526051022867
 30
0.0
  0
VERTEX
  5
72BD
  8
0
 10
275.48309670470252
 20
39.638651391869587
 30
0.0
  0
VERTEX
  5
72BE
  8
0
 10
275.68761281830342
 20
39.83264452330846
 30
0.0
  0
VERTEX
  5
72BF
  8
0
 10
275.78906097565721
 20
39.928872861395178
 30
0.0
  0
SEQEND
  5
72C0
  8
0
  0
LINE
  5
6964
  8
0
 10
274.22695975103193
 20
39.770800573181361
 30
0.0
 11
274.28285679976398
 21
39.8136723709313
 31
0.0
  0
POLYLINE
  5
6965
  8
0
 66
     1
 10
0.0
 20
0.0
 30
0.0
  0
VERTEX
  5
72C1
  8
0
 10
273.55217854036721
 20
39.253258337136629
 30
0.0
  0
VERTEX
  5
72C2
  8
0
 10
273.6662031916137
 20
39.340712717960599
 30
0.0
  0
VERTEX
  5
72C3
  8
0
 10
273.89233518015038
 20
39.514150942289973
 30
0.0
  0
VERTEX
  5
72C4
  8
0
 10
274.11600873699592
 20
39.685703603988827
 30
0.0
  0
VERTEX
  5
72C5
  8
0
 10
274.22695975103193
 20
39.770800573181361
 30
0.0
  0
SEQEND
  5
72C6
  8
0
  0
LINE
  5
6966
  8
0
 10
272.65689282698833
 20
39.776878261980357
 30
0.0
 11
272.71696498897512
 21
39.8136723709313
 31
0.0
  0
POLYLINE
  5
6967
  8
0
 66
     1
 10
0.0
 20
0.0
 30
0.0
  0
VERTEX
  5
72C7
  8
0
 10
271.93171024378921
 20
39.332705019448667
 30
0.0
  0
VERTEX
  5
72C8
  8
0
 10
272.05425172809908
 20
39.407761494454519
 30
0.0
  0
VERTEX
  5
72C9
  8
0
 10
272.29727417300307
 20
39.556612376786518
 30
0.0
  0
VERTEX
  5
72CA
  8
0
 10
272.53765455879773
 20
39.703845001884048
 30
0.0
  0
VERTEX
  5
72CB
  8
0
 10
272.65689282698833
 20
39.776878261980357
 30
0.0
  0
SEQEND
  5
72CC
  8
0
  0
LINE
  5
6968
  8
0
 10
271.09606218530371
 20
39.947039339361822
 30
0.0
 11
271.15965129736759
 21
39.977352635556493
 31
0.0
  0
POLYLINE
  5
6969
  8
0
 66
     1
 10
0.0
 20
0.0
 30
0.0
  0
VERTEX
  5
72CD
  8
0
 10
270.32842348170612
 20
39.581101545337617
 30
0.0
  0
VERTEX
  5
72CE
  8
0
 10
270.4581392089338
 20
39.642937780078633
 30
0.0
  0
VERTEX
  5
72CF
  8
0
 10
270.71538950544289
 20
39.765570478997319
 30
0.0
  0
VERTEX
  5
72D0
  8
0
 10
270.96984306237709
 20
39.886869956042602
 30
0.0
  0
VERTEX
  5
72D1
  8
0
 10
271.09606218530371
 20
39.947039339361822
 30
0.0
  0
SEQEND
  5
72D2
  8
0
  0
LINE
  5
696A
  8
0
 10
269.56156861311342
 20
40.2794194849535
 30
0.0
 11
269.62797797963577
 21
40.302919849575261
 31
0.0
  0
POLYLINE
  5
696B
  8
0
 66
     1
 10
0.0
 20
0.0
 30
0.0
  0
VERTEX
  5
72D3
  8
0
 10
268.7598841993925
 20
39.99572643048549
 30
0.0
  0
VERTEX
  5
72D4
  8
0
 10
268.89535297688587
 20
40.043664934233838
 30
0.0
  0
VERTEX
  5
72D5
  8
0
 10
269.16401263691841
 20
40.138735860227307
 30
0.0
  0
VERTEX
  5
72D6
  8
0
 10
269.42975151857451
 20
40.232773206766211
 30
0.0
  0
VERTEX
  5
72D7
  8
0
 10
269.56156861311342
 20
40.2794194849535
 30
0.0
  0
SEQEND
  5
72D8
  8
0
  0
LINE
  5
696C
  8
0
 10
268.07022434310761
 20
40.770377072325289
 30
0.0
 11
268.13872636917188
 21
40.786807030461603
 31
0.0
  0
POLYLINE
  5
696D
  8
0
 66
     1
 10
0.0
 20
0.0
 30
0.0
  0
VERTEX
  5
72D9
  8
0
 10
267.24327764146341
 20
40.572036957884819
 30
0.0
  0
VERTEX
  5
72DA
  8
0
 10
267.3830152449475
 20
40.605552506361619
 30
0.0
  0
VERTEX
  5
72DB
  8
0
 10
267.66014077704767
 20
40.672020042469818
 30
0.0
  0
VERTEX
  5
72DC
  8
0
 10
267.93425349262878
 20
40.73776496565511
 30
0.0
  0
VERTEX
  5
72DD
  8
0
 10
268.07022434310761
 20
40.770377072325289
 30
0.0
  0
SEQEND
  5
72DE
  8
0
  0
LINE
  5
696E
  8
0
 10
266.63836885519243
 20
41.414533067410389
 30
0.0
 11
266.70821301826589
 21
41.42371260900174
 31
0.0
  0
POLYLINE
  5
696F
  8
0
 66
     1
 10
0.0
 20
0.0
 30
0.0
  0
VERTEX
  5
72DF
  8
0
 10
265.7952200667379
 20
41.303718948796643
 30
0.0
  0
VERTEX
  5
72E0
  8
0
 10
265.937695501787
 20
41.322444338639173
 30
0.0
  0
VERTEX
  5
72E1
  8
0
 10
266.22025066063281
 20
41.359580252627353
 30
0.0
  0
VERTEX
  5
72E2
  8
0
 10
266.49973397386532
 20
41.396312437322621
 30
0.0
  0
VERTEX
  5
72E3
  8
0
 10
266.63836885519243
 20
41.414533067410389
 30
0.0
  0
SEQEND
  5
72E4
  8
0
  0
LINE
  5
6970
  8
0
 10
265.28168985772851
 20
42.204829962328461
 30
0.0
 11
265.35211093054482
 21
42.20665851439616
 31
0.0
  0
POLYLINE
  5
6971
  8
0
 66
     1
 10
0.0
 20
0.0
 30
0.0
  0
VERTEX
  5
72E5
  8
0
 10
264.43157669703021
 20
42.182755942214257
 30
0.0
  0
VERTEX
  5
72E6
  8
0
 10
264.57522897296292
 20
42.186486014132889
 30
0.0
  0
VERTEX
  5
72E7
  8
0
 10
264.86011802510552
 20
42.193883437156131
 30
0.0
  0
VERTEX
  5
72E8
  8
0
 10
265.14190985832391
 20
42.201200437859143
 30
0.0
  0
VERTEX
  5
72E9
  8
0
 10
265.28168985772851
 20
42.204829962328461
 30
0.0
  0
SEQEND
  5
72EA
  8
0
  0
LINE
  5
6972
  8
0
 10
264.01505140971523
 20
43.132609098918401
 30
0.0
 11
264.085277844264
 21
43.127066627463421
 31
0.0
  0
POLYLINE
  5
6973
  8
0
 66
     1
 10
0.0
 20
0.0
 30
0.0
  0
VERTEX
  5
72EB
  8
0
 10
263.16728789445938
 20
43.199517024887427
 30
0.0
  0
VERTEX
  5
72EC
  8
0
 10
263.31054312687968
 20
43.18821091143365
 30
0.0
  0
VERTEX
  5
72ED
  8
0
 10
263.59464476824678
 20
43.165788795777353
 30
0.0
  0
VERTEX
  5
72EE
  8
0
 10
263.87565775115752
 20
43.143610445897252
 30
0.0
  0
VERTEX
  5
72EF
  8
0
 10
264.01505140971523
 20
43.132609098918401
 30
0.0
  0
SEQEND
  5
72F0
  8
0
  0
LINE
  5
6974
  8
0
 10
262.85233106705027
 20
44.187705534809531
 30
0.0
 11
262.92159344781879
 21
44.174852764308973
 31
0.0
  0
POLYLINE
  5
6975
  8
0
 66
     1
 10
0.0
 20
0.0
 30
0.0
  0
VERTEX
  5
72F1
  8
0
 10
262.01620547171592
 20
44.342862349623488
 30
0.0
  0
VERTEX
  5
72F2
  8
0
 10
262.15749412631919
 20
44.316643922942262
 30
0.0
  0
VERTEX
  5
72F3
  8
0
 10
262.43769567987607
 20
44.264647929997629
 30
0.0
  0
VERTEX
  5
72F4
  8
0
 10
262.7148509754328
 20
44.213217220176823
 30
0.0
  0
VERTEX
  5
72F5
  8
0
 10
262.85233106705027
 20
44.187705534809531
 30
0.0
  0
SEQEND
  5
72F6
  8
0
  0
LINE
  5
6976
  8
0
 10
261.80626783712279
 20
45.35855941265708
 30
0.0
 11
261.87380731097329
 21
45.33853716075415
 31
0.0
  0
POLYLINE
  5
6977
  8
0
 66
     1
 10
0.0
 20
0.0
 30
0.0
  0
VERTEX
  5
72F7
  8
0
 10
260.99094092870303
 20
45.600265185784217
 30
0.0
  0
VERTEX
  5
72F8
  8
0
 10
261.12871501742251
 20
45.559421700444851
 30
0.0
  0
VERTEX
  5
72F9
  8
0
 10
261.40194653631272
 20
45.478421509191463
 30
0.0
  0
VERTEX
  5
72FA
  8
0
 10
261.672207573099
 20
45.398301925049218
 30
0.0
  0
VERTEX
  5
72FB
  8
0
 10
261.80626783712279
 20
45.35855941265708
 30
0.0
  0
SEQEND
  5
72FC
  8
0
  0
LINE
  5
6978
  8
0
 10
260.88832260758261
 20
46.63234261235845
 30
0.0
 11
260.95339919790598
 21
46.605370247034926
 31
0.0
  0
POLYLINE
  5
6979
  8
0
 66
     1
 10
0.0
 20
0.0
 30
0.0
  0
VERTEX
  5
72FD
  8
0
 10
260.10272727830409
 20
46.957949164768223
 30
0.0
  0
VERTEX
  5
72FE
  8
0
 10
260.23547731939323
 20
46.90292811054303
 30
0.0
  0
VERTEX
  5
72FF
  8
0
 10
260.49874522191789
 20
46.793811176026679
 30
0.0
  0
VERTEX
  5
7300
  8
0
 10
260.75915096345858
 20
46.685880524493143
 30
0.0
  0
VERTEX
  5
7301
  8
0
 10
260.88832260758261
 20
46.63234261235845
 30
0.0
  0
SEQEND
  5
7302
  8
0
  0
LINE
  5
697A
  8
0
 10
260.10855257845702
 20
47.995099298621447
 30
0.0
 11
260.17045329251158
 21
47.961472334756081
 31
0.0
  0
POLYLINE
  5
697B
  8
0
 66
     1
 10
0.0
 20
0.0
 30
0.0
  0
VERTEX
  5
7303
  8
0
 10
259.36129597514378
 20
48.401039216788028
 30
0.0
  0
VERTEX
  5
7304
  8
0
 10
259.48756753137229
 20
48.332443415861121
 30
0.0
  0
VERTEX
  5
7305
  8
0
 10
259.73798739929953
 20
48.196405246050517
 30
0.0
  0
VERTEX
  5
7306
  8
0
 10
259.98568478579699
 20
48.061846037929648
 30
0.0
  0
VERTEX
  5
7307
  8
0
 10
260.10855257845702
 20
47.995099298621447
 30
0.0
  0
SEQEND
  5
7308
  8
0
  0
LINE
  5
697C
  8
0
 10
259.47550107336252
 20
49.431898824016173
 30
0.0
 11
259.53354771397142
 21
49.391985685662007
 31
0.0
  0
POLYLINE
  5
697D
  8
0
 66
     1
 10
0.0
 20
0.0
 30
0.0
  0
VERTEX
  5
7309
  8
0
 10
258.77477029573379
 20
49.913724545247817
 30
0.0
  0
VERTEX
  5
730A
  8
0
 10
258.89317990950792
 20
49.832305547568637
 30
0.0
  0
VERTEX
  5
730B
  8
0
 10
259.12800809036059
 20
49.670836605120087
 30
0.0
  0
VERTEX
  5
730C
  8
0
 10
259.36028329741453
 20
49.511123099254519
 30
0.0
  0
VERTEX
  5
730D
  8
0
 10
259.47550107336252
 20
49.431898824016173
 30
0.0
  0
SEQEND
  5
730E
  8
0
  0
LINE
  5
697E
  8
0
 10
258.99610393706331
 20
50.926999312272763
 30
0.0
 11
259.0496605330851
 21
50.88123729612601
 31
0.0
  0
POLYLINE
  5
697F
  8
0
 66
     1
 10
0.0
 20
0.0
 30
0.0
  0
VERTEX
  5
730F
  8
0
 10
258.34957633815628
 20
51.47943185313909
 30
0.0
  0
VERTEX
  5
7310
  8
0
 10
258.4588266889686
 20
51.386081702284287
 30
0.0
  0
VERTEX
  5
7311
  8
0
 10
258.67549035605651
 20
51.200951074720791
 30
0.0
  0
VERTEX
  5
7312
  8
0
 10
258.88979852789163
 20
51.0178331257029
 30
0.0
  0
VERTEX
  5
7313
  8
0
 10
258.99610393706331
 20
50.926999312272763
 30
0.0
  0
SEQEND
  5
7314
  8
0
  0
LINE
  5
6980
  8
0
 10
258.67561354490499
 20
52.46402012957202
 30
0.0
 11
258.7240933190663
 21
52.412910613857861
 31
0.0
  0
POLYLINE
  5
6981
  8
0
 66
     1
 10
0.0
 20
0.0
 30
0.0
  0
VERTEX
  5
7315
  8
0
 10
258.09037261638798
 20
53.081006923551392
 30
0.0
  0
VERTEX
  5
7316
  8
0
 10
258.18926673453268
 20
52.976748383308603
 30
0.0
  0
VERTEX
  5
7317
  8
0
 10
258.38539207537951
 20
52.769984400526653
 30
0.0
  0
VERTEX
  5
7318
  8
0
 10
258.57938520681842
 20
52.565468286925693
 30
0.0
  0
VERTEX
  5
7319
  8
0
 10
258.67561354490499
 20
52.46402012957202
 30
0.0
  0
SEQEND
  5
731A
  8
0
  0
LINE
  5
6982
  8
0
 10
258.51754125669117
 20
54.026121354197301
 30
0.0
 11
258.56041305444109
 21
53.970224305465251
 31
0.0
  0
POLYLINE
  5
6983
  8
0
 66
     1
 10
0.0
 20
0.0
 30
0.0
  0
VERTEX
  5
731B
  8
0
 10
257.99999902064638
 20
54.700902564862098
 30
0.0
  0
VERTEX
  5
731C
  8
0
 10
258.0874534014705
 20
54.58687791361541
 30
0.0
  0
VERTEX
  5
731D
  8
0
 10
258.26089162579979
 20
54.360745925078852
 30
0.0
  0
VERTEX
  5
731E
  8
0
 10
258.43244428749853
 20
54.137072368233532
 30
0.0
  0
VERTEX
  5
731F
  8
0
 10
258.51754125669117
 20
54.026121354197301
 30
0.0
  0
SEQEND
  5
7320
  8
0
  0
LINE
  5
6984
  8
0
 10
258.52361894549023
 20
55.596188278240952
 30
0.0
 11
258.56041305444109
 21
55.536116116254171
 31
0.0
  0
POLYLINE
  5
6985
  8
0
 66
     1
 10
0.0
 20
0.0
 30
0.0
  0
VERTEX
  5
7321
  8
0
 10
258.07944570295848
 20
56.321370861440073
 30
0.0
  0
VERTEX
  5
7322
  8
0
 10
258.15450217796439
 20
56.198829377130011
 30
0.0
  0
VERTEX
  5
7323
  8
0
 10
258.30335306029627
 20
55.95580693222621
 30
0.0
  0
VERTEX
  5
7324
  8
0
 10
258.45058568539378
 20
55.715426546431729
 30
0.0
  0
VERTEX
  5
7325
  8
0
 10
258.52361894549023
 20
55.596188278240952
 30
0.0
  0
SEQEND
  5
7326
  8
0
  0
LINE
  5
6986
  8
0
 10
258.69378002287169
 20
57.157018919925513
 30
0.0
 11
258.7240933190663
 21
57.093429807861547
 31
0.0
  0
POLYLINE
  5
6987
  8
0
 66
     1
 10
0.0
 20
0.0
 30
0.0
  0
VERTEX
  5
7327
  8
0
 10
258.32784222884737
 20
57.92465762352316
 30
0.0
  0
VERTEX
  5
7328
  8
0
 10
258.3896784635885
 20
57.794941896295398
 30
0.0
  0
VERTEX
  5
7329
  8
0
 10
258.51231116250722
 20
57.537691599786278
 30
0.0
  0
VERTEX
  5
732A
  8
0
 10
258.6336106395525
 20
57.28323804285214
 30
0.0
  0
VERTEX
  5
732B
  8
0
 10
258.69378002287169
 20
57.157018919925513
 30
0.0
  0
SEQEND
  5
732C
  8
0
  0
LINE
  5
6988
  8
0
 10
259.02616016846332
 20
58.691512492115827
 30
0.0
 11
259.0496605330851
 21
58.625103125593398
 31
0.0
  0
POLYLINE
  5
6989
  8
0
 66
     1
 10
0.0
 20
0.0
 30
0.0
  0
VERTEX
  5
732D
  8
0
 10
258.74246711399542
 20
59.493196905836719
 30
0.0
  0
VERTEX
  5
732E
  8
0
 10
258.79040561774372
 20
59.35772812834324
 30
0.0
  0
VERTEX
  5
732F
  8
0
 10
258.88547654373718
 20
59.089068468310671
 30
0.0
  0
VERTEX
  5
7330
  8
0
 10
258.979513890276
 20
58.823329586654722
 30
0.0
  0
VERTEX
  5
7331
  8
0
 10
259.02616016846332
 20
58.691512492115827
 30
0.0
  0
SEQEND
  5
7332
  8
0
  0
LINE
  5
698A
  8
0
 10
259.5171177558351
 20
60.182856762121617
 30
0.0
 11
259.53354771397142
 21
60.114354736057379
 31
0.0
  0
POLYLINE
  5
698B
  8
0
 66
     1
 10
0.0
 20
0.0
 30
0.0
  0
VERTEX
  5
7333
  8
0
 10
259.31877764139472
 20
61.009803463765792
 30
0.0
  0
VERTEX
  5
7334
  8
0
 10
259.35229318987149
 20
60.870065860281557
 30
0.0
  0
VERTEX
  5
7335
  8
0
 10
259.41876072597972
 20
60.592940328181498
 30
0.0
  0
VERTEX
  5
7336
  8
0
 10
259.48450564916487
 20
60.318827612600501
 30
0.0
  0
VERTEX
  5
7337
  8
0
 10
259.5171177558351
 20
60.182856762121617
 30
0.0
  0
SEQEND
  5
7338
  8
0
  0
LINE
  5
698C
  8
0
 10
260.16127375092032
 20
61.614712250036831
 30
0.0
 11
260.17045329251158
 21
61.544868086963298
 31
0.0
  0
POLYLINE
  5
698D
  8
0
 66
     1
 10
0.0
 20
0.0
 30
0.0
  0
VERTEX
  5
7339
  8
0
 10
260.05045963230651
 20
62.457861038491302
 30
0.0
  0
VERTEX
  5
733A
  8
0
 10
260.06918502214899
 20
62.31538560344223
 30
0.0
  0
VERTEX
  5
733B
  8
0
 10
260.10632093613719
 20
62.032830444596442
 30
0.0
  0
VERTEX
  5
733C
  8
0
 10
260.14305312083252
 20
61.753347131363967
 30
0.0
  0
VERTEX
  5
733D
  8
0
 10
260.16127375092032
 20
61.614712250036803
 30
0.0
  0
SEQEND
  5
733E
  8
0
  0
LINE
  5
698E
  8
0
 10
260.95157064583827
 20
62.971391247500833
 30
0.0
 11
260.95339919790598
 21
62.900970174684488
 31
0.0
  0
POLYLINE
  5
698F
  8
0
 66
     1
 10
0.0
 20
0.0
 30
0.0
  0
VERTEX
  5
733F
  8
0
 10
260.92949662572408
 20
63.821504408199068
 30
0.0
  0
VERTEX
  5
7340
  8
0
 10
260.93322669764268
 20
63.67785213226643
 30
0.0
  0
VERTEX
  5
7341
  8
0
 10
260.94062412066597
 20
63.392963080123756
 30
0.0
  0
VERTEX
  5
7342
  8
0
 10
260.94794112136901
 20
63.111171246905251
 30
0.0
  0
VERTEX
  5
7343
  8
0
 10
260.95157064583827
 20
62.971391247500833
 30
0.0
  0
SEQEND
  5
7344
  8
0
  0
LINE
  5
6990
  8
0
 10
261.87934978242822
 20
64.238029695514058
 30
0.0
 11
261.87380731097329
 21
64.167803260965243
 31
0.0
  0
POLYLINE
  5
6991
  8
0
 66
     1
 10
0.0
 20
0.0
 30
0.0
  0
VERTEX
  5
7345
  8
0
 10
261.9462577083973
 20
65.085793210769907
 30
0.0
  0
VERTEX
  5
7346
  8
0
 10
261.93495159494353
 20
64.942537978349833
 30
0.0
  0
VERTEX
  5
7347
  8
0
 10
261.91252947928717
 20
64.658436336982476
 30
0.0
  0
VERTEX
  5
7348
  8
0
 10
261.89035112940712
 20
64.37742335407151
 30
0.0
  0
VERTEX
  5
7349
  8
0
 10
261.87934978242822
 20
64.238029695514058
 30
0.0
  0
SEQEND
  5
734A
  8
0
  0
LINE
  5
6992
  8
0
 10
262.93444621831941
 20
65.400750038178984
 30
0.0
 11
262.92159344781879
 21
65.331487657410435
 31
0.0
  0
POLYLINE
  5
6993
  8
0
 66
     1
 10
0.0
 20
0.0
 30
0.0
  0
VERTEX
  5
734B
  8
0
 10
263.08960303313341
 20
66.236875633513307
 30
0.0
  0
VERTEX
  5
734C
  8
0
 10
263.06338460645208
 20
66.095586978909978
 30
0.0
  0
VERTEX
  5
734D
  8
0
 10
263.01138861350751
 20
65.815385425353114
 30
0.0
  0
VERTEX
  5
734E
  8
0
 10
262.9599579036867
 20
65.538230129796545
 30
0.0
  0
VERTEX
  5
734F
  8
0
 10
262.93444621831941
 20
65.400750038178955
 30
0.0
  0
SEQEND
  5
7350
  8
0
  0
LINE
  5
6994
  8
0
 10
264.10530009616701
 20
66.446813268106467
 30
0.0
 11
264.085277844264
 21
66.379273794255965
 31
0.0
  0
POLYLINE
  5
6995
  8
0
 66
     1
 10
0.0
 20
0.0
 30
0.0
  0
VERTEX
  5
7351
  8
0
 10
264.34700586929409
 20
67.262140176526259
 30
0.0
  0
VERTEX
  5
7352
  8
0
 10
264.3061623839547
 20
67.124366087806663
 30
0.0
  0
VERTEX
  5
7353
  8
0
 10
264.2251621927013
 20
66.851134568916535
 30
0.0
  0
VERTEX
  5
7354
  8
0
 10
264.14504260855909
 20
66.58087353213034
 30
0.0
  0
VERTEX
  5
7355
  8
0
 10
264.10530009616701
 20
66.446813268106439
 30
0.0
  0
SEQEND
  5
7356
  8
0
  0
LINE
  5
6996
  8
0
 10
265.37908329586833
 20
67.364758497646619
 30
0.0
 11
265.35211093054482
 21
67.299681907323205
 31
0.0
  0
POLYLINE
  5
6997
  8
0
 66
     1
 10
0.0
 20
0.0
 30
0.0
  0
VERTEX
  5
7357
  8
0
 10
265.70468984827812
 20
68.150353826925141
 30
0.0
  0
VERTEX
  5
7358
  8
0
 10
265.64966879405301
 20
68.017603785836172
 30
0.0
  0
VERTEX
  5
7359
  8
0
 10
265.54055185953649
 20
67.754335883311214
 30
0.0
  0
VERTEX
  5
735A
  8
0
 10
265.43262120800279
 20
67.493930141770392
 30
0.0
  0
VERTEX
  5
735B
  8
0
 10
265.37908329586833
 20
67.364758497646619
 30
0.0
  0
SEQEND
  5
735C
  8
0
  0
LINE
  5
6998
  8
0
 10
266.7418399821313
 20
68.144528526772206
 30
0.0
 11
266.70821301826589
 21
68.082627812717647
 31
0.0
  0
POLYLINE
  5
6999
  8
0
 66
     1
 10
0.0
 20
0.0
 30
0.0
  0
VERTEX
  5
735D
  8
0
 10
267.14777990029791
 20
68.891785130085509
 30
0.0
  0
VERTEX
  5
735E
  8
0
 10
267.07918409937088
 20
68.765513573856765
 30
0.0
  0
VERTEX
  5
735F
  8
0
 10
266.94314592956039
 20
68.515093705929743
 30
0.0
  0
VERTEX
  5
7360
  8
0
 10
266.8085867214395
 20
68.267396319432294
 30
0.0
  0
VERTEX
  5
7361
  8
0
 10
266.7418399821313
 20
68.144528526772206
 30
0.0
  0
SEQEND
  5
7362
  8
0
  0
LINE
  5
699A
  8
0
 10
268.17863950752599
 20
68.777580031866819
 30
0.0
 11
268.13872636917188
 21
68.719533391257812
 31
0.0
  0
POLYLINE
  5
699B
  8
0
 66
     1
 10
0.0
 20
0.0
 30
0.0
  0
VERTEX
  5
7363
  8
0
 10
268.66046522875757
 20
69.47831080949544
 30
0.0
  0
VERTEX
  5
7364
  8
0
 10
268.57904623107851
 20
69.359901195721307
 30
0.0
  0
VERTEX
  5
7365
  8
0
 10
268.4175772886299
 20
69.125073014868633
 30
0.0
  0
VERTEX
  5
7366
  8
0
 10
268.25786378276428
 20
68.892797807814702
 30
0.0
  0
VERTEX
  5
7367
  8
0
 10
268.17863950752599
 20
68.777580031866819
 30
0.0
  0
SEQEND
  5
7368
  8
0
  0
LINE
  5
699C
  8
0
 10
269.67373999578263
 20
69.256977168166003
 30
0.0
 11
269.62797797963577
 21
69.203420572144125
 31
0.0
  0
POLYLINE
  5
699D
  8
0
 66
     1
 10
0.0
 20
0.0
 30
0.0
  0
VERTEX
  5
7369
  8
0
 10
270.22617253664902
 20
69.903504767072945
 30
0.0
  0
VERTEX
  5
736A
  8
0
 10
270.13282238579433
 20
69.794254416260827
 30
0.0
  0
VERTEX
  5
736B
  8
0
 10
269.94769175823069
 20
69.577590749172828
 30
0.0
  0
VERTEX
  5
736C
  8
0
 10
269.76457380921272
 20
69.3632825773376
 30
0.0
  0
VERTEX
  5
736D
  8
0
 10
269.67373999578263
 20
69.256977168166003
 30
0.0
  0
SEQEND
  5
736E
  8
0
  0
LINE
  5
699E
  8
0
 10
271.21076081308178
 20
69.577467560324237
 30
0.0
 11
271.1596512973677
 21
69.528987786162929
 31
0.0
  0
POLYLINE
  5
699F
  8
0
 66
     1
 10
0.0
 20
0.0
 30
0.0
  0
VERTEX
  5
736F
  8
0
 10
271.82774760706133
 20
70.162708488841247
 30
0.0
  0
VERTEX
  5
7370
  8
0
 10
271.72348906681839
 20
70.063814370696463
 30
0.0
  0
VERTEX
  5
7371
  8
0
 10
271.51672508403652
 20
69.867689029849714
 30
0.0
  0
VERTEX
  5
7372
  8
0
 10
271.31220897043562
 20
69.67369589841087
 30
0.0
  0
VERTEX
  5
7373
  8
0
 10
271.21076081308178
 20
69.577467560324237
 30
0.0
  0
SEQEND
  5
7374
  8
0
  0
LINE
  5
69A0
  8
0
 10
272.77286203770711
 20
69.735539848538053
 30
0.0
 11
272.71696498897512
 21
69.692668050788114
 31
0.0
  0
POLYLINE
  5
69A1
  8
0
 66
     1
 10
0.0
 20
0.0
 30
0.0
  0
VERTEX
  5
7375
  8
0
 10
273.44764324837189
 20
70.253082084582786
 30
0.0
  0
VERTEX
  5
7376
  8
0
 10
273.33361859712539
 20
70.165627703758844
 30
0.0
  0
VERTEX
  5
7377
  8
0
 10
273.10748660858872
 20
69.992189479429442
 30
0.0
  0
VERTEX
  5
7378
  8
0
 10
272.88381305174312
 20
69.820636817730588
 30
0.0
  0
VERTEX
  5
7379
  8
0
 10
272.77286203770711
 20
69.735539848538053
 30
0.0
  0
SEQEND
  5
737A
  8
0
  0
POLYLINE
  5
69A2
  8
0
 66
     1
 10
0.0
 20
0.0
 30
0.0
  0
VERTEX
  5
737B
  8
0
 10
274.22695975103198
 20
69.735539848538053
 30
0.0
  0
VERTEX
  5
737C
  8
0
 10
274.11600873699581
 20
69.820636817730673
 30
0.0
  0
VERTEX
  5
737D
  8
0
 10
273.8923351801505
 20
69.992189479429442
 30
0.0
  0
VERTEX
  5
737E
  8
0
 10
273.66620319161382
 20
70.165627703758759
 30
0.0
  0
VERTEX
  5
737F
  8
0
 10
273.55217854036721
 20
70.253082084582786
 30
0.0
  0
SEQEND
  5
7380
  8
0
  0
LINE
  5
69A3
  8
0
 10
274.28285679976398
 20
69.692668050788143
 30
0.0
 11
274.22695975103198
 21
69.735539848538053
 31
0.0
  0
POLYLINE
  5
69A4
  8
0
 66
     1
 10
0.0
 20
0.0
 30
0.0
  0
VERTEX
  5
7381
  8
0
 10
275.78906097565732
 20
69.577467560324195
 30
0.0
  0
VERTEX
  5
7382
  8
0
 10
275.68761281830342
 20
69.673695898410983
 30
0.0
  0
VERTEX
  5
7383
  8
0
 10
275.48309670470269
 20
69.867689029849714
 30
0.0
  0
VERTEX
  5
7384
  8
0
 10
275.27633272192088
 20
70.063814370696335
 30
0.0
  0
VERTEX
  5
7385
  8
0
 10
275.17207418167789
 20
70.162708488841247
 30
0.0
  0
SEQEND
  5
7386
  8
0
  0
LINE
  5
69A5
  8
0
 10
275.8401704913714
 20
69.528987786162986
 30
0.0
 11
275.78906097565732
 21
69.577467560324195
 31
0.0
  0
POLYLINE
  5
69A6
  8
0
 66
     1
 10
0.0
 20
0.0
 30
0.0
  0
VERTEX
  5
7387
  8
0
 10
277.32608179295647
 20
69.256977168165974
 30
0.0
  0
VERTEX
  5
7388
  8
0
 10
277.23524797952649
 20
69.363282577337543
 30
0.0
  0
VERTEX
  5
7389
  8
0
 10
277.05213003050852
 20
69.577590749172771
 30
0.0
  0
VERTEX
  5
738A
  8
0
 10
276.86699940294488
 20
69.794254416260799
 30
0.0
  0
VERTEX
  5
738B
  8
0
 10
276.77364925209019
 20
69.903504767072945
 30
0.0
  0
SEQEND
  5
738C
  8
0
  0
LINE
  5
69A7
  8
0
 10
277.37184380910332
 20
69.203420572144182
 30
0.0
 11
277.32608179295647
 21
69.256977168165974
 31
0.0
  0
POLYLINE
  5
69A8
  8
0
 66
     1
 10
0.0
 20
0.0
 30
0.0
  0
VERTEX
  5
738D
  8
0
 10
278.82118228121323
 20
68.777580031866762
 30
0.0
  0
VERTEX
  5
738E
  8
0
 10
278.74195800597488
 20
68.892797807814588
 30
0.0
  0
VERTEX
  5
738F
  8
0
 10
278.5822445001092
 20
69.125073014868576
 30
0.0
  0
VERTEX
  5
7390
  8
0
 10
278.42077555766059
 20
69.359901195721363
 30
0.0
  0
VERTEX
  5
7391
  8
0
 10
278.33935655998152
 20
69.47831080949544
 30
0.0
  0
SEQEND
  5
7392
  8
0
  0
LINE
  5
69A9
  8
0
 10
278.86109541956728
 20
68.719533391257841
 30
0.0
 11
278.82118228121323
 21
68.77758003186679
 31
0.0
  0
POLYLINE
  5
69AA
  8
0
 66
     1
 10
0.0
 20
0.0
 30
0.0
  0
VERTEX
  5
7393
  8
0
 10
280.2579818066078
 20
68.144528526772206
 30
0.0
  0
VERTEX
  5
7394
  8
0
 10
280.1912350672996
 20
68.26739631943218
 30
0.0
  0
VERTEX
  5
7395
  8
0
 10
280.05667585917882
 20
68.515093705929743
 30
0.0
  0
VERTEX
  5
7396
  8
0
 10
279.92063768936822
 20
68.76551357385685
 30
0.0
  0
VERTEX
  5
7397
  8
0
 10
279.85204188844119
 20
68.891785130085481
 30
0.0
  0
SEQEND
  5
7398
  8
0
  0
LINE
  5
69AB
  8
0
 10
280.2916087704732
 20
68.082627812717703
 30
0.0
 11
280.2579818066078
 21
68.144528526772206
 31
0.0
  0
POLYLINE
  5
69AC
  8
0
 66
     1
 10
0.0
 20
0.0
 30
0.0
  0
VERTEX
  5
7399
  8
0
 10
281.62073849287083
 20
67.364758497646591
 30
0.0
  0
VERTEX
  5
739A
  8
0
 10
281.5672005807362
 20
67.493930141770363
 30
0.0
  0
VERTEX
  5
739B
  8
0
 10
281.45926992920261
 20
67.754335883311214
 30
0.0
  0
VERTEX
  5
739C
  8
0
 10
281.35015299468608
 20
68.017603785836172
 30
0.0
  0
VERTEX
  5
739D
  8
0
 10
281.29513194046098
 20
68.150353826925141
 30
0.0
  0
SEQEND
  5
739E
  8
0
  0
LINE
  5
69AD
  8
0
 10
281.64771085819439
 20
67.299681907323247
 30
0.0
 11
281.62073849287083
 21
67.364758497646591
 31
0.0
  0
POLYLINE
  5
69AE
  8
0
 66
     1
 10
0.0
 20
0.0
 30
0.0
  0
VERTEX
  5
739F
  8
0
 10
282.8945216925722
 20
66.446813268106439
 30
0.0
  0
VERTEX
  5
73A0
  8
0
 10
282.85477918018
 20
66.580873532130454
 30
0.0
  0
VERTEX
  5
73A1
  8
0
 10
282.77465959603779
 20
66.851134568916621
 30
0.0
  0
VERTEX
  5
73A2
  8
0
 10
282.6936594047844
 20
67.124366087806607
 30
0.0
  0
VERTEX
  5
73A3
  8
0
 10
282.65281591944512
 20
67.262140176526259
 30
0.0
  0
SEQEND
  5
73A4
  8
0
  0
LINE
  5
69AF
  8
0
 10
282.9145439444751
 20
66.379273794255994
 30
0.0
 11
282.8945216925722
 21
66.446813268106439
 31
0.0
  0
POLYLINE
  5
69B0
  8
0
 66
     1
 10
0.0
 20
0.0
 30
0.0
  0
VERTEX
  5
73A5
  8
0
 10
284.06537557041969
 20
65.400750038178955
 30
0.0
  0
VERTEX
  5
73A6
  8
0
 10
284.0398638850524
 20
65.538230129796261
 30
0.0
  0
VERTEX
  5
73A7
  8
0
 10
283.98843317523159
 20
65.815385425353242
 30
0.0
  0
VERTEX
  5
73A8
  8
0
 10
283.93643718228702
 20
66.095586978910305
 30
0.0
  0
VERTEX
  5
73A9
  8
0
 10
283.9102187556058
 20
66.236875633513307
 30
0.0
  0
SEQEND
  5
73AA
  8
0
  0
LINE
  5
69B1
  8
0
 10
284.0782283409203
 20
65.331487657410435
 30
0.0
 11
284.06537557041969
 21
65.400750038178955
 31
0.0
  0
POLYLINE
  5
69B2
  8
0
 66
     1
 10
0.0
 20
0.0
 30
0.0
  0
VERTEX
  5
73AB
  8
0
 10
285.12047200631088
 20
64.238029695514015
 30
0.0
  0
VERTEX
  5
73AC
  8
0
 10
285.10947065933198
 20
64.377423354071539
 30
0.0
  0
VERTEX
  5
73AD
  8
0
 10
285.08729230945193
 20
64.65843633698239
 30
0.0
  0
VERTEX
  5
73AE
  8
0
 10
285.06487019379563
 20
64.942537978349662
 30
0.0
  0
VERTEX
  5
73AF
  8
0
 10
285.05356408034191
 20
65.08579321076985
 30
0.0
  0
SEQEND
  5
73B0
  8
0
  0
LINE
  5
69B3
  8
0
 10
285.12601447776581
 20
64.167803260965286
 30
0.0
 11
285.12047200631088
 21
64.238029695514001
 31
0.0
  0
POLYLINE
  5
69B4
  8
0
 66
     1
 10
0.0
 20
0.0
 30
0.0
  0
VERTEX
  5
73B1
  8
0
 10
286.04825114290082
 20
62.971391247500783
 30
0.0
  0
VERTEX
  5
73B2
  8
0
 10
286.05188066737009
 20
63.111171246905307
 30
0.0
  0
VERTEX
  5
73B3
  8
0
 10
286.05919766807312
 20
63.392963080123728
 30
0.0
  0
VERTEX
  5
73B4
  8
0
 10
286.06659509109642
 20
63.67785213226631
 30
0.0
  0
VERTEX
  5
73B5
  8
0
 10
286.07032516301501
 20
63.821504408199068
 30
0.0
  0
SEQEND
  5
73B6
  8
0
  0
LINE
  5
69B5
  8
0
 10
286.04642259083312
 20
62.90097017468451
 30
0.0
 11
286.04825114290082
 21
62.971391247500783
 31
0.0
  0
POLYLINE
  5
69B6
  8
0
 66
     1
 10
0.0
 20
0.0
 30
0.0
  0
VERTEX
  5
73B7
  8
0
 10
286.8385480378189
 20
61.614712250036803
 30
0.0
  0
VERTEX
  5
73B8
  8
0
 10
286.85676866790669
 20
61.75334713136408
 30
0.0
  0
VERTEX
  5
73B9
  8
0
 10
286.8935008526019
 20
62.032830444596421
 30
0.0
  0
VERTEX
  5
73BA
  8
0
 10
286.93063676659011
 20
62.315385603442053
 30
0.0
  0
VERTEX
  5
73BB
  8
0
 10
286.94936215643258
 20
62.457861038491266
 30
0.0
  0
SEQEND
  5
73BC
  8
0
  0
LINE
  5
69B7
  8
0
 10
286.82936849622752
 20
61.544868086963326
 30
0.0
 11
286.8385480378189
 21
61.614712250036803
 31
0.0
  0
POLYLINE
  5
69B8
  8
0
 66
     1
 10
0.0
 20
0.0
 30
0.0
  0
VERTEX
  5
73BD
  8
0
 10
287.482704032904
 20
60.182856762121581
 30
0.0
  0
VERTEX
  5
73BE
  8
0
 10
287.51531613957411
 20
60.318827612600472
 30
0.0
  0
VERTEX
  5
73BF
  8
0
 10
287.58106106275937
 20
60.592940328181527
 30
0.0
  0
VERTEX
  5
73C0
  8
0
 10
287.64752859886772
 20
60.870065860281613
 30
0.0
  0
VERTEX
  5
73C1
  8
0
 10
287.68104414734438
 20
61.00980346376577
 30
0.0
  0
SEQEND
  5
73C2
  8
0
  0
LINE
  5
69B9
  8
0
 10
287.46627407476768
 20
60.1143547360574
 30
0.0
 11
287.482704032904
 21
60.182856762121581
 31
0.0
  0
POLYLINE
  5
69BA
  8
0
 66
     1
 10
0.0
 20
0.0
 30
0.0
  0
VERTEX
  5
73C3
  8
0
 10
287.97366162027572
 20
58.691512492115798
 30
0.0
  0
VERTEX
  5
73C4
  8
0
 10
288.0203078984631
 20
58.823329586654893
 30
0.0
  0
VERTEX
  5
73C5
  8
0
 10
288.11434524500191
 20
59.089068468310757
 30
0.0
  0
VERTEX
  5
73C6
  8
0
 10
288.20941617099538
 20
59.35772812834319
 30
0.0
  0
VERTEX
  5
73C7
  8
0
 10
288.25735467474368
 20
59.493196905836719
 30
0.0
  0
SEQEND
  5
73C8
  8
0
  0
LINE
  5
69BB
  8
0
 10
287.950161255654
 20
58.625103125593398
 30
0.0
 11
287.97366162027572
 21
58.691512492115798
 31
0.0
  0
POLYLINE
  5
69BC
  8
0
 66
     1
 10
0.0
 20
0.0
 30
0.0
  0
VERTEX
  5
73C9
  8
0
 10
288.30604176586752
 20
57.157018919925463
 30
0.0
  0
VERTEX
  5
73CA
  8
0
 10
288.36621114918671
 20
57.283238042852162
 30
0.0
  0
VERTEX
  5
73CB
  8
0
 10
288.48751062623188
 20
57.537691599786278
 30
0.0
  0
VERTEX
  5
73CC
  8
0
 10
288.6101433251506
 20
57.79494189629537
 30
0.0
  0
VERTEX
  5
73CD
  8
0
 10
288.67197955989161
 20
57.92465762352316
 30
0.0
  0
SEQEND
  5
73CE
  8
0
  0
LINE
  5
69BD
  8
0
 10
288.2757284696728
 20
57.093429807861547
 30
0.0
 11
288.30604176586752
 21
57.157018919925463
 31
0.0
  0
POLYLINE
  5
69BE
  8
0
 66
     1
 10
0.0
 20
0.0
 30
0.0
  0
VERTEX
  5
73CF
  8
0
 10
288.47620284324881
 20
55.59618827824093
 30
0.0
  0
VERTEX
  5
73D0
  8
0
 10
288.54923610334532
 20
55.715426546431559
 30
0.0
  0
VERTEX
  5
73D1
  8
0
 10
288.69646872844271
 20
55.955806932226153
 30
0.0
  0
VERTEX
  5
73D2
  8
0
 10
288.84531961077471
 20
56.198829377130089
 30
0.0
  0
VERTEX
  5
73D3
  8
0
 10
288.92037608578062
 20
56.321370861440023
 30
0.0
  0
SEQEND
  5
73D4
  8
0
  0
LINE
  5
69BF
  8
0
 10
288.4394087342979
 20
55.536116116254171
 30
0.0
 11
288.47620284324881
 21
55.59618827824093
 31
0.0
  0
POLYLINE
  5
69C0
  8
0
 66
     1
 10
0.0
 20
0.0
 30
0.0
  0
VERTEX
  5
73D5
  8
0
 10
288.48228053204781
 20
54.026121354197301
 30
0.0
  0
VERTEX
  5
73D6
  8
0
 10
288.56737750124051
 20
54.137072368233333
 30
0.0
  0
VERTEX
  5
73D7
  8
0
 10
288.73893016293931
 20
54.360745925078902
 30
0.0
  0
VERTEX
  5
73D8
  8
0
 10
288.91236838726883
 20
54.586877913615659
 30
0.0
  0
VERTEX
  5
73D9
  8
0
 10
288.9998227680926
 20
54.700902564862083
 30
0.0
  0
SEQEND
  5
73DA
  8
0
  0
LINE
  5
69C1
  8
0
 10
288.4394087342979
 20
53.970224305465251
 30
0.0
 11
288.48228053204781
 21
54.026121354197301
 31
0.0
  0
POLYLINE
  5
69C2
  8
0
 66
     1
 10
0.0
 20
0.0
 30
0.0
  0
VERTEX
  5
73DB
  8
0
 10
288.32420824383411
 20
52.464020129571992
 30
0.0
  0
VERTEX
  5
73DC
  8
0
 10
288.42043658192068
 20
52.565468286925807
 30
0.0
  0
VERTEX
  5
73DD
  8
0
 10
288.61442971335958
 20
52.769984400526653
 30
0.0
  0
VERTEX
  5
73DE
  8
0
 10
288.8105550542063
 20
52.976748383308518
 30
0.0
  0
VERTEX
  5
73DF
  8
0
 10
288.90944917235112
 20
53.081006923551371
 30
0.0
  0
SEQEND
  5
73E0
  8
0
  0
LINE
  5
69C3
  8
0
 10
288.2757284696728
 20
52.412910613857861
 30
0.0
 11
288.32420824383411
 21
52.46402012957202
 31
0.0
  0
POLYLINE
  5
69C4
  8
0
 66
     1
 10
0.0
 20
0.0
 30
0.0
  0
VERTEX
  5
73E1
  8
0
 10
288.00371785167579
 20
50.926999312272763
 30
0.0
  0
VERTEX
  5
73E2
  8
0
 10
288.11002326084753
 20
51.01783312570285
 30
0.0
  0
VERTEX
  5
73E3
  8
0
 10
288.3243314326827
 20
51.200951074720813
 30
0.0
  0
VERTEX
  5
73E4
  8
0
 10
288.54099509977061
 20
51.3860817022844
 30
0.0
  0
VERTEX
  5
73E5
  8
0
 10
288.65024545058282
 20
51.47943185313909
 30
0.0
  0
SEQEND
  5
73E6
  8
0
  0
LINE
  5
69C5
  8
0
 10
287.950161255654
 20
50.88123729612601
 30
0.0
 11
288.00371785167579
 21
50.926999312272763
 31
0.0
  0
POLYLINE
  5
69C6
  8
0
 66
     1
 10
0.0
 20
0.0
 30
0.0
  0
VERTEX
  5
73E7
  8
0
 10
287.52432071537658
 20
49.431898824016152
 30
0.0
  0
VERTEX
  5
73E8
  8
0
 10
287.63953849132452
 20
49.511123099254412
 30
0.0
  0
VERTEX
  5
73E9
  8
0
 10
287.87181369837862
 20
49.670836605120087
 30
0.0
  0
VERTEX
  5
73EA
  8
0
 10
288.10664187923129
 20
49.832305547568687
 30
0.0
  0
VERTEX
  5
73EB
  8
0
 10
288.22505149300531
 20
49.913724545247781
 30
0.0
  0
SEQEND
  5
73EC
  8
0
  0
LINE
  5
69C7
  8
0
 10
287.46627407476763
 20
49.391985685662007
 30
0.0
 11
287.52432071537658
 21
49.431898824016152
 31
0.0
  0
POLYLINE
  5
69C8
  8
0
 66
     1
 10
0.0
 20
0.0
 30
0.0
  0
VERTEX
  5
73ED
  8
0
 10
286.89126921028208
 20
47.995099298621419
 30
0.0
  0
VERTEX
  5
73EE
  8
0
 10
287.01413700294199
 20
48.061846037929627
 30
0.0
  0
VERTEX
  5
73EF
  8
0
 10
287.26183438943963
 20
48.196405246050553
 30
0.0
  0
VERTEX
  5
73F0
  8
0
 10
287.51225425736681
 20
48.33244341586115
 30
0.0
  0
VERTEX
  5
73F1
  8
0
 10
287.63852581359538
 20
48.401039216788028
 30
0.0
  0
SEQEND
  5
73F2
  8
0
  0
LINE
  5
69C9
  8
0
 10
286.82936849622752
 20
47.961472334756081
 30
0.0
 11
286.89126921028208
 21
47.995099298621419
 31
0.0
  0
POLYLINE
  5
69CA
  8
0
 66
     1
 10
0.0
 20
0.0
 30
0.0
  0
VERTEX
  5
73F3
  8
0
 10
286.11149918115649
 20
46.63234261235845
 30
0.0
  0
VERTEX
  5
73F4
  8
0
 10
286.24067082528052
 20
46.685880524493143
 30
0.0
  0
VERTEX
  5
73F5
  8
0
 10
286.50107656682121
 20
46.793811176026701
 30
0.0
  0
VERTEX
  5
73F6
  8
0
 10
286.76434446934582
 20
46.902928110543002
 30
0.0
  0
VERTEX
  5
73F7
  8
0
 10
286.8970945104349
 20
46.957949164768202
 30
0.0
  0
SEQEND
  5
73F8
  8
0
  0
LINE
  5
69CB
  8
0
 10
286.046422590833
 20
46.605370247034891
 30
0.0
 11
286.11149918115649
 21
46.63234261235845
 31
0.0
  0
POLYLINE
  5
69CC
  8
0
 66
     1
 10
0.0
 20
0.0
 30
0.0
  0
VERTEX
  5
73F9
  8
0
 10
285.19355395161631
 20
45.35855941265708
 30
0.0
  0
VERTEX
  5
73FA
  8
0
 10
285.32761421564021
 20
45.398301925049253
 30
0.0
  0
VERTEX
  5
73FB
  8
0
 10
285.59787525242638
 20
45.478421509191442
 30
0.0
  0
VERTEX
  5
73FC
  8
0
 10
285.87110677131648
 20
45.55942170044483
 30
0.0
  0
VERTEX
  5
73FD
  8
0
 10
286.00888086003607
 20
45.600265185784217
 30
0.0
  0
SEQEND
  5
73FE
  8
0
  0
LINE
  5
69CD
  8
0
 10
285.12601447776581
 20
45.338537160754122
 30
0.0
 11
285.19355395161631
 21
45.35855941265708
 31
0.0
  0
POLYLINE
  5
69CE
  8
0
 66
     1
 10
0.0
 20
0.0
 30
0.0
  0
VERTEX
  5
73FF
  8
0
 10
284.14749072168883
 20
44.187705534809531
 30
0.0
  0
VERTEX
  5
7400
  8
0
 10
284.28497081330607
 20
44.213217220176773
 30
0.0
  0
VERTEX
  5
7401
  8
0
 10
284.56212610886308
 20
44.264647929997629
 30
0.0
  0
VERTEX
  5
7402
  8
0
 10
284.84232766242019
 20
44.316643922942291
 30
0.0
  0
VERTEX
  5
7403
  8
0
 10
284.98361631702312
 20
44.342862349623488
 30
0.0
  0
SEQEND
  5
7404
  8
0
  0
LINE
  5
69CF
  8
0
 10
284.0782283409203
 20
44.174852764308973
 30
0.0
 11
284.14749072168883
 21
44.187705534809531
 31
0.0
  0
POLYLINE
  5
69D0
  8
0
 66
     1
 10
0.0
 20
0.0
 30
0.0
  0
VERTEX
  5
7405
  8
0
 10
282.98477037902393
 20
43.132609098918401
 30
0.0
  0
VERTEX
  5
7406
  8
0
 10
283.12416403758141
 20
43.143610445897217
 30
0.0
  0
VERTEX
  5
7407
  8
0
 10
283.4051770204922
 20
43.165788795777331
 30
0.0
  0
VERTEX
  5
7408
  8
0
 10
283.68927866185948
 20
43.18821091143365
 30
0.0
  0
VERTEX
  5
7409
  8
0
 10
283.83253389427972
 20
43.199517024887427
 30
0.0
  0
SEQEND
  5
740A
  8
0
  0
LINE
  5
69D1
  8
0
 10
282.9145439444751
 20
43.127066627463421
 30
0.0
 11
282.98477037902393
 21
43.132609098918401
 31
0.0
  0
POLYLINE
  5
69D2
  8
0
 66
     1
 10
0.0
 20
0.0
 30
0.0
  0
VERTEX
  5
740B
  8
0
 10
281.71813193101059
 20
42.204829962328432
 30
0.0
  0
VERTEX
  5
740C
  8
0
 10
281.85791193041513
 20
42.201200437859143
 30
0.0
  0
VERTEX
  5
740D
  8
0
 10
282.13970376363352
 20
42.193883437156131
 30
0.0
  0
VERTEX
  5
740E
  8
0
 10
282.42459281577612
 20
42.186486014132889
 30
0.0
  0
VERTEX
  5
740F
  8
0
 10
282.56824509170889
 20
42.182755942214257
 30
0.0
  0
SEQEND
  5
7410
  8
0
  0
LINE
  5
69D3
  8
0
 10
281.64771085819427
 20
42.20665851439616
 30
0.0
 11
281.71813193101059
 21
42.204829962328432
 31
0.0
  0
POLYLINE
  5
69D4
  8
0
 66
     1
 10
0.0
 20
0.0
 30
0.0
  0
VERTEX
  5
7411
  8
0
 10
280.36145293354662
 20
41.414533067410389
 30
0.0
  0
VERTEX
  5
7412
  8
0
 10
280.50008781487401
 20
41.396312437322592
 30
0.0
  0
VERTEX
  5
7413
  8
0
 10
280.77957112810628
 20
41.359580252627318
 30
0.0
  0
VERTEX
  5
7414
  8
0
 10
281.06212628695192
 20
41.322444338639229
 30
0.0
  0
VERTEX
  5
7415
  8
0
 10
281.2046017220012
 20
41.303718948796643
 30
0.0
  0
SEQEND
  5
7416
  8
0
  0
LINE
  5
69D5
  8
0
 10
280.2916087704732
 20
41.42371260900174
 30
0.0
 11
280.36145293354662
 21
41.414533067410389
 31
0.0
  0
POLYLINE
  5
69D6
  8
0
 66
     1
 10
0.0
 20
0.0
 30
0.0
  0
VERTEX
  5
7417
  8
0
 10
278.92959744563137
 20
40.770377072325289
 30
0.0
  0
VERTEX
  5
7418
  8
0
 10
279.06556829611031
 20
40.73776496565511
 30
0.0
  0
VERTEX
  5
7419
  8
0
 10
279.33968101169131
 20
40.672020042469818
 30
0.0
  0
VERTEX
  5
741A
  8
0
 10
279.61680654379143
 20
40.605552506361619
 30
0.0
  0
VERTEX
  5
741B
  8
0
 10
279.75654414727558
 20
40.572036957884819
 30
0.0
  0
SEQEND
  5
741C
  8
0
  0
LINE
  5
69D7
  8
0
 10
278.86109541956722
 20
40.786807030461603
 30
0.0
 11
278.92959744563137
 21
40.770377072325289
 31
0.0
  0
POLYLINE
  5
69D8
  8
0
 66
     1
 10
0.0
 20
0.0
 30
0.0
  0
VERTEX
  5
741D
  8
0
 10
277.43825317562562
 20
40.2794194849535
 30
0.0
  0
VERTEX
  5
741E
  8
0
 10
277.57007027016459
 20
40.232773206766183
 30
0.0
  0
VERTEX
  5
741F
  8
0
 10
277.83580915182068
 20
40.13873586022725
 30
0.0
  0
VERTEX
  5
7420
  8
0
 10
278.10446881185322
 20
40.043664934233838
 30
0.0
  0
VERTEX
  5
7421
  8
0
 10
278.2399375893466
 20
39.99572643048549
 30
0.0
  0
SEQEND
  5
7422
  8
0
  0
LINE
  5
69D9
  8
0
 10
277.37184380910321
 20
40.302919849575261
 30
0.0
 11
277.43825317562562
 21
40.2794194849535
 31
0.0
  0
POLYLINE
  5
69DA
  8
0
 66
     1
 10
0.0
 20
0.0
 30
0.0
  0
VERTEX
  5
7423
  8
0
 10
275.90375960343528
 20
39.947039339361822
 30
0.0
  0
VERTEX
  5
7424
  8
0
 10
276.02997872636189
 20
39.886869956042602
 30
0.0
  0
VERTEX
  5
7425
  8
0
 10
276.2844322832961
 20
39.765570478997347
 30
0.0
  0
VERTEX
  5
7426
  8
0
 10
276.54168257980518
 20
39.642937780078661
 30
0.0
  0
VERTEX
  5
7427
  8
0
 10
276.67139830703297
 20
39.581101545337617
 30
0.0
  0
SEQEND
  5
7428
  8
0
  0
LINE
  5
69DB
  8
0
 10
275.8401704913714
 20
39.977352635556493
 30
0.0
 11
275.90375960343528
 21
39.947039339361822
 31
0.0
  0
POLYLINE
  5
69DC
  8
0
 66
     1
 10
0.0
 20
0.0
 30
0.0
  0
VERTEX
  5
7429
  8
0
 10
274.34292896175077
 20
39.776878261980357
 30
0.0
  0
VERTEX
  5
742A
  8
0
 10
274.46216722994137
 20
39.703845001884019
 30
0.0
  0
VERTEX
  5
742B
  8
0
 10
274.70254761573602
 20
39.556612376786518
 30
0.0
  0
VERTEX
  5
742C
  8
0
 10
274.9455700606398
 20
39.407761494454583
 30
0.0
  0
VERTEX
  5
742D
  8
0
 10
275.06811154494989
 20
39.332705019448667
 30
0.0
  0
SEQEND
  5
742E
  8
0
  0
LINE
  5
69DD
  8
0
 10
274.28285679976398
 20
39.8136723709313
 30
0.0
 11
274.34292896175077
 21
39.776878261980357
 31
0.0
  0
POLYLINE
  5
69DE
  8
0
 66
     1
 10
0.0
 20
0.0
 30
0.0
  0
VERTEX
  5
742F
  8
0
 10
272.77286203770711
 20
39.770800573181361
 30
0.0
  0
VERTEX
  5
7430
  8
0
 10
272.88381305174329
 20
39.685703603988657
 30
0.0
  0
VERTEX
  5
7431
  8
0
 10
273.10748660858877
 20
39.514150942289909
 30
0.0
  0
VERTEX
  5
7432
  8
0
 10
273.33361859712528
 20
39.340712717960692
 30
0.0
  0
VERTEX
  5
7433
  8
0
 10
273.44764324837189
 20
39.253258337136629
 30
0.0
  0
SEQEND
  5
7434
  8
0
  0
LINE
  5
69DF
  8
0
 10
272.71696498897512
 20
39.8136723709313
 30
0.0
 11
272.77286203770711
 21
39.770800573181361
 31
0.0
  0
POLYLINE
  5
69E0
  8
0
 66
     1
 10
0.0
 20
0.0
 30
0.0
  0
VERTEX
  5
7435
  8
0
 10
271.21076081308178
 20
39.928872861395178
 30
0.0
  0
VERTEX
  5
7436
  8
0
 10
271.31220897043579
 20
39.832644523308382
 30
0.0
  0
VERTEX
  5
7437
  8
0
 10
271.51672508403652
 20
39.638651391869637
 30
0.0
  0
VERTEX
  5
7438
  8
0
 10
271.72348906681827
 20
39.442526051023037
 30
0.0
  0
VERTEX
  5
7439
  8
0
 10
271.82774760706121
 20
39.343631932878168
 30
0.0
  0
SEQEND
  5
743A
  8
0
  0
LINE
  5
69E1
  8
0
 10
271.1596512973677
 20
39.977352635556493
 30
0.0
 11
271.21076081308178
 21
39.928872861395178
 31
0.0
  0
POLYLINE
  5
69E2
  8
0
 66
     1
 10
0.0
 20
0.0
 30
0.0
  0
VERTEX
  5
743B
  8
0
 10
269.67373999578263
 20
40.249363253553412
 30
0.0
  0
VERTEX
  5
743C
  8
0
 10
269.76457380921272
 20
40.143057844381779
 30
0.0
  0
VERTEX
  5
743D
  8
0
 10
269.94769175823058
 20
39.928749672546587
 30
0.0
  0
VERTEX
  5
743E
  8
0
 10
270.13282238579421
 20
39.712086005458637
 30
0.0
  0
VERTEX
  5
743F
  8
0
 10
270.22617253664902
 20
39.602835654646469
 30
0.0
  0
SEQEND
  5
7440
  8
0
  0
LINE
  5
69E3
  8
0
 10
269.62797797963577
 20
40.302919849575282
 30
0.0
 11
269.67373999578263
 21
40.249363253553412
 31
0.0
  0
POLYLINE
  5
69E4
  8
0
 66
     1
 10
0.0
 20
0.0
 30
0.0
  0
VERTEX
  5
7441
  8
0
 10
268.17863950752599
 20
40.728760389852589
 30
0.0
  0
VERTEX
  5
7442
  8
0
 10
268.25786378276428
 20
40.613542613904677
 30
0.0
  0
VERTEX
  5
7443
  8
0
 10
268.4175772886299
 20
40.381267406850718
 30
0.0
  0
VERTEX
  5
7444
  8
0
 10
268.57904623107851
 20
40.146439225998037
 30
0.0
  0
VERTEX
  5
7445
  8
0
 10
268.66046522875757
 20
40.028029612223968
 30
0.0
  0
SEQEND
  5
7446
  8
0
  0
LINE
  5
69E5
  8
0
 10
268.13872636917188
 20
40.786807030461603
 30
0.0
 11
268.17863950752599
 21
40.728760389852589
 31
0.0
  0
POLYLINE
  5
69E6
  8
0
 66
     1
 10
0.0
 20
0.0
 30
0.0
  0
VERTEX
  5
7447
  8
0
 10
266.7418399821313
 20
41.361811894947202
 30
0.0
  0
VERTEX
  5
7448
  8
0
 10
266.8085867214395
 20
41.238944102287171
 30
0.0
  0
VERTEX
  5
7449
  8
0
 10
266.94314592956039
 20
40.991246715789572
 30
0.0
  0
VERTEX
  5
744A
  8
0
 10
267.07918409937099
 20
40.740826847862472
 30
0.0
  0
VERTEX
  5
744B
  8
0
 10
267.14777990029791
 20
40.614555291633899
 30
0.0
  0
SEQEND
  5
744C
  8
0
  0
LINE
  5
69E7
  8
0
 10
266.70821301826589
 20
41.42371260900174
 30
0.0
 11
266.7418399821313
 21
41.361811894947202
 31
0.0
  0
POLYLINE
  5
69E8
  8
0
 66
     1
 10
0.0
 20
0.0
 30
0.0
  0
VERTEX
  5
744D
  8
0
 10
265.37908329586833
 20
42.141581924072788
 30
0.0
  0
VERTEX
  5
744E
  8
0
 10
265.43262120800301
 20
42.012410279948767
 30
0.0
  0
VERTEX
  5
744F
  8
0
 10
265.54055185953649
 20
41.75200453840813
 30
0.0
  0
VERTEX
  5
7450
  8
0
 10
265.64966879405279
 20
41.488736635883413
 30
0.0
  0
VERTEX
  5
7451
  8
0
 10
265.70468984827812
 20
41.355986594794267
 30
0.0
  0
SEQEND
  5
7452
  8
0
  0
LINE
  5
69E9
  8
0
 10
265.35211093054482
 20
42.20665851439616
 30
0.0
 11
265.37908329586833
 21
42.141581924072788
 31
0.0
  0
POLYLINE
  5
69EA
  8
0
 66
     1
 10
0.0
 20
0.0
 30
0.0
  0
VERTEX
  5
7453
  8
0
 10
264.10530009616701
 20
43.059527153612969
 30
0.0
  0
VERTEX
  5
7454
  8
0
 10
264.14504260855909
 20
42.925466889588989
 30
0.0
  0
VERTEX
  5
7455
  8
0
 10
264.2251621927013
 20
42.655205852802851
 30
0.0
  0
VERTEX
  5
7456
  8
0
 10
264.3061623839547
 20
42.381974333912801
 30
0.0
  0
VERTEX
  5
7457
  8
0
 10
264.34700586929409
 20
42.244200245193127
 30
0.0
  0
SEQEND
  5
7458
  8
0
  0
LINE
  5
69EB
  8
0
 10
264.085277844264
 20
43.127066627463449
 30
0.0
 11
264.10530009616701
 21
43.059527153612969
 31
0.0
  0
POLYLINE
  5
69EC
  8
0
 66
     1
 10
0.0
 20
0.0
 30
0.0
  0
VERTEX
  5
7459
  8
0
 10
262.93444621831941
 20
44.105590383540459
 30
0.0
  0
VERTEX
  5
745A
  8
0
 10
262.9599579036867
 20
43.968110291922919
 30
0.0
  0
VERTEX
  5
745B
  8
0
 10
263.01138861350751
 20
43.690954996366202
 30
0.0
  0
VERTEX
  5
745C
  8
0
 10
263.06338460645208
 20
43.410753442809259
 30
0.0
  0
VERTEX
  5
745D
  8
0
 10
263.08960303313341
 20
43.269464788206108
 30
0.0
  0
SEQEND
  5
745E
  8
0
  0
LINE
  5
69ED
  8
0
 10
262.92159344781879
 20
44.174852764308973
 30
0.0
 11
262.93444621831941
 21
44.105590383540459
 31
0.0
  0
POLYLINE
  5
69EE
  8
0
 66
     1
 10
0.0
 20
0.0
 30
0.0
  0
VERTEX
  5
745F
  8
0
 10
261.87934978242822
 20
45.26831072620535
 30
0.0
  0
VERTEX
  5
7460
  8
0
 10
261.89035112940712
 20
45.128917067647961
 30
0.0
  0
VERTEX
  5
7461
  8
0
 10
261.91252947928717
 20
44.847904084736989
 30
0.0
  0
VERTEX
  5
7462
  8
0
 10
261.93495159494353
 20
44.563802443369582
 30
0.0
  0
VERTEX
  5
7463
  8
0
 10
261.9462577083973
 20
44.420547210949501
 30
0.0
  0
SEQEND
  5
7464
  8
0
  0
LINE
  5
69EF
  8
0
 10
261.87380731097329
 20
45.33853716075415
 30
0.0
 11
261.87934978242822
 21
45.26831072620535
 31
0.0
  0
POLYLINE
  5
69F0
  8
0
 66
     1
 10
0.0
 20
0.0
 30
0.0
  0
VERTEX
  5
7465
  8
0
 10
260.95157064583827
 20
46.53494917421861
 30
0.0
  0
VERTEX
  5
7466
  8
0
 10
260.94794112136901
 20
46.395169174813958
 30
0.0
  0
VERTEX
  5
7467
  8
0
 10
260.94062412066597
 20
46.113377341595537
 30
0.0
  0
VERTEX
  5
7468
  8
0
 10
260.93322669764268
 20
45.828488289453077
 30
0.0
  0
VERTEX
  5
7469
  8
0
 10
260.92949662572408
 20
45.684836013520297
 30
0.0
  0
SEQEND
  5
746A
  8
0
  0
LINE
  5
69F1
  8
0
 10
260.95339919790598
 20
46.605370247034926
 30
0.0
 11
260.95157064583827
 21
46.53494917421861
 31
0.0
  0
POLYLINE
  5
69F2
  8
0
 66
     1
 10
0.0
 20
0.0
 30
0.0
  0
VERTEX
  5
746B
  8
0
 10
260.16127375092032
 20
47.891628171682612
 30
0.0
  0
VERTEX
  5
746C
  8
0
 10
260.14305312083252
 20
47.752993290355363
 30
0.0
  0
VERTEX
  5
746D
  8
0
 10
260.10632093613719
 20
47.473509977123001
 30
0.0
  0
VERTEX
  5
746E
  8
0
 10
260.06918502214899
 20
47.190954818277298
 30
0.0
  0
VERTEX
  5
746F
  8
0
 10
260.05045963230651
 20
47.048479383228077
 30
0.0
  0
SEQEND
  5
7470
  8
0
  0
LINE
  5
69F3
  8
0
 10
260.17045329251158
 20
47.961472334756081
 30
0.0
 11
260.16127375092032
 21
47.891628171682612
 31
0.0
  0
POLYLINE
  5
69F4
  8
0
 66
     1
 10
0.0
 20
0.0
 30
0.0
  0
VERTEX
  5
7471
  8
0
 10
259.5171177558351
 20
49.323483659597791
 30
0.0
  0
VERTEX
  5
7472
  8
0
 10
259.48450564916487
 20
49.187512809118708
 30
0.0
  0
VERTEX
  5
7473
  8
0
 10
259.41876072597972
 20
48.913400093537859
 30
0.0
  0
VERTEX
  5
7474
  8
0
 10
259.35229318987149
 20
48.636274561437972
 30
0.0
  0
VERTEX
  5
7475
  8
0
 10
259.31877764139472
 20
48.496536957953623
 30
0.0
  0
SEQEND
  5
7476
  8
0
  0
LINE
  5
69F5
  8
0
 10
259.53354771397142
 20
49.391985685662007
 30
0.0
 11
259.5171177558351
 21
49.323483659597791
 31
0.0
  0
POLYLINE
  5
69F6
  8
0
 66
     1
 10
0.0
 20
0.0
 30
0.0
  0
VERTEX
  5
7477
  8
0
 10
259.02616016846332
 20
50.814827929603581
 30
0.0
  0
VERTEX
  5
7478
  8
0
 10
258.979513890276
 20
50.683010835064522
 30
0.0
  0
VERTEX
  5
7479
  8
0
 10
258.88547654373718
 20
50.417271953408722
 30
0.0
  0
VERTEX
  5
747A
  8
0
 10
258.79040561774377
 20
50.148612293376289
 30
0.0
  0
VERTEX
  5
747B
  8
0
 10
258.7424671139953
 20
50.01314351588266
 30
0.0
  0
SEQEND
  5
747C
  8
0
  0
LINE
  5
69F7
  8
0
 10
259.0496605330851
 20
50.88123729612601
 30
0.0
 11
259.02616016846332
 21
50.814827929603581
 31
0.0
  0
POLYLINE
  5
69F8
  8
0
 66
     1
 10
0.0
 20
0.0
 30
0.0
  0
VERTEX
  5
747D
  8
0
 10
258.69378002287169
 20
52.349321501793931
 30
0.0
  0
VERTEX
  5
747E
  8
0
 10
258.63361063955227
 20
52.223102378867111
 30
0.0
  0
VERTEX
  5
747F
  8
0
 10
258.5123111625071
 20
51.968648821933023
 30
0.0
  0
VERTEX
  5
7480
  8
0
 10
258.38967846358861
 20
51.711398525424073
 30
0.0
  0
VERTEX
  5
7481
  8
0
 10
258.32784222884737
 20
51.581682798196233
 30
0.0
  0
SEQEND
  5
7482
  8
0
  0
LINE
  5
69F9
  8
0
 10
258.7240933190663
 20
52.412910613857861
 30
0.0
 11
258.69378002287169
 21
52.349321501793888
 31
0.0
  0
POLYLINE
  5
69FA
  8
0
 66
     1
 10
0.0
 20
0.0
 30
0.0
  0
VERTEX
  5
7483
  8
0
 10
258.52361894549023
 20
53.910152143478449
 30
0.0
  0
VERTEX
  5
7484
  8
0
 10
258.45058568539389
 20
53.790913875287799
 30
0.0
  0
VERTEX
  5
7485
  8
0
 10
258.30335306029627
 20
53.550533489493198
 30
0.0
  0
VERTEX
  5
7486
  8
0
 10
258.15450217796439
 20
53.307511044589262
 30
0.0
  0
VERTEX
  5
7487
  8
0
 10
258.07944570295848
 20
53.184969560279342
 30
0.0
  0
SEQEND
  5
7488
  8
0
  0
LINE
  5
69FB
  8
0
 10
258.56041305444109
 20
53.970224305465251
 30
0.0
 11
258.52361894549023
 21
53.910152143478449
 31
0.0
  0
POLYLINE
  5
69FC
  8
0
 66
     1
 10
0.0
 20
0.0
 30
0.0
  0
VERTEX
  5
7489
  8
0
 10
258.51754125669117
 20
55.480219067522079
 30
0.0
  0
VERTEX
  5
748A
  8
0
 10
258.43244428749858
 20
55.369268053485939
 30
0.0
  0
VERTEX
  5
748B
  8
0
 10
258.26089162579979
 20
55.14559449664057
 30
0.0
  0
VERTEX
  5
748C
  8
0
 10
258.0874534014705
 20
54.919462508103891
 30
0.0
  0
VERTEX
  5
748D
  8
0
 10
257.99999902064638
 20
54.805437856857282
 30
0.0
  0
SEQEND
  5
748E
  8
0
  0
LINE
  5
69FD
  8
0
 10
258.56041305444109
 20
55.536116116254171
 30
0.0
 11
258.51754125669117
 21
55.480219067522107
 31
0.0
  0
POLYLINE
  5
69FE
  8
0
 66
     1
 10
0.0
 20
0.0
 30
0.0
  0
VERTEX
  5
748F
  8
0
 10
258.67561354490499
 20
57.042320292147402
 30
0.0
  0
VERTEX
  5
7490
  8
0
 10
258.5793852068183
 20
56.940872134793601
 30
0.0
  0
VERTEX
  5
7491
  8
0
 10
258.3853920753794
 20
56.736356021192698
 30
0.0
  0
VERTEX
  5
7492
  8
0
 10
258.18926673453268
 20
56.529592038410811
 30
0.0
  0
VERTEX
  5
7493
  8
0
 10
258.09037261638798
 20
56.425333498168008
 30
0.0
  0
SEQEND
  5
7494
  8
0
  0
LINE
  5
69FF
  8
0
 10
258.7240933190663
 20
57.093429807861547
 30
0.0
 11
258.67561354490499
 21
57.042320292147402
 31
0.0
  0
POLYLINE
  5
6A00
  8
0
 66
     1
 10
0.0
 20
0.0
 30
0.0
  0
VERTEX
  5
7495
  8
0
 10
258.99610393706331
 20
58.579341109446659
 30
0.0
  0
VERTEX
  5
7496
  8
0
 10
258.88979852789163
 20
58.4885072960165
 30
0.0
  0
VERTEX
  5
7497
  8
0
 10
258.67549035605651
 20
58.305389346998631
 30
0.0
  0
VERTEX
  5
7498
  8
0
 10
258.4588266889686
 20
58.1202587194351
 30
0.0
  0
VERTEX
  5
7499
  8
0
 10
258.34957633815628
 20
58.026908568580268
 30
0.0
  0
SEQEND
  5
749A
  8
0
  0
LINE
  5
6A01
  8
0
 10
259.0496605330851
 20
58.625103125593398
 30
0.0
 11
258.99610393706331
 21
58.579341109446631
 31
0.0
  0
POLYLINE
  5
6A02
  8
0
 66
     1
 10
0.0
 20
0.0
 30
0.0
  0
VERTEX
  5
749B
  8
0
 10
259.47550107336252
 20
60.074441597703242
 30
0.0
  0
VERTEX
  5
749C
  8
0
 10
259.36028329741441
 20
59.995217322464782
 30
0.0
  0
VERTEX
  5
749D
  8
0
 10
259.12800809036059
 20
59.835503816599299
 30
0.0
  0
VERTEX
  5
749E
  8
0
 10
258.89317990950798
 20
59.674034874150863
 30
0.0
  0
VERTEX
  5
749F
  8
0
 10
258.77477029573379
 20
59.592615876471591
 30
0.0
  0
SEQEND
  5
74A0
  8
0
  0
LINE
  5
6A03
  8
0
 10
259.53354771397142
 20
60.114354736057379
 30
0.0
 11
259.47550107336252
 21
60.074441597703242
 31
0.0
  0
POLYLINE
  5
6A04
  8
0
 66
     1
 10
0.0
 20
0.0
 30
0.0
  0
VERTEX
  5
74A1
  8
0
 10
260.10855257845702
 20
61.511241123097932
 30
0.0
  0
VERTEX
  5
74A2
  8
0
 10
259.98568478579699
 20
61.444494383789731
 30
0.0
  0
VERTEX
  5
74A3
  8
0
 10
259.73798739929941
 20
61.309935175668869
 30
0.0
  0
VERTEX
  5
74A4
  8
0
 10
259.48756753137229
 20
61.173897005858237
 30
0.0
  0
VERTEX
  5
74A5
  8
0
 10
259.36129597514378
 20
61.105301204931322
 30
0.0
  0
SEQEND
  5
74A6
  8
0
  0
LINE
  5
6A05
  8
0
 10
260.17045329251158
 20
61.544868086963298
 30
0.0
 11
260.10855257845702
 21
61.51124112309796
 31
0.0
  0
POLYLINE
  5
6A06
  8
0
 66
     1
 10
0.0
 20
0.0
 30
0.0
  0
VERTEX
  5
74A7
  8
0
 10
260.88832260758261
 20
62.87399780936093
 30
0.0
  0
VERTEX
  5
74A8
  8
0
 10
260.75915096345858
 20
62.820459897226243
 30
0.0
  0
VERTEX
  5
74A9
  8
0
 10
260.49874522191789
 20
62.712529245692672
 30
0.0
  0
VERTEX
  5
74AA
  8
0
 10
260.23547731939328
 20
62.603412311176392
 30
0.0
  0
VERTEX
  5
74AB
  8
0
 10
260.10272727830409
 20
62.54839125695117
 30
0.0
  0
SEQEND
  5
74AC
  8
0
  0
LINE
  5
6A07
  8
0
 10
260.95339919790598
 20
62.900970174684488
 30
0.0
 11
260.88832260758261
 21
62.87399780936093
 31
0.0
  0
POLYLINE
  5
6A08
  8
0
 66
     1
 10
0.0
 20
0.0
 30
0.0
  0
VERTEX
  5
74AD
  8
0
 10
261.80626783712279
 20
64.1477810090623
 30
0.0
  0
VERTEX
  5
74AE
  8
0
 10
261.67220757309872
 20
64.108038496670133
 30
0.0
  0
VERTEX
  5
74AF
  8
0
 10
261.40194653631261
 20
64.027918912527923
 30
0.0
  0
VERTEX
  5
74B0
  8
0
 10
261.12871501742262
 20
63.946918721274557
 30
0.0
  0
VERTEX
  5
74B1
  8
0
 10
260.99094092870303
 20
63.906075235935127
 30
0.0
  0
SEQEND
  5
74B2
  8
0
  0
LINE
  5
6A09
  8
0
 10
261.87380731097329
 20
64.167803260965243
 30
0.0
 11
261.80626783712279
 21
64.1477810090623
 31
0.0
  0
POLYLINE
  5
6A0A
  8
0
 66
     1
 10
0.0
 20
0.0
 30
0.0
  0
VERTEX
  5
74B3
  8
0
 10
262.85233106705027
 20
65.318634886909877
 30
0.0
  0
VERTEX
  5
74B4
  8
0
 10
262.71485097543291
 20
65.293123201542585
 30
0.0
  0
VERTEX
  5
74B5
  8
0
 10
262.43769567987601
 20
65.24169249172175
 30
0.0
  0
VERTEX
  5
74B6
  8
0
 10
262.15749412631902
 20
65.189696498777096
 30
0.0
  0
VERTEX
  5
74B7
  8
0
 10
262.01620547171592
 20
65.16347807209587
 30
0.0
  0
SEQEND
  5
74B8
  8
0
  0
LINE
  5
6A0B
  8
0
 10
262.92159344781879
 20
65.331487657410435
 30
0.0
 11
262.85233106705027
 21
65.318634886909877
 31
0.0
  0
POLYLINE
  5
6A0C
  8
0
 66
     1
 10
0.0
 20
0.0
 30
0.0
  0
VERTEX
  5
74B9
  8
0
 10
264.01505140971523
 20
66.373731322801007
 30
0.0
  0
VERTEX
  5
74BA
  8
0
 10
263.87565775115769
 20
66.362729975822162
 30
0.0
  0
VERTEX
  5
74BB
  8
0
 10
263.59464476824678
 20
66.340551625942055
 30
0.0
  0
VERTEX
  5
74BC
  8
0
 10
263.31054312687962
 20
66.318129510285729
 30
0.0
  0
VERTEX
  5
74BD
  8
0
 10
263.16728789445938
 20
66.306823396831959
 30
0.0
  0
SEQEND
  5
74BE
  8
0
  0
LINE
  5
6A0D
  8
0
 10
264.085277844264
 20
66.379273794255937
 30
0.0
 11
264.01505140971523
 21
66.373731322801007
 31
0.0
  0
POLYLINE
  5
6A0E
  8
0
 66
     1
 10
0.0
 20
0.0
 30
0.0
  0
VERTEX
  5
74BF
  8
0
 10
265.28168985772851
 20
67.301510459390954
 30
0.0
  0
VERTEX
  5
74C0
  8
0
 10
265.14190985832391
 20
67.305139983860244
 30
0.0
  0
VERTEX
  5
74C1
  8
0
 10
264.86011802510541
 20
67.312456984563255
 30
0.0
  0
VERTEX
  5
74C2
  8
0
 10
264.5752289729628
 20
67.31985440758649
 30
0.0
  0
VERTEX
  5
74C3
  8
0
 10
264.43157669703021
 20
67.323584479505143
 30
0.0
  0
SEQEND
  5
74C4
  8
0
  0
LINE
  5
6A0F
  8
0
 10
265.35211093054482
 20
67.299681907323205
 30
0.0
 11
265.28168985772851
 21
67.301510459390954
 31
0.0
  0
POLYLINE
  5
6A10
  8
0
 66
     1
 10
0.0
 20
0.0
 30
0.0
  0
VERTEX
  5
74C5
  8
0
 10
266.63836885519243
 20
68.091807354308983
 30
0.0
  0
VERTEX
  5
74C6
  8
0
 10
266.4997339738652
 20
68.110027984396794
 30
0.0
  0
VERTEX
  5
74C7
  8
0
 10
266.22025066063281
 20
68.146760169092033
 30
0.0
  0
VERTEX
  5
74C8
  8
0
 10
265.93769550178718
 20
68.183896083080185
 30
0.0
  0
VERTEX
  5
74C9
  8
0
 10
265.7952200667379
 20
68.202621472922743
 30
0.0
  0
SEQEND
  5
74CA
  8
0
  0
LINE
  5
6A11
  8
0
 10
266.70821301826589
 20
68.082627812717647
 30
0.0
 11
266.63836885519243
 21
68.091807354308983
 31
0.0
  0
POLYLINE
  5
6A12
  8
0
 66
     1
 10
0.0
 20
0.0
 30
0.0
  0
VERTEX
  5
74CB
  8
0
 10
268.07022434310761
 20
68.735963349394126
 30
0.0
  0
VERTEX
  5
74CC
  8
0
 10
267.93425349262861
 20
68.768575456064298
 30
0.0
  0
VERTEX
  5
74CD
  8
0
 10
267.66014077704767
 20
68.834320379249561
 30
0.0
  0
VERTEX
  5
74CE
  8
0
 10
267.38301524494773
 20
68.900787915357739
 30
0.0
  0
VERTEX
  5
74CF
  8
0
 10
267.24327764146341
 20
68.934303463834567
 30
0.0
  0
SEQEND
  5
74D0
  8
0
  0
LINE
  5
6A13
  8
0
 10
268.13872636917188
 20
68.719533391257812
 30
0.0
 11
268.07022434310761
 21
68.735963349394126
 31
0.0
  0
POLYLINE
  5
6A14
  8
0
 66
     1
 10
0.0
 20
0.0
 30
0.0
  0
VERTEX
  5
74D1
  8
0
 10
269.56156861311342
 20
69.226920936765907
 30
0.0
  0
VERTEX
  5
74D2
  8
0
 10
269.42975151857439
 20
69.273567214953232
 30
0.0
  0
VERTEX
  5
74D3
  8
0
 10
269.16401263691853
 20
69.367604561492101
 30
0.0
  0
VERTEX
  5
74D4
  8
0
 10
268.8953529768861
 20
69.462675487485484
 30
0.0
  0
VERTEX
  5
74D5
  8
0
 10
268.75988419939239
 20
69.510613991233896
 30
0.0
  0
SEQEND
  5
74D6
  8
0
  0
LINE
  5
6A15
  8
0
 10
269.62797797963577
 20
69.203420572144125
 30
0.0
 11
269.56156861311342
 21
69.226920936765907
 31
0.0
  0
POLYLINE
  5
6A16
  8
0
 66
     1
 10
0.0
 20
0.0
 30
0.0
  0
VERTEX
  5
74D7
  8
0
 10
271.09606218530371
 20
69.559301082357592
 30
0.0
  0
VERTEX
  5
74D8
  8
0
 10
270.96984306237709
 20
69.619470465676784
 30
0.0
  0
VERTEX
  5
74D9
  8
0
 10
270.715389505443
 20
69.740769942722054
 30
0.0
  0
VERTEX
  5
74DA
  8
0
 10
270.4581392089338
 20
69.863402641640761
 30
0.0
  0
VERTEX
  5
74DB
  8
0
 10
270.32842348170612
 20
69.925238876381798
 30
0.0
  0
SEQEND
  5
74DC
  8
0
  0
LINE
  5
6A17
  8
0
 10
271.1596512973677
 20
69.528987786162929
 30
0.0
 11
271.09606218530371
 21
69.559301082357592
 31
0.0
  0
POLYLINE
  5
6A18
  8
0
 66
     1
 10
0.0
 20
0.0
 30
0.0
  0
VERTEX
  5
74DD
  8
0
 10
272.65689282698833
 20
69.729462159739043
 30
0.0
  0
VERTEX
  5
74DE
  8
0
 10
272.5376545587975
 20
69.802495419835452
 30
0.0
  0
VERTEX
  5
74DF
  8
0
 10
272.29727417300302
 20
69.949728044932925
 30
0.0
  0
VERTEX
  5
74E0
  8
0
 10
272.05425172809919
 20
70.098578927264811
 30
0.0
  0
VERTEX
  5
74E1
  8
0
 10
271.93171024378921
 20
70.173635402270747
 30
0.0
  0
SEQEND
  5
74E2
  8
0
  0
LINE
  5
6A19
  8
0
 10
272.71696498897512
 20
69.692668050788114
 30
0.0
 11
272.65689282698833
 21
69.729462159739043
 31
0.0
  0
ARC
  5
6A1A
  8
0
 10
273.49991089436952
 20
54.753170210859601
 30
0.0
 40
14.999999999999901
 50
261.22178938536592
 51
266.77821061463368
  0
ARC
  5
6A1B
  8
0
 10
273.49991089436952
 20
54.753170210858968
 30
0.0
 40
14.99999999999927
 50
267.22178938536649
 51
272.77821061463391
  0
ARC
  5
6A1C
  8
0
 10
273.49991089436929
 20
54.753170210858343
 30
0.0
 40
14.9999999999986
 50
255.2217893853657
 51
260.77821061463391
  0
ARC
  5
6A1D
  8
0
 10
273.49991089436969
 20
54.753170210858848
 30
0.0
 40
14.999999999999149
 50
273.22178938536581
 51
278.77821061463408
  0
ARC
  5
6A1E
  8
0
 10
273.49991089436992
 20
54.75317021086056
 30
0.0
 40
15.000000000000909
 50
249.22178938536589
 51
254.77821061463339
  0
ARC
  5
6A1F
  8
0
 10
273.49991089436952
 20
54.753170210860361
 30
0.0
 40
15.000000000000661
 50
279.22178938536598
 51
284.77821061463362
  0
ARC
  5
6A20
  8
0
 10
273.49991089436969
 20
54.753170210860269
 30
0.0
 40
15.00000000000059
 50
243.22178938536641
 51
248.77821061463359
  0
ARC
  5
6A21
  8
0
 10
273.49991089436969
 20
54.753170210859203
 30
0.0
 40
14.999999999999449
 50
285.22178938536621
 51
290.77821061463402
  0
ARC
  5
6A22
  8
0
 10
273.49991089436912
 20
54.753170210859032
 30
0.0
 40
14.999999999999231
 50
237.22178938536641
 51
242.77821061463391
  0
ARC
  5
6A23
  8
0
 10
273.49991089436992
 20
54.753170210858741
 30
0.0
 40
14.99999999999897
 50
291.22178938536638
 51
296.77821061463402
  0
ARC
  5
6A24
  8
0
 10
273.49991089436861
 20
54.7531702108584
 30
0.0
 40
14.9999999999984
 50
231.22178938536609
 51
236.77821061463371
  0
ARC
  5
6A25
  8
0
 10
273.49991089436918
 20
54.753170210860219
 30
0.0
 40
15.000000000000581
 50
297.22178938536649
 51
302.77821061463351
  0
ARC
  5
6A26
  8
0
 10
273.49991089436799
 20
54.753170210857917
 30
0.0
 40
14.99999999999762
 50
225.22178938536589
 51
230.77821061463371
  0
ARC
  5
6A27
  8
0
 10
273.49991089436952
 20
54.753170210859757
 30
0.0
 40
15.000000000000069
 50
303.22178938536632
 51
308.77821061463391
  0
ARC
  5
6A28
  8
0
 10
273.4999108943698
 20
54.753170210859928
 30
0.0
 40
15.000000000000339
 50
219.22178938536609
 51
224.77821061463411
  0
ARC
  5
6A29
  8
0
 10
273.49991089436787
 20
54.75317021086164
 30
0.0
 40
15.00000000000257
 50
309.22178938536661
 51
314.77821061463288
  0
ARC
  5
6A2A
  8
0
 10
273.49991089436992
 20
54.753170210859992
 30
0.0
 40
15.00000000000048
 50
213.22178938536629
 51
218.77821061463391
  0
ARC
  5
6A2B
  8
0
 10
273.49991089436929
 20
54.753170210859878
 30
0.0
 40
15.000000000000259
 50
315.22178938536581
 51
320.77821061463402
  0
ARC
  5
6A2C
  8
0
 10
273.49991089437088
 20
54.753170210860532
 30
0.0
 40
15.00000000000165
 50
207.22178938536649
 51
212.77821061463359
  0
ARC
  5
6A2D
  8
0
 10
273.49991089436958
 20
54.753170210859679
 30
0.0
 40
14.999999999999959
 50
321.22178938536609
 51
326.77821061463368
  0
ARC
  5
6A2E
  8
0
 10
273.49991089437071
 20
54.753170210860219
 30
0.0
 40
15.00000000000122
 50
201.2217893853668
 51
206.77821061463391
  0
ARC
  5
6A2F
  8
0
 10
273.49991089436833
 20
54.753170210860389
 30
0.0
 40
15.000000000001361
 50
327.22178938536638
 51
332.77821061463362
  0
ARC
  5
6A30
  8
0
 10
273.49991089437088
 20
54.753170210860162
 30
0.0
 40
15.00000000000148
 50
195.22178938536661
 51
200.7782106146332
  0
ARC
  5
6A31
  8
0
 10
273.49991089436941
 20
54.7531702108597
 30
0.0
 40
15.00000000000013
 50
333.22178938536598
 51
338.77821061463419
  0
ARC
  5
6A32
  8
0
 10
273.49991089437037
 20
54.753170210859842
 30
0.0
 40
15.00000000000086
 50
189.22178938536601
 51
194.77821061463311
  0
ARC
  5
6A33
  8
0
 10
273.4999108943698
 20
54.753170210859651
 30
0.0
 40
14.99999999999976
 50
339.22178938536609
 51
344.77821061463339
  0
ARC
  5
6A34
  8
0
 10
273.49991089436782
 20
54.75317021085953
 30
0.0
 40
14.999999999998231
 50
183.22178938536621
 51
188.77821061463439
  0
ARC
  5
6A35
  8
0
 10
273.4999108943706
 20
54.75317021085953
 30
0.0
 40
14.99999999999897
 50
345.22178938536609
 51
350.77821061463402
  0
ARC
  5
6A36
  8
0
 10
273.49991089436952
 20
54.7531702108597
 30
0.0
 40
14.999999999999959
 50
177.22178938536649
 51
182.77821061463351
  0
ARC
  5
6A37
  8
0
 10
273.49991089437049
 20
54.753170210859601
 30
0.0
 40
14.999999999999
 50
351.22178938536632
 51
356.77821061463368
  0
ARC
  5
6A38
  8
0
 10
273.4999108943698
 20
54.753170210859679
 30
0.0
 40
15.000000000000281
 50
171.22178938536629
 51
176.77821061463371
  0
ARC
  5
6A39
  8
0
 10
273.49991089437123
 20
54.7531702108597
 30
0.0
 40
14.99999999999833
 50
357.2217893853657
 51
2.7782106146343311
  0
ARC
  5
6A3A
  8
0
 10
273.49991089436998
 20
54.753170210859601
 30
0.0
 40
15.00000000000049
 50
165.22178938536609
 51
170.77821061463391
  0
ARC
  5
6A3B
  8
0
 10
273.49991089437123
 20
54.753170210859878
 30
0.0
 40
14.99999999999841
 50
3.221789385365422
 51
8.7782106146344674
  0
ARC
  5
6A3C
  8
0
 10
273.49991089436872
 20
54.753170210859992
 30
0.0
 40
14.99999999999908
 50
159.22178938536601
 51
164.77821061463339
  0
ARC
  5
6A3D
  8
0
 10
273.49991089436872
 20
54.75317021085953
 30
0.0
 40
15.000000000000901
 50
9.2217893853660424
 51
14.778210614633821
  0
ARC
  5
6A3E
  8
0
 10
273.49991089436918
 20
54.753170210859821
 30
0.0
 40
14.99999999999967
 50
153.22178938536601
 51
158.77821061463411
  0
ARC
  5
6A3F
  8
0
 10
273.49991089436679
 20
54.753170210858848
 30
0.0
 40
15.000000000002821
 50
15.221789385366559
 51
20.778210614633139
  0
ARC
  5
6A40
  8
0
 10
273.49991089436958
 20
54.7531702108597
 30
0.0
 40
14.99999999999998
 50
147.22178938536641
 51
152.77821061463351
  0
ARC
  5
6A41
  8
0
 10
273.4999108943706
 20
54.753170210860162
 30
0.0
 40
14.999999999998851
 50
21.221789385365831
 51
26.778210614633949
  0
ARC
  5
6A42
  8
0
 10
273.49991089436918
 20
54.753170210859913
 30
0.0
 40
14.999999999999609
 50
141.22178938536601
 51
146.77821061463371
  0
ARC
  5
6A43
  8
0
 10
273.49991089436833
 20
54.753170210858968
 30
0.0
 40
15.000000000001419
 50
27.221789385366431
 51
32.778210614633551
  0
ARC
  5
6A44
  8
0
 10
273.49991089436747
 20
54.753170210861548
 30
0.0
 40
14.99999999999724
 50
135.22178938536581
 51
140.77821061463399
  0
ARC
  5
6A45
  8
0
 10
273.49991089436833
 20
54.753170210858819
 30
0.0
 40
15.00000000000148
 50
33.221789385366293
 51
38.778210614633892
  0
ARC
  5
6A46
  8
0
 10
273.49991089437162
 20
54.75317021085732
 30
0.0
 40
15.000000000003171
 50
129.22178938536661
 51
134.778210614633
  0
ARC
  5
6A47
  8
0
 10
273.49991089437111
 20
54.753170210861043
 30
0.0
 40
14.999999999997989
 50
39.221789385366023
 51
44.778210614634119
  0
ARC
  5
6A48
  8
0
 10
273.49991089436833
 20
54.75317021086147
 30
0.0
 40
14.99999999999781
 50
123.22178938536619
 51
128.77821061463419
  0
ARC
  5
6A49
  8
0
 10
273.4999108943698
 20
54.753170210859928
 30
0.0
 40
14.999999999999661
 50
45.221789385365852
 51
50.778210614633672
  0
ARC
  5
6A4A
  8
0
 10
273.49991089436941
 20
54.753170210859928
 30
0.0
 40
14.999999999999741
 50
117.22178938536609
 51
122.77821061463349
  0
ARC
  5
6A4B
  8
0
 10
273.49991089436952
 20
54.753170210859651
 30
0.0
 40
15.00000000000005
 50
51.221789385366087
 51
56.778210614633679
  0
ARC
  5
6A4C
  8
0
 10
273.49991089436952
 20
54.753170210859821
 30
0.0
 40
14.999999999999879
 50
111.22178938536631
 51
116.77821061463391
  0
ARC
  5
6A4D
  8
0
 10
273.49991089437032
 20
54.753170210861072
 30
0.0
 40
14.999999999998449
 50
57.221789385365298
 51
62.778210614633892
  0
ARC
  5
6A4E
  8
0
 10
273.49991089436918
 20
54.753170210860837
 30
0.0
 40
14.999999999998799
 50
105.22178938536609
 51
110.77821061463401
  0
ARC
  5
6A4F
  8
0
 10
273.49991089436952
 20
54.753170210859508
 30
0.0
 40
15.00000000000022
 50
63.22178938536603
 51
68.778210614633622
  0
ARC
  5
6A50
  8
0
 10
273.49991089436969
 20
54.753170210858741
 30
0.0
 40
15.000000000000981
 50
99.221789385366421
 51
104.77821061463349
  0
ARC
  5
6A51
  8
0
 10
273.49991089436952
 20
54.753170210859423
 30
0.0
 40
15.000000000000311
 50
69.221789385365923
 51
74.778210614633835
  0
ARC
  5
6A52
  8
0
 10
273.49991089436929
 20
54.753170210861327
 30
0.0
 40
14.999999999998369
 50
93.221789385365824
 51
98.778210614634077
  0
ARC
  5
6A53
  8
0
 10
273.49991089436969
 20
54.75317021086056
 30
0.0
 40
14.99999999999911
 50
75.221789385365639
 51
80.778210614633934
  0
ARC
  5
6A54
  8
0
 10
273.49991089436958
 20
54.753170210860532
 30
0.0
 40
14.999999999999179
 50
87.221789385366066
 51
92.778210614633906
  0
ARC
  5
6A55
  8
0
 10
273.49991089436969
 20
54.753170210861299
 30
0.0
 40
14.999999999998421
 50
81.221789385365497
 51
86.778210614634176
  0
ARC
  5
6A8A
  8
2
 10
233.501065282078
 20
117.0901480076428
 30
0.0
 40
29.824074074074129
 50
155.43208911778709
 51
204.56791088221291
  0
ARC
  5
6A8B
  8
2
 10
233.501065282078
 20
54.753170210859679
 30
0.0
 40
29.824074074074129
 50
155.43208911778709
 51
204.56791088221291
  0
TEXT
  5
6BAF
  8
0
 62
     3
 10
0.0
 20
0.0
 30
0.0
 40
5.0
  1
EIP20-SUS
  7
STANDARD1
  0
ENDSEC
  0
EOF
