  0
SECTION
  2
HEADER
  9
$ACADVER
  1
AC1009
  9
$INSBASE
 10
0.0
 20
0.0
 30
0.0
  9
$EXTMIN
 10
0.0
 20
-1.4802182810368341
 30
0.0
  9
$EXTMAX
 10
128.00000000004729
 20
181.19999999999999
 30
0.0
  9
$LIMMIN
 10
0.0
 20
0.0
  9
$LIMMAX
 10
375.0
 20
270.0
  9
$ORTHOMODE
 70
     1
  9
$REGENMODE
 70
     1
  9
$FILLMODE
 70
     1
  9
$QTEXTMODE
 70
     0
  9
$MIRRTEXT
 70
     0
  9
$DRAGMODE
 70
     2
  9
$LTSCALE
 40
5.0
  9
$OSMODE
 70
    37
  9
$ATTMODE
 70
     1
  9
$TEXTSIZE
 40
4.000000000000048
  9
$TRACEWID
 40
0.05
  9
$TEXTSTYLE
  7
STANDARD
  9
$CLAYER
  8
0
  9
$CELTYPE
  6
BYLAYER
  9
$CECOLOR
 62
   256
  9
$DIMSCALE
 40
0.5
  9
$DIMASZ
 40
3.0
  9
$DIMEXO
 40
2.0
  9
$DIMDLI
 40
0.38
  9
$DIMRND
 40
0.0
  9
$DIMDLE
 40
0.0
  9
$DIMEXE
 40
2.0
  9
$DIMTP
 40
0.0
  9
$DIMTM
 40
0.0
  9
$DIMTXT
 40
3.2000000000000002
  9
$DIMCEN
 40
0.0
  9
$DIMTSZ
 40
0.0
  9
$DIMTOL
 70
     0
  9
$DIMLIM
 70
     0
  9
$DIMTIH
 70
     0
  9
$DIMTOH
 70
     0
  9
$DIMSE1
 70
     0
  9
$DIMSE2
 70
     0
  9
$DIMTAD
 70
     1
  9
$DIMZIN
 70
     0
  9
$DIMBLK
  1

  9
$DIMASO
 70
     0
  9
$DIMSHO
 70
     0
  9
$DIMPOST
  1

  9
$DIMAPOST
  1

  9
$DIMALT
 70
     0
  9
$DIMALTD
 70
     2
  9
$DIMALTF
 40
25.399999999999999
  9
$DIMLFAC
 40
1.0
  9
$DIMTOFL
 70
     0
  9
$DIMTVP
 40
1.6000000000000001
  9
$DIMTIX
 70
     1
  9
$DIMSOXD
 70
     0
  9
$DIMSAH
 70
     0
  9
$DIMBLK1
  1

  9
$DIMBLK2
  1

  9
$DIMSTYLE
  2
STANDARD
  9
$DIMCLRD
 70
     4
  9
$DIMCLRE
 70
     4
  9
$DIMCLRT
 70
     4
  9
$DIMTFAC
 40
1.0
  9
$DIMGAP
 40
0.09
  9
$LUNITS
 70
     2
  9
$LUPREC
 70
     1
  9
$SKETCHINC
 40
0.1
  9
$FILLETRAD
 40
0.0
  9
$AUNITS
 70
     0
  9
$AUPREC
 70
     0
  9
$MENU
  1
E:\r13\win\SUPPORT\ACAD
  9
$ELEVATION
 40
0.0
  9
$PELEVATION
 40
0.0
  9
$THICKNESS
 40
0.0
  9
$LIMCHECK
 70
     0
  9
$BLIPMODE
 70
     0
  9
$CHAMFERA
 40
1.1999999999999991
  9
$CHAMFERB
 40
1.1999999999999991
  9
$SKPOLY
 70
     0
  9
$TDCREATE
 40
2449983.5574884261
  9
$TDUPDATE
 40
2457968.425345371
  9
$TDINDWG
 40
0.1444514005
  9
$TDUSRTIMER
 40
0.1444514005
  9
$USRTIMER
 70
     1
  9
$ANGBASE
 50
0.0
  9
$ANGDIR
 70
     0
  9
$PDMODE
 70
     0
  9
$PDSIZE
 40
0.0
  9
$PLINEWID
 40
0.0
  9
$COORDS
 70
     1
  9
$SPLFRAME
 70
     0
  9
$SPLINETYPE
 70
     6
  9
$SPLINESEGS
 70
     8
  9
$ATTDIA
 70
     0
  9
$ATTREQ
 70
     1
  9
$HANDLING
 70
     1
  9
$HANDSEED
  5
196B
  9
$SURFTAB1
 70
     6
  9
$SURFTAB2
 70
     6
  9
$SURFTYPE
 70
     6
  9
$SURFU
 70
     6
  9
$SURFV
 70
     6
  9
$UCSNAME
  2

  9
$UCSORG
 10
0.0
 20
0.0
 30
0.0
  9
$UCSXDIR
 10
1.0
 20
0.0
 30
0.0
  9
$UCSYDIR
 10
0.0
 20
1.0
 30
0.0
  9
$PUCSNAME
  2

  9
$PUCSORG
 10
0.0
 20
0.0
 30
0.0
  9
$PUCSXDIR
 10
1.0
 20
0.0
 30
0.0
  9
$PUCSYDIR
 10
0.0
 20
1.0
 30
0.0
  9
$USERI1
 70
     0
  9
$USERI2
 70
     1
  9
$USERI3
 70
     0
  9
$USERI4
 70
     0
  9
$USERI5
 70
     0
  9
$USERR1
 40
0.0
  9
$USERR2
 40
0.0
  9
$USERR3
 40
0.0
  9
$USERR4
 40
0.0
  9
$USERR5
 40
0.0
  9
$WORLDVIEW
 70
     1
  9
$SHADEDGE
 70
     3
  9
$SHADEDIF
 70
    70
  9
$TILEMODE
 70
     1
  9
$MAXACTVP
 70
    16
  9
$PLIMCHECK
 70
     0
  9
$PEXTMIN
 10
1.0000000000000000E+020
 20
1.0000000000000000E+020
 30
1.0000000000000000E+020
  9
$PEXTMAX
 10
-1.0000000000000000E+020
 20
-1.0000000000000000E+020
 30
-1.0000000000000000E+020
  9
$PLIMMIN
 10
0.0
 20
0.0
  9
$PLIMMAX
 10
12.0
 20
9.0
  9
$UNITMODE
 70
     0
  9
$VISRETAIN
 70
     0
  9
$PLINEGEN
 70
     0
  9
$PSLTSCALE
 70
     0
  0
ENDSEC
  0
SECTION
  2
TABLES
  0
TABLE
  2
VPORT
 70
     1
  0
VPORT
  2
*ACTIVE
 70
     0
 10
0.0
 20
0.0
 11
1.0
 21
1.0
 12
272.4358974358974
 22
150.0
 13
0.0
 23
0.0
 14
5.0
 24
5.0
 15
5.0
 25
5.0
 16
0.0
 26
0.0
 36
1.0
 17
0.0
 27
0.0
 37
0.0
 40
300.0
 41
1.816239316239316
 42
50.0
 43
0.0
 44
0.0
 50
0.0
 51
0.0
 71
     0
 72
   500
 73
     1
 74
     0
 75
     0
 76
     0
 77
     0
 78
     2
  0
ENDTAB
  0
TABLE
  2
LTYPE
 70
     3
  0
LTYPE
  2
CONTINUOUS
 70
     0
  3
Solid Line
 72
    65
 73
     0
 40
0.0
  0
LTYPE
  2
CENTER
 70
     0
  3
____ _ ____ _ ____ _ ____ _ ____ _ ____ _ ____
 72
    65
 73
     4
 40
2.0
 49
1.25
 49
-0.25
 49
0.25
 49
-0.25
  0
LTYPE
  2
PHANTOM2
 70
     0
  3
___ _ _ ___ _ _ ___ _ _ ___ _ _
 72
    65
 73
     6
 40
1.25
 49
0.625
 49
-0.125
 49
0.125
 49
-0.125
 49
0.125
 49
-0.125
  0
ENDTAB
  0
TABLE
  2
LAYER
 70
     2
  0
LAYER
  2
0
 70
     0
 62
     7
  6
CONTINUOUS
  0
LAYER
  2
1
 70
     0
 62
     1
  6
CENTER
  0
ENDTAB
  0
TABLE
  2
STYLE
 70
     2
  0
STYLE
  2
STANDARD
 70
     0
 40
0.0
 41
1.0
 50
0.0
 71
     0
 42
4.000000000000048
  3
SIMPLEX
  4
BIGFONT
  0
STYLE
  2
STANDARD1
 70
     0
 40
0.0
 41
1.0
 50
0.0
 71
     0
 42
3.0
  3
txt
  4

  0
ENDTAB
  0
TABLE
  2
VIEW
 70
     1
  0
VIEW
  2
ALL
 70
     0
 40
270.0
 10
220.78595317725751
 20
135.0
 41
441.57190635451502
 11
0.0
 21
0.0
 31
1.0
 12
0.0
 22
0.0
 32
0.0
 42
50.0
 43
0.0
 44
0.0
 50
0.0
 71
     0
  0
ENDTAB
  0
TABLE
  2
UCS
 70
     0
  0
ENDTAB
  0
TABLE
  2
APPID
 70
     6
  0
APPID
  2
ACAD
 70
     0
  0
APPID
  2
ACAD_MLEADERVER
 70
     0
  0
APPID
  2
ACAD_NAV_VCDISPLAY
 70
     0
  0
APPID
  2
ACAD_EXEMPT_FROM_CAD_STANDARDS
 70
     0
  0
APPID
  2
ACAECLAYERSTANDARD
 70
     0
  0
APPID
  2
ACCMTRANSPARENCY
 70
     0
  0
ENDTAB
  0
TABLE
  2
DIMSTYLE
 70
     1
  0
DIMSTYLE
  2
STANDARD
 70
     0
  3

  4

  5

  6

  7

 40
1.0
 41
0.18
 42
0.0625
 43
0.38
 44
0.18
 45
0.0
 46
0.0
 47
0.0
 48
0.0
140
0.18
141
0.09
142
0.0
143
25.399999999999999
144
1.0
145
0.0
146
1.0
147
0.09
 71
     0
 72
     0
 73
     1
 74
     1
 75
     0
 76
     0
 77
     0
 78
     0
170
     0
171
     2
172
     0
173
     0
174
     0
175
     0
176
     0
177
     0
178
     0
  0
ENDTAB
  0
ENDSEC
  0
SECTION
  2
BLOCKS
  0
BLOCK
  8
0
  2
$MODEL_SPACE
 70
     0
 10
0.0
 20
0.0
 30
0.0
  3
$MODEL_SPACE
  1

  0
ENDBLK
  5
34A
  8
0
  0
BLOCK
 67
     1
  8
0
  2
$PAPER_SPACE
 70
     0
 10
0.0
 20
0.0
 30
0.0
  3
$PAPER_SPACE
  1

  0
ENDBLK
  5
348
 67
     1
  8
0
  0
ENDSEC
  0
SECTION
  2
ENTITIES
  0
TEXT
  5
3F7
  8
0
 62
     3
 10
0.0
 20
0.0
 30
0.0
 40
5.0
  1
EJT8
  7
STANDARD1
  0
ARC
  5
12AE
  8
0
 10
68.000000000047294
 20
95.0
 30
0.0
 40
1.0
 50
270.0
 51
0.0
  0
ARC
  5
12AF
  8
0
 10
68.000000000047294
 20
109.0
 30
0.0
 40
1.0
 50
0.0
 51
90.0
  0
LINE
  5
12B0
  8
0
 10
43.900000000047321
 20
119.2
 30
0.0
 11
43.900000000047321
 21
108.6361796070257
 31
0.0
  0
LINE
  5
12B1
  8
0
 10
51.900000000047378
 20
108.63596012888959
 30
0.0
 11
51.900000000047442
 21
119.2
 31
0.0
  0
LINE
  5
12B2
  8
0
 10
41.800000000047362
 20
109.0000000000021
 30
0.0
 11
41.300000000062077
 21
108.5000000000168
 31
0.0
  0
LINE
  5
12B3
  8
0
 10
41.300000000062077
 20
95.499999999983174
 30
0.0
 11
41.800000000047362
 21
94.999999999997925
 31
0.0
  0
LINE
  5
12B4
  8
0
 10
52.411263681102689
 20
95.0
 30
0.0
 11
65.700000000047339
 21
95.0
 31
0.0
  0
LINE
  5
12B5
  8
0
 10
41.800000000047362
 20
95.0
 30
0.0
 11
43.388736318992983
 21
95.0
 31
0.0
  0
LINE
  5
12B6
  8
0
 10
43.38873631899196
 20
109.0
 30
0.0
 11
41.800000000047362
 21
109.0
 31
0.0
  0
LINE
  5
12B7
  8
0
 10
65.700000000047339
 20
109.0
 30
0.0
 11
52.411263681101673
 21
109.0
 31
0.0
  0
LINE
  5
12B8
  8
0
 10
40.000000000047343
 20
98.599999999999994
 30
0.0
 11
41.300000000047362
 21
98.599999999999994
 31
0.0
  0
LINE
  5
12B9
  8
0
 10
41.300000000047362
 20
105.40000000000001
 30
0.0
 11
40.000000000047343
 21
105.40000000000001
 31
0.0
  0
LINE
  5
12BA
  8
0
 10
69.000000000047294
 20
95.0
 30
0.0
 11
69.000000000047294
 21
109.0
 31
0.0
  0
LINE
  5
12BC
  8
0
 10
68.000000000047294
 20
94.0
 30
0.0
 11
68.000000000047294
 21
110.0
 31
0.0
  0
LINE
  5
12BE
  8
0
 10
43.569872980047307
 20
123.1999999999999
 30
0.0
 11
43.569872980047307
 21
119.2
 31
0.0
  0
LINE
  5
12D0
  8
0
 10
52.230127020047341
 20
119.2
 30
0.0
 11
52.230127020047341
 21
123.1999999999999
 31
0.0
  0
ARC
  5
12D3
  8
0
 10
54.900000000047378
 20
119.6999999899999
 30
0.0
 40
0.4999999999999432
 50
270.00000001084868
 51
323.69670422400651
  0
LINE
  5
12D4
  8
0
 10
54.900000000142029
 20
119.2
 30
0.0
 11
40.900000000047321
 21
119.2
 31
0.0
  0
ARC
  5
12D8
  8
0
 10
40.900000000047321
 20
119.7
 30
0.0
 40
0.5000000000000427
 50
216.30329652992339
 51
270.0
  0
ARC
  5
12DB
  8
0
 10
40.900000000047321
 20
122.6999999999999
 30
0.0
 40
0.500000000000033
 50
90.0
 51
143.69670347008031
  0
LINE
  5
12DF
  8
0
 10
54.899999999952684
 20
123.2
 30
0.0
 11
40.900000000047321
 21
123.2
 31
0.0
  0
ARC
  5
12E0
  8
0
 10
54.900000000047271
 20
122.6999999899999
 30
0.0
 40
0.5000000000001139
 50
36.30329728384698
 51
90.000000010845454
  0
ARC
  5
12E3
  8
0
 10
40.900000000003722
 20
122.700000000017
 30
0.0
 40
0.4999999999564057
 50
143.69670345785181
 51
180.00000000195001
  0
ARC
  5
12E4
  8
0
 10
40.900000000003608
 20
119.69999999998289
 30
0.0
 40
0.4999999999562732
 50
179.99999999804589
 51
216.30329654215049
  0
LINE
  5
12E5
  8
0
 10
40.400000000047328
 20
119.7
 30
0.0
 11
40.400000000047328
 21
122.7
 31
0.0
  0
ARC
  5
12E6
  8
0
 10
54.900000000090238
 20
122.69999999001671
 30
0.0
 40
0.4999999999571517
 50
359.9999999980858
 51
36.303297296042359
  0
LINE
  5
12E7
  8
0
 10
55.400000000047378
 20
122.69999998999999
 30
0.0
 11
55.400000000047378
 21
119.69999998999999
 31
0.0
  0
ARC
  5
12E8
  8
0
 10
54.900000000045047
 20
119.69999999000071
 30
0.0
 40
0.5000000000023231
 50
323.6967042136385
 51
359.99999999991451
  0
ARC
  5
12E9
  8
0
 10
53.103168959064071
 20
109.57494462577409
 30
0.0
 40
9.0257636235929137
 50
100.8769750013217
 51
125.2033182323224
  0
ARC
  5
12EA
  8
0
 10
51.650000000047378
 20
116.2600761294036
 30
0.0
 40
2.192778817899093
 50
83.453439481830969
 51
96.546560518169017
  0
LINE
  5
12ED
  8
0
 10
51.900000000047378
 20
116.95
 30
0.0
 11
43.900000000047321
 21
116.95
 31
0.0
  0
ARC
  5
12EF
  8
0
 10
44.150000000047328
 20
116.22606899065561
 30
0.0
 40
2.226567589991403
 50
83.553210003592199
 51
96.446789996407787
  0
ARC
  5
12F0
  8
0
 10
42.718422864224117
 20
109.62571284002701
 30
0.0
 40
8.9718406147362408
 50
54.722449348908
 51
79.197257417445982
  0
LINE
  5
12F1
  8
0
 10
44.400000000047321
 20
119.2
 30
0.0
 11
44.400000000047321
 21
118.4385570093351
 31
0.0
  0
LINE
  5
12F3
  8
0
 10
51.400000000047392
 20
118.4385570093351
 30
0.0
 11
51.400000000047392
 21
119.2
 31
0.0
  0
LINE
  5
12F5
  8
0
 10
41.800000000047362
 20
109.0000000000021
 30
0.0
 11
41.800000000047362
 21
94.999999999997925
 31
0.0
  0
LINE
  5
12F6
  8
0
 10
41.300000000062077
 20
108.5000000000168
 30
0.0
 11
41.300000000062077
 21
95.499999999983174
 31
0.0
  0
LINE
  5
12F8
  8
0
 10
67.500000000038199
 20
95.071796769725353
 30
0.0
 11
67.500000000041496
 21
108.92820323027129
 31
0.0
  0
LINE
  5
12F9
  8
0
 10
65.700000000047339
 20
95.071796769724486
 30
0.0
 11
67.500000000038199
 21
95.071796769725353
 31
0.0
  0
LINE
  5
12FA
  8
0
 10
65.700000000047339
 20
94.999999999999986
 30
0.0
 11
65.700000000047339
 21
95.071796769724486
 31
0.0
  0
LINE
  5
12FB
  8
0
 10
65.700000000047339
 20
108.9282032302755
 30
0.0
 11
65.700000000047339
 21
109.0
 31
0.0
  0
LINE
  5
12FC
  8
0
 10
67.500000000041496
 20
108.92820323027129
 30
0.0
 11
65.700000000047339
 21
108.9282032302755
 31
0.0
  0
POLYLINE
  5
12FD
  8
0
 66
     1
 10
0.0
 20
0.0
 30
0.0
 70
   128
  0
VERTEX
  5
18D5
  8
0
 10
43.388736318992983
 20
95.0
 30
0.0
  0
VERTEX
  5
18D6
  8
0
 10
43.408977926117757
 20
95.015714489318029
 30
0.0
  0
VERTEX
  5
18D7
  8
0
 10
43.518454235560853
 20
95.098773786936505
 30
0.0
  0
VERTEX
  5
18D8
  8
0
 10
43.577209970907973
 20
95.142038971886407
 30
0.0
  0
VERTEX
  5
18D9
  8
0
 10
43.812010047355443
 20
95.306223269098837
 30
0.0
  0
VERTEX
  5
18DA
  8
0
 10
44.026657902715442
 20
95.444807214104401
 30
0.0
  0
VERTEX
  5
18DB
  8
0
 10
44.15169630326772
 20
95.520770111223655
 30
0.0
  0
VERTEX
  5
18DC
  8
0
 10
44.56840493156664
 20
95.750342062895612
 30
0.0
  0
VERTEX
  5
18DD
  8
0
 10
44.90011086597957
 20
95.908974935264936
 30
0.0
  0
VERTEX
  5
18DE
  8
0
 10
45.080914686053802
 20
95.987046406247217
 30
0.0
  0
VERTEX
  5
18DF
  8
0
 10
45.449582732756198
 20
96.128891184009504
 30
0.0
  0
VERTEX
  5
18E0
  8
0
 10
45.852259605616268
 20
96.258571435192934
 30
0.0
  0
VERTEX
  5
18E1
  8
0
 10
46.283021940575509
 20
96.369677503574295
 30
0.0
  0
VERTEX
  5
18E2
  8
0
 10
46.736191173035991
 20
96.457147646776036
 30
0.0
  0
VERTEX
  5
18E3
  8
0
 10
47.210949261263181
 20
96.517585721658094
 30
0.0
  0
VERTEX
  5
18E4
  8
0
 10
47.699739538482561
 20
96.547267594107126
 30
0.0
  0
VERTEX
  5
18E5
  8
0
 10
47.900000000047257
 20
96.550000000000011
 30
0.0
  0
VERTEX
  5
18E6
  8
0
 10
48.633845857520548
 20
96.513223278626327
 30
0.0
  0
VERTEX
  5
18E7
  8
0
 10
48.878703919306872
 20
96.484457961829605
 30
0.0
  0
VERTEX
  5
18E8
  8
0
 10
49.123214386406516
 20
96.447357706028086
 30
0.0
  0
VERTEX
  5
18E9
  8
0
 10
49.364709818906931
 20
96.402372706314395
 30
0.0
  0
VERTEX
  5
18EA
  8
0
 10
49.81778460736939
 20
96.295033676696292
 30
0.0
  0
VERTEX
  5
18EB
  8
0
 10
50.202831091339931
 20
96.17940233915192
 30
0.0
  0
VERTEX
  5
18EC
  8
0
 10
50.442020987202227
 20
96.095762797313313
 30
0.0
  0
VERTEX
  5
18ED
  8
0
 10
50.67165303369211
 20
96.006582925344816
 30
0.0
  0
VERTEX
  5
18EE
  8
0
 10
51.030178047023583
 20
95.849095224067298
 30
0.0
  0
VERTEX
  5
18EF
  8
0
 10
51.319183011266091
 20
95.704981719434954
 30
0.0
  0
VERTEX
  5
18F0
  8
0
 10
51.49052591301097
 20
95.611853143296614
 30
0.0
  0
VERTEX
  5
18F1
  8
0
 10
51.64840965000127
 20
95.520707178766514
 30
0.0
  0
VERTEX
  5
18F2
  8
0
 10
51.874210284247738
 20
95.381000941254413
 30
0.0
  0
VERTEX
  5
18F3
  8
0
 10
52.14377473265165
 20
95.198820920591999
 30
0.0
  0
VERTEX
  5
18F4
  8
0
 10
52.213460587129639
 20
95.148826295126895
 30
0.0
  0
VERTEX
  5
18F5
  8
0
 10
52.360800810163028
 20
95.038966986737108
 30
0.0
  0
VERTEX
  5
18F6
  8
0
 10
52.405597212743707
 20
95.004410561648427
 30
0.0
  0
VERTEX
  5
18F7
  8
0
 10
52.411263681102689
 20
94.999999999999915
 30
0.0
  0
VERTEX
  5
18F8
  8
0
 10
52.411263681102689
 20
94.999999999999915
 30
0.0
  0
SEQEND
  5
18F9
  8
0
  0
POLYLINE
  5
12FE
  8
0
 66
     1
 10
0.0
 20
0.0
 30
0.0
 70
   128
  0
VERTEX
  5
18FA
  8
0
 10
52.411263681101673
 20
109.0
 30
0.0
  0
VERTEX
  5
18FB
  8
0
 10
52.391022073976842
 20
108.9842855106819
 30
0.0
  0
VERTEX
  5
18FC
  8
0
 10
52.329125588685429
 20
108.9369284542143
 30
0.0
  0
VERTEX
  5
18FD
  8
0
 10
52.222790029186619
 20
108.85796102811349
 30
0.0
  0
VERTEX
  5
18FE
  8
0
 10
52.077914138043639
 20
108.7550490096819
 30
0.0
  0
VERTEX
  5
18FF
  8
0
 10
51.886828802236323
 20
108.6271438356839
 30
0.0
  0
VERTEX
  5
1900
  8
0
 10
51.648303696826929
 20
108.4792298887763
 30
0.0
  0
VERTEX
  5
1901
  8
0
 10
51.381946320647558
 20
108.32844834266071
 30
0.0
  0
VERTEX
  5
1902
  8
0
 10
51.071283868264452
 20
108.17044120600229
 30
0.0
  0
VERTEX
  5
1903
  8
0
 10
50.719085314040854
 20
108.0129535937527
 30
0.0
  0
VERTEX
  5
1904
  8
0
 10
50.350417267338507
 20
107.8711088159905
 30
0.0
  0
VERTEX
  5
1905
  8
0
 10
49.947740394478437
 20
107.74142856480699
 30
0.0
  0
VERTEX
  5
1906
  8
0
 10
49.516978059519147
 20
107.63032249642571
 30
0.0
  0
VERTEX
  5
1907
  8
0
 10
49.063808827058672
 20
107.54285235322391
 30
0.0
  0
VERTEX
  5
1908
  8
0
 10
48.589050738831467
 20
107.48241427834191
 30
0.0
  0
VERTEX
  5
1909
  8
0
 10
48.100260461612038
 20
107.4527324058929
 30
0.0
  0
VERTEX
  5
190A
  8
0
 10
47.900000000047328
 20
107.45
 30
0.0
  0
VERTEX
  5
190B
  8
0
 10
47.655881696904089
 20
107.454060642694
 30
0.0
  0
VERTEX
  5
190C
  8
0
 10
47.412450385336449
 20
107.4662103134241
 30
0.0
  0
VERTEX
  5
190D
  8
0
 10
46.921296080787783
 20
107.51554203817039
 30
0.0
  0
VERTEX
  5
190E
  8
0
 10
46.435290181187717
 20
107.5976272936856
 30
0.0
  0
VERTEX
  5
190F
  8
0
 10
46.206251131963313
 20
107.64809445792891
 30
0.0
  0
VERTEX
  5
1910
  8
0
 10
45.982215392725259
 20
107.70496632330369
 30
0.0
  0
VERTEX
  5
1911
  8
0
 10
45.597168908754718
 20
107.82059766084799
 30
0.0
  0
VERTEX
  5
1912
  8
0
 10
45.128346966402603
 20
107.9934170746552
 30
0.0
  0
VERTEX
  5
1913
  8
0
 10
44.944687950640173
 20
108.0712403904713
 30
0.0
  0
VERTEX
  5
1914
  8
0
 10
44.769821953071073
 20
108.1509047759326
 30
0.0
  0
VERTEX
  5
1915
  8
0
 10
44.480816988828607
 20
108.295018280565
 30
0.0
  0
VERTEX
  5
1916
  8
0
 10
44.151590350093443
 20
108.4792928212335
 30
0.0
  0
VERTEX
  5
1917
  8
0
 10
43.925789715846967
 20
108.6189990587455
 30
0.0
  0
VERTEX
  5
1918
  8
0
 10
43.73632154874548
 20
108.74521863470849
 30
0.0
  0
VERTEX
  5
1919
  8
0
 10
43.58653941296506
 20
108.8511737048731
 30
0.0
  0
VERTEX
  5
191A
  8
0
 10
43.526896819620333
 20
108.8949538955702
 30
0.0
  0
VERTEX
  5
191B
  8
0
 10
43.478025304657301
 20
108.9315241066175
 30
0.0
  0
VERTEX
  5
191C
  8
0
 10
43.411340804155309
 20
108.98245846996051
 30
0.0
  0
VERTEX
  5
191D
  8
0
 10
43.38873631899196
 20
109.0000000000001
 30
0.0
  0
VERTEX
  5
191E
  8
0
 10
43.38873631899196
 20
109.0
 30
0.0
  0
SEQEND
  5
191F
  8
0
  0
LINE
  5
12FF
  8
0
 10
67.500000000038256
 20
108.9282032302696
 30
0.0
 11
68.000000000009095
 21
108.4226162892935
 31
0.0
  0
POLYLINE
  5
1300
  8
0
 66
     1
 10
0.0
 20
0.0
 30
0.0
 70
   128
  0
VERTEX
  5
1920
  8
0
 10
67.500000000038199
 20
95.071796769725353
 30
0.0
  0
VERTEX
  5
1921
  8
0
 10
67.750052577121096
 20
95.324538202370249
 30
0.0
  0
VERTEX
  5
1922
  8
0
 10
67.875040190686718
 20
95.450947207815986
 30
0.0
  0
VERTEX
  5
1923
  8
0
 10
68.000000000038312
 20
95.577383710679754
 30
0.0
  0
SEQEND
  5
1924
  8
0
  0
LINE
  5
1301
  8
0
 10
40.000000000047343
 20
105.40000000000001
 30
0.0
 11
40.000000000047343
 21
98.599999999999994
 31
0.0
  0
ARC
  5
1348
  8
0
 10
68.000000000047294
 20
163.69999999999999
 30
0.0
 40
1.0
 50
270.0
 51
0.0
  0
ARC
  5
1349
  8
0
 10
68.000000000047294
 20
177.69999999999999
 30
0.0
 40
1.0
 50
0.0
 51
90.0
  0
LINE
  5
134A
  8
0
 10
41.800000000047362
 20
177.70000000000209
 30
0.0
 11
41.300000000062077
 21
177.20000000001679
 31
0.0
  0
LINE
  5
134B
  8
0
 10
41.300000000062077
 20
164.19999999998311
 30
0.0
 11
41.800000000047362
 21
163.69999999999791
 31
0.0
  0
LINE
  5
134C
  8
0
 10
41.800000000047362
 20
163.69999999999999
 30
0.0
 11
42.243145749600437
 21
163.69999999999999
 31
0.0
  0
LINE
  5
134D
  8
0
 10
53.556854250494553
 20
163.69999999999999
 30
0.0
 11
67.500000000047294
 21
163.69999999999999
 31
0.0
  0
LINE
  5
134E
  8
0
 10
67.500000000047294
 20
177.69999999999999
 30
0.0
 11
53.556854250494382
 21
177.69999999999999
 31
0.0
  0
LINE
  5
134F
  8
0
 10
42.243145749600608
 20
177.69999999999999
 30
0.0
 11
41.800000000047362
 21
177.69999999999999
 31
0.0
  0
LINE
  5
1350
  8
0
 10
68.000000000010459
 20
177.19999999995991
 30
0.0
 11
67.500000000047294
 21
177.69999999998001
 31
0.0
  0
LINE
  5
1351
  8
0
 10
67.500000000047294
 20
163.70000000002
 30
0.0
 11
68.000000000010459
 21
164.20000000004001
 31
0.0
  0
LINE
  5
1352
  8
0
 10
40.000000000047343
 20
167.30000000000001
 30
0.0
 11
40.400000000047498
 21
167.30000000000001
 31
0.0
  0
LINE
  5
1353
  8
0
 10
40.400000000047498
 20
174.09999999999991
 30
0.0
 11
40.000000000047343
 21
174.09999999999991
 31
0.0
  0
LINE
  5
1354
  8
0
 10
69.000000000047294
 20
163.69999999999999
 30
0.0
 11
69.000000000047294
 21
177.69999999999999
 31
0.0
  0
LINE
  5
1355
  8
0
 10
68.000000000047294
 20
162.69999999999999
 30
0.0
 11
68.000000000047294
 21
178.69999999999999
 31
0.0
  0
LINE
  5
1356
  8
0
 10
66.500000000047294
 20
171.69999999999999
 30
0.0
 11
66.500000000047294
 21
169.69999999999999
 31
0.0
  0
ARC
  5
135F
  8
0
 10
52.230127020049402
 20
165.2000000000009
 30
0.0
 40
2.000000000000882
 50
269.99999999994139
 51
287.92251434763909
  0
LINE
  5
1360
  8
0
 10
52.230127020047341
 20
163.19999999999999
 30
0.0
 11
43.569872980047307
 21
163.19999999999999
 31
0.0
  0
ARC
  5
1361
  8
0
 10
43.569872980045197
 20
165.1999999999999
 30
0.0
 40
1.99999999999995
 50
252.07748565235741
 51
270.0000000000619
  0
ARC
  5
1364
  8
0
 10
42.400000000063407
 20
175.03012701999961
 30
0.0
 40
2.0000000000160929
 50
162.07748565242881
 51
179.9999999999886
  0
ARC
  5
1367
  8
0
 10
42.400000000063578
 20
166.36987298000039
 30
0.0
 40
2.000000000016243
 50
180.00000000001219
 51
197.92251434757031
  0
LINE
  5
1368
  8
0
 10
40.400000000047328
 20
166.36987298
 30
0.0
 11
40.400000000047328
 21
175.03012702000001
 31
0.0
  0
ARC
  5
1369
  8
0
 10
53.40000000003328
 20
166.36987298
 30
0.0
 40
2.0000000000140399
 50
342.07748528979403
 51
359.99999999999841
  0
ARC
  5
136C
  8
0
 10
53.400000000045573
 20
175.03012702000191
 30
0.0
 40
2.0000000000017328
 50
359.99999999994537
 51
17.922514710259591
  0
LINE
  5
136D
  8
0
 10
55.400000000047328
 20
175.03012702000001
 30
0.0
 11
55.400000000047378
 21
166.36987298
 31
0.0
  0
ARC
  5
136E
  8
0
 10
43.569872980045318
 20
176.19999999999939
 30
0.0
 40
2.0000000000005991
 50
89.99999999994138
 51
107.92251471026771
  0
LINE
  5
136F
  8
0
 10
43.569872980047307
 20
178.19999999999999
 30
0.0
 11
52.230127020047341
 21
178.19999999999999
 31
0.0
  0
ARC
  5
1370
  8
0
 10
52.230127020049572
 20
176.20000000000061
 30
0.0
 40
1.9999999999994029
 50
72.077485289728884
 51
90.000000000061874
  0
ARC
  5
1373
  8
0
 10
43.569872980047649
 20
165.20000000000039
 30
0.0
 40
2.0000000000005529
 50
231.78678923404431
 51
252.07748565657789
  0
ARC
  5
1374
  8
0
 10
47.900000000047328
 20
170.69999999999999
 30
0.0
 40
9.0000000005999947
 50
218.21321070867111
 51
231.78678929133011
  0
ARC
  5
1375
  8
0
 10
42.400000000046361
 20
166.3698729799994
 30
0.0
 40
1.999999999998882
 50
197.9225143434148
 51
218.21321070867631
  0
ARC
  5
1376
  8
0
 10
42.400000000047669
 20
175.03012701999981
 30
0.0
 40
2.0000000000003708
 50
141.78678923404431
 51
162.0774856565788
  0
ARC
  5
1377
  8
0
 10
47.900000000047378
 20
170.6999999999999
 30
0.0
 40
9.0000000006000676
 50
128.213210721433
 51
141.7867892913315
  0
ARC
  5
1378
  8
0
 10
43.569872980047649
 20
176.19999999999951
 30
0.0
 40
2.0000000000005649
 50
107.92251470605051
 51
128.21321076609709
  0
ARC
  5
1379
  8
0
 10
53.400000000046589
 20
166.36987298000031
 30
0.0
 40
2.0000000000007998
 50
321.78678923404891
 51
342.07748529395087
  0
ARC
  5
137A
  8
0
 10
47.900000000047257
 20
170.69999999999999
 30
0.0
 40
9.0000000006000462
 50
308.21321070867032
 51
321.78678929133213
  0
ARC
  5
137B
  8
0
 10
52.230127020047007
 20
165.2000000000007
 30
0.0
 40
2.000000000000751
 50
287.92251434342541
 51
308.213210708666
  0
ARC
  5
137C
  8
0
 10
52.230127020047227
 20
176.1999999999997
 30
0.0
 40
2.0000000000003308
 50
51.786789234047937
 51
72.077485293952861
  0
ARC
  5
137D
  8
0
 10
47.900000000047257
 20
170.69999999999999
 30
0.0
 40
9.000000000600032
 50
38.213210721432063
 51
51.786789291329747
  0
ARC
  5
137E
  8
0
 10
53.400000000048351
 20
175.03012702000049
 30
0.0
 40
1.9999999999988409
 50
17.922514706041031
 51
38.213210766105803
  0
LINE
  5
137F
  8
0
 10
41.800000000047362
 20
177.69999999999999
 30
0.0
 11
41.800000000047362
 21
177.31740130344221
 31
0.0
  0
LINE
  5
1380
  8
0
 10
41.800000000047362
 20
164.0825986965576
 30
0.0
 11
41.800000000047362
 21
163.69999999999791
 31
0.0
  0
LINE
  5
1381
  8
0
 10
41.300000000062077
 20
177.20000000001679
 30
0.0
 11
41.300000000062077
 21
176.81882341720959
 31
0.0
  0
LINE
  5
1382
  8
0
 10
41.300000000062077
 20
164.58117658279019
 30
0.0
 11
41.300000000062077
 21
164.19999999998311
 31
0.0
  0
LINE
  5
1383
  8
0
 10
67.500000000047294
 20
163.69999999999999
 30
0.0
 11
67.500000000041496
 21
169.69999999999999
 31
0.0
  0
LINE
  5
1384
  8
0
 10
67.50000000003854
 20
171.69999999999999
 30
0.0
 11
67.500000000047294
 21
177.69999999999999
 31
0.0
  0
LINE
  5
1385
  8
0
 10
65.700000000047339
 20
171.69999999999999
 30
0.0
 11
68.000000000047294
 21
171.69999999999999
 31
0.0
  0
LINE
  5
1386
  8
0
 10
65.700000000047339
 20
169.69999999999999
 30
0.0
 11
65.700000000047339
 21
171.69999999999999
 31
0.0
  0
LINE
  5
1387
  8
0
 10
68.000000000047294
 20
169.69999999999999
 30
0.0
 11
65.700000000047339
 21
169.69999999999999
 31
0.0
  0
LINE
  5
138A
  8
0
 10
40.000000000047343
 20
174.09999999999991
 30
0.0
 11
40.000000000047343
 21
167.30000000000001
 31
0.0
  0
LINE
  5
13CE
  8
0
 10
113.00000000004729
 20
119.2
 30
0.0
 11
113.00000000004729
 21
108.9282032302753
 31
0.0
  0
LINE
  5
13CF
  8
0
 10
121.00000000004729
 20
108.9282032302753
 30
0.0
 11
121.00000000004719
 21
119.2
 31
0.0
  0
CIRCLE
  5
13D2
  8
0
 10
117.00000000004729
 20
102.0
 30
0.0
 40
8.0
  0
LINE
  5
13D4
  8
0
 10
112.6698729800472
 20
123.19999998999999
 30
0.0
 11
112.6698729800473
 21
119.2
 31
0.0
  0
LINE
  5
13E2
  8
0
 10
121.3301270200472
 20
119.2
 30
0.0
 11
121.3301270200472
 21
123.19999998999999
 31
0.0
  0
ARC
  5
13EA
  8
0
 10
110.00000000004729
 20
119.7
 30
0.0
 40
0.5000000000000643
 50
216.30329652991989
 51
269.99999999999682
  0
ARC
  5
13ED
  8
0
 10
124.00000000004719
 20
119.69999999000009
 30
0.0
 40
0.5000000000001387
 50
270.0000000108617
 51
323.69670422399622
  0
LINE
  5
13EE
  8
0
 10
124.00000000014199
 20
119.2
 30
0.0
 11
110.00000000004729
 21
119.2
 31
0.0
  0
ARC
  5
13F1
  8
0
 10
110.00000000004729
 20
122.6999999999999
 30
0.0
 40
0.500000000000057
 50
90.0
 51
143.69670347007801
  0
LINE
  5
13F5
  8
0
 10
123.99999999995249
 20
123.2
 30
0.0
 11
110.00000000004729
 21
123.2
 31
0.0
  0
ARC
  5
13F6
  8
0
 10
124.00000000004729
 20
122.69999999000009
 30
0.0
 40
0.4999999999999148
 50
36.303297283837729
 51
90.000000010858471
  0
ARC
  5
13F9
  8
0
 10
110.0000000000036
 20
122.700000000017
 30
0.0
 40
0.4999999999563443
 50
143.69670345785141
 51
180.0000000019549
  0
ARC
  5
13FA
  8
0
 10
110.0000000000036
 20
119.69999999998289
 30
0.0
 40
0.4999999999563727
 50
179.99999999804589
 51
216.3032965421427
  0
LINE
  5
13FB
  8
0
 10
109.50000000004729
 20
119.7
 30
0.0
 11
109.50000000004729
 21
122.7
 31
0.0
  0
ARC
  5
13FC
  8
0
 10
124.0000000000949
 20
122.6999999900183
 30
0.0
 40
0.4999999999523368
 50
359.99999999790168
 51
36.303297296220101
  0
LINE
  5
13FD
  8
0
 10
124.50000000004729
 20
122.69999998999999
 30
0.0
 11
124.50000000004729
 21
119.69999998999999
 31
0.0
  0
ARC
  5
13FE
  8
0
 10
124.0000000000497
 20
119.6999999899992
 30
0.0
 40
0.4999999999975842
 50
323.69670421345569
 51
0.0000000000911929
  0
ARC
  5
1400
  8
0
 10
113.25000000004729
 20
116.22606899065541
 30
0.0
 40
2.2265675899916282
 50
83.553210003592199
 51
96.446789996407787
  0
ARC
  5
1401
  8
0
 10
111.81842286251771
 20
109.6257128360149
 30
0.0
 40
8.9718406189970334
 50
54.72244935480871
 51
79.197257411544129
  0
LINE
  5
1402
  8
0
 10
121.00000000004729
 20
116.95
 30
0.0
 11
113.00000000004729
 21
116.95
 31
0.0
  0
ARC
  5
1403
  8
0
 10
122.2031689610924
 20
109.5749446210048
 30
0.0
 40
9.0257636286593161
 50
100.8769750082531
 51
125.2033182253908
  0
ARC
  5
1404
  8
0
 10
120.75000000004729
 20
116.65222232146159
 30
0.0
 40
1.80374377811818
 50
82.033121942342135
 51
97.966878057661177
  0
LINE
  5
1407
  8
0
 10
120.50000000004729
 20
118.4385570093351
 30
0.0
 11
120.50000000004729
 21
119.2
 31
0.0
  0
LINE
  5
1408
  8
0
 10
113.50000000004729
 20
119.2
 30
0.0
 11
113.50000000004729
 21
118.4385570093351
 31
0.0
  0
ARC
  5
1453
  8
0
 10
67.999999999999943
 20
40.499999999999993
 30
0.0
 40
1.0
 50
270.0
 51
0.0
  0
ARC
  5
1454
  8
0
 10
67.999999999999943
 20
54.5
 30
0.0
 40
1.0
 50
0.0
 51
90.0
  0
LINE
  5
1455
  8
0
 10
41.800000000000011
 20
40.499999999999993
 30
0.0
 11
67.499999999999943
 21
40.499999999999993
 31
0.0
  0
LINE
  5
1456
  8
0
 10
67.499999999999943
 20
54.5
 30
0.0
 11
41.800000000000011
 21
54.5
 31
0.0
  0
LINE
  5
1457
  8
0
 10
41.800000000000011
 20
54.500000000002082
 30
0.0
 11
41.300000000014727
 21
54.000000000016811
 31
0.0
  0
LINE
  5
1458
  8
0
 10
41.300000000014727
 20
40.999999999983167
 30
0.0
 11
41.800000000000011
 21
40.499999999997911
 31
0.0
  0
LINE
  5
1459
  8
0
 10
67.999999999963109
 20
53.999999999959982
 30
0.0
 11
67.499999999999943
 21
54.499999999979991
 31
0.0
  0
LINE
  5
145A
  8
0
 10
67.499999999999943
 20
40.500000000020002
 30
0.0
 11
67.999999999963109
 21
41.000000000040018
 31
0.0
  0
LINE
  5
145B
  8
0
 10
40.0
 20
44.099999999999987
 30
0.0
 11
41.300000000000011
 21
44.099999999999987
 31
0.0
  0
LINE
  5
145C
  8
0
 10
41.300000000000011
 20
50.899999999999991
 30
0.0
 11
40.0
 21
50.899999999999991
 31
0.0
  0
LINE
  5
145D
  8
0
 10
68.999999999999943
 20
40.499999999999993
 30
0.0
 11
68.999999999999943
 21
54.5
 31
0.0
  0
LINE
  5
145E
  8
0
 10
67.999999999999943
 20
39.5
 30
0.0
 11
67.999999999999943
 21
55.5
 31
0.0
  0
LINE
  5
145F
  8
0
 10
66.5
 20
48.5
 30
0.0
 11
66.5
 21
46.499999999999972
 31
0.0
  0
ARC
  5
1462
  8
0
 10
42.400000000010493
 20
43.169872980001678
 30
0.0
 40
2.0000000000105009
 50
180.0000000000488
 51
197.9225143475303
  0
LINE
  5
1463
  8
0
 10
40.399999999999977
 20
51.830127019999992
 30
0.0
 11
40.399999999999977
 21
50.900000000000063
 31
0.0
  0
LINE
  5
1464
  8
0
 10
40.399999999999977
 20
44.100000000000058
 30
0.0
 11
40.399999999999977
 21
43.169872979999987
 31
0.0
  0
ARC
  5
1465
  8
0
 10
42.400000000016227
 20
51.830127019999559
 30
0.0
 40
2.0000000000162732
 50
162.0774856524298
 51
179.99999999998781
  0
ARC
  5
1468
  8
0
 10
52.2301270200009
 20
52.999999999991999
 30
0.0
 40
2.000000000008002
 50
72.077485652395069
 51
90.000000000026048
  0
ARC
  5
146B
  8
0
 10
43.569872980000412
 20
52.999999999997399
 30
0.0
 40
2.0000000000026001
 50
90.000000000013031
 51
107.9225143475638
  0
LINE
  5
146C
  8
0
 10
52.230127019999998
 20
55.0
 30
0.0
 11
43.56987297999995
 21
55.0
 31
0.0
  0
ARC
  5
146D
  8
0
 10
43.569872979998479
 20
42.000000000004292
 30
0.0
 40
2.000000000004285
 50
252.0774860150031
 51
270.00000000004229
  0
ARC
  5
1470
  8
0
 10
52.230127020000111
 20
41.999999999998913
 30
0.0
 40
1.9999999999989251
 50
269.99999999999352
 51
287.92251398495591
  0
LINE
  5
1471
  8
0
 10
43.56987297999995
 20
40.0
 30
0.0
 11
52.230127019999998
 21
40.0
 31
0.0
  0
ARC
  5
1472
  8
0
 10
42.400000000000432
 20
51.83012701999975
 30
0.0
 40
2.000000000000504
 50
141.7867892913323
 51
162.07748565657749
  0
LINE
  5
1473
  8
0
 10
42.332693831958807
 20
54.571428570755039
 30
0.0
 11
42.243145750507658
 21
54.500000000000057
 31
0.0
  0
ARC
  5
1474
  8
0
 10
47.899999999999977
 20
47.5
 30
0.0
 40
8.9999999999999911
 50
137.16657193379481
 51
141.7867892913315
  0
ARC
  5
1475
  8
0
 10
43.569872980000071
 20
52.99999999999968
 30
0.0
 40
2.0000000000003291
 50
107.92251434342199
 51
128.21321070866611
  0
ARC
  5
1476
  8
0
 10
52.230127019999998
 20
53.000000000000071
 30
0.0
 40
1.9999999999999349
 50
51.786789291329747
 51
72.077485656581388
  0
LINE
  5
1477
  8
0
 10
53.556854249492282
 20
54.500000000000057
 30
0.0
 11
53.467306168041148
 21
54.57142857075506
 31
0.0
  0
ARC
  5
1478
  8
0
 10
43.569872980000177
 20
42.000000000000398
 30
0.0
 40
2.0000000000004419
 50
231.78678923390319
 51
252.07748601920309
  0
ARC
  5
1479
  8
0
 10
47.899999999999977
 20
47.5
 30
0.0
 40
9.0000000000000053
 50
218.21321070867111
 51
222.83342806620541
  0
LINE
  5
147A
  8
0
 10
42.243145750507487
 20
40.500000000000057
 30
0.0
 11
42.332693830383683
 21
40.428571430485029
 31
0.0
  0
ARC
  5
147B
  8
0
 10
42.400000000000091
 20
43.169872980000072
 30
0.0
 40
2.000000000000131
 50
197.92251434342171
 51
218.21321070867111
  0
LINE
  5
147C
  8
0
 10
53.467306168041148
 20
40.428571429244933
 30
0.0
 11
53.55685424949246
 21
40.500000000000057
 31
0.0
  0
ARC
  5
147D
  8
0
 10
52.230127019999998
 20
42.0
 30
0.0
 40
1.9999999999999849
 50
287.9225139807935
 51
308.21321070867009
  0
LINE
  5
147E
  8
0
 10
67.499999999990848
 20
48.5
 30
0.0
 11
67.499999999999943
 21
54.5
 31
0.0
  0
LINE
  5
147F
  8
0
 10
65.699999999999989
 20
48.5
 30
0.0
 11
67.999999999999943
 21
48.5
 31
0.0
  0
LINE
  5
1480
  8
0
 10
65.699999999999989
 20
46.499999999999993
 30
0.0
 11
65.699999999999989
 21
48.5
 31
0.0
  0
LINE
  5
1481
  8
0
 10
67.999999999999943
 20
46.499999999999979
 30
0.0
 11
65.699999999999989
 21
46.499999999999993
 31
0.0
  0
LINE
  5
1482
  8
0
 10
67.499999999999943
 20
40.499999999999993
 30
0.0
 11
67.499999999994941
 21
46.499999999999993
 31
0.0
  0
POLYLINE
  5
1483
  8
0
 66
     1
 10
0.0
 20
0.0
 30
0.0
 70
   128
  0
VERTEX
  5
1925
  8
0
 10
43.388736318945632
 20
47.5
 30
0.0
  0
VERTEX
  5
1926
  8
0
 10
43.408977926070399
 20
47.968781297918412
 30
0.0
  0
VERTEX
  5
1927
  8
0
 10
43.518454235513502
 20
48.671783579047343
 30
0.0
  0
VERTEX
  5
1928
  8
0
 10
43.577209970860622
 20
48.90298629247593
 30
0.0
  0
VERTEX
  5
1929
  8
0
 10
43.812010047308092
 20
49.547767827867411
 30
0.0
  0
VERTEX
  5
192A
  8
0
 10
44.026657902668092
 20
49.955493339381462
 30
0.0
  0
VERTEX
  5
192B
  8
0
 10
44.151696303220369
 20
50.149449008452109
 30
0.0
  0
VERTEX
  5
192C
  8
0
 10
44.568404931519289
 20
50.653058145545899
 30
0.0
  0
VERTEX
  5
192D
  8
0
 10
44.90011086593222
 20
50.949552675460453
 30
0.0
  0
VERTEX
  5
192E
  8
0
 10
45.080914686006452
 20
51.083906957410711
 30
0.0
  0
VERTEX
  5
192F
  8
0
 10
45.449582732708848
 20
51.311834370851471
 30
0.0
  0
VERTEX
  5
1930
  8
0
 10
45.852259605568918
 20
51.50449722627269
 30
0.0
  0
VERTEX
  5
1931
  8
0
 10
46.283021940528158
 20
51.659262985944082
 30
0.0
  0
VERTEX
  5
1932
  8
0
 10
46.73619117298864
 20
51.775135996710532
 30
0.0
  0
VERTEX
  5
1933
  8
0
 10
47.210949261215823
 20
51.85237104124252
 30
0.0
  0
VERTEX
  5
1934
  8
0
 10
47.699739538435203
 20
51.889499892895543
 30
0.0
  0
VERTEX
  5
1935
  8
0
 10
47.89999999999992
 20
51.892891985924862
 30
0.0
  0
VERTEX
  5
1936
  8
0
 10
48.633845857473197
 20
51.846870277543587
 30
0.0
  0
VERTEX
  5
1937
  8
0
 10
48.878703919259522
 20
51.810312752594072
 30
0.0
  0
VERTEX
  5
1938
  8
0
 10
49.123214386359173
 20
51.762412879484373
 30
0.0
  0
VERTEX
  5
1939
  8
0
 10
49.364709818859581
 20
51.703161748135962
 30
0.0
  0
VERTEX
  5
193A
  8
0
 10
49.817784607322039
 20
51.556274060019042
 30
0.0
  0
VERTEX
  5
193B
  8
0
 10
50.20283109129258
 20
51.38852708239655
 30
0.0
  0
VERTEX
  5
193C
  8
0
 10
50.442020987154869
 20
51.260316882180362
 30
0.0
  0
VERTEX
  5
193D
  8
0
 10
50.671653033644752
 20
51.116483342867831
 30
0.0
  0
VERTEX
  5
193E
  8
0
 10
51.030178046976232
 20
50.84161195195027
 30
0.0
  0
VERTEX
  5
193F
  8
0
 10
51.31918301121874
 20
50.561493891444641
 30
0.0
  0
VERTEX
  5
1940
  8
0
 10
51.490525912963619
 20
50.362093593366652
 30
0.0
  0
VERTEX
  5
1941
  8
0
 10
51.648409649953912
 20
50.14929510185604
 30
0.0
  0
VERTEX
  5
1942
  8
0
 10
51.874210284200387
 20
49.777905059551088
 30
0.0
  0
VERTEX
  5
1943
  8
0
 10
52.1437747326043
 20
49.156491210307337
 30
0.0
  0
VERTEX
  5
1944
  8
0
 10
52.213460587082288
 20
48.935764209630861
 30
0.0
  0
VERTEX
  5
1945
  8
0
 10
52.360800810115677
 20
48.237576699919501
 30
0.0
  0
VERTEX
  5
1946
  8
0
 10
52.405597212696371
 20
47.748452027611222
 30
0.0
  0
VERTEX
  5
1947
  8
0
 10
52.411263681055338
 20
47.500000000000313
 30
0.0
  0
VERTEX
  5
1948
  8
0
 10
52.39117890100016
 20
47.033029699521776
 30
0.0
  0
VERTEX
  5
1949
  8
0
 10
52.281545764486509
 20
46.328216420952693
 30
0.0
  0
VERTEX
  5
194A
  8
0
 10
52.222790029139283
 20
46.097013707524063
 30
0.0
  0
VERTEX
  5
194B
  8
0
 10
51.987989952691862
 20
45.452232172132582
 30
0.0
  0
VERTEX
  5
194C
  8
0
 10
51.773342097331863
 20
45.044506660618531
 30
0.0
  0
VERTEX
  5
194D
  8
0
 10
51.648303696779571
 20
44.850550991547898
 30
0.0
  0
VERTEX
  5
194E
  8
0
 10
51.231595068480722
 20
44.34694185445408
 30
0.0
  0
VERTEX
  5
194F
  8
0
 10
50.899889134067791
 20
44.05044732453954
 30
0.0
  0
VERTEX
  5
1950
  8
0
 10
50.719085313993503
 20
43.916093042589267
 30
0.0
  0
VERTEX
  5
1951
  8
0
 10
50.350417267291107
 20
43.688165629148529
 30
0.0
  0
VERTEX
  5
1952
  8
0
 10
49.947740394431086
 20
43.495502773727289
 30
0.0
  0
VERTEX
  5
1953
  8
0
 10
49.516978059471803
 20
43.340737014055911
 30
0.0
  0
VERTEX
  5
1954
  8
0
 10
49.063808827011322
 20
43.224864003289447
 30
0.0
  0
VERTEX
  5
1955
  8
0
 10
48.589050738784117
 20
43.147628958757473
 30
0.0
  0
VERTEX
  5
1956
  8
0
 10
48.100260461564687
 20
43.110500107104443
 30
0.0
  0
VERTEX
  5
1957
  8
0
 10
47.899999999999977
 20
43.107108014075131
 30
0.0
  0
VERTEX
  5
1958
  8
0
 10
47.166154142526807
 20
43.153129722456399
 30
0.0
  0
VERTEX
  5
1959
  8
0
 10
46.921296080740433
 20
43.189687247405907
 30
0.0
  0
VERTEX
  5
195A
  8
0
 10
46.676785613640838
 20
43.23758712051562
 30
0.0
  0
VERTEX
  5
195B
  8
0
 10
46.435290181140367
 20
43.296838251864031
 30
0.0
  0
VERTEX
  5
195C
  8
0
 10
45.982215392677908
 20
43.443725939980951
 30
0.0
  0
VERTEX
  5
195D
  8
0
 10
45.597168908707367
 20
43.611472917603429
 30
0.0
  0
VERTEX
  5
195E
  8
0
 10
45.357979012845128
 20
43.739683117819638
 30
0.0
  0
VERTEX
  5
195F
  8
0
 10
45.128346966355252
 20
43.883516657132162
 30
0.0
  0
VERTEX
  5
1960
  8
0
 10
44.944983207575028
 20
44.015517689172249
 30
0.0
  0
VERTEX
  5
1961
  8
0
 10
44.480816988781271
 20
44.438506108555359
 30
0.0
  0
VERTEX
  5
1962
  8
0
 10
44.309474087036328
 20
44.637906406633348
 30
0.0
  0
VERTEX
  5
1963
  8
0
 10
44.151590350046092
 20
44.85070489814396
 30
0.0
  0
VERTEX
  5
1964
  8
0
 10
43.925789715799617
 20
45.222094940448898
 30
0.0
  0
VERTEX
  5
1965
  8
0
 10
43.656225267395712
 20
45.843508789692663
 30
0.0
  0
VERTEX
  5
1966
  8
0
 10
43.586539412917709
 20
46.064235790369132
 30
0.0
  0
VERTEX
  5
1967
  8
0
 10
43.439199189884278
 20
46.762423300080521
 30
0.0
  0
VERTEX
  5
1968
  8
0
 10
43.39440278730364
 20
47.251547972388899
 30
0.0
  0
VERTEX
  5
1969
  8
0
 10
43.388736318945632
 20
47.5
 30
0.0
  0
SEQEND
  5
196A
  8
0
  0
LINE
  5
1484
  8
0
 10
41.800000000000011
 20
54.5
 30
0.0
 11
41.800000000000011
 21
40.499999999999993
 31
0.0
  0
CIRCLE
  5
1485
  8
0
 10
47.899999999999977
 20
47.5
 30
0.0
 40
4.0000000000000071
  0
LINE
  5
1486
  8
0
 10
41.300000000014727
 20
54.000000000016811
 30
0.0
 11
41.300000000014727
 21
40.999999999983167
 31
0.0
  0
LINE
  5
1489
  8
0
 10
40.0
 20
50.899999999999991
 30
0.0
 11
40.0
 21
44.099999999999987
 31
0.0
  0
CIRCLE
  5
159E
  8
0
 10
117.00000000004729
 20
102.0
 30
0.0
 40
7.0000000000000142
  0
LINE
  5
1625
  8
1
 10
35.000000000047351
 20
102.0
 30
0.0
 11
74.000000000047294
 21
102.0
 31
0.0
  0
LINE
  5
1626
  8
1
 10
35.000000000047351
 20
170.69999999999999
 30
0.0
 11
74.000000000047294
 21
170.69999999999999
 31
0.0
  0
LINE
  5
1627
  8
1
 10
35.0
 20
47.5
 30
0.0
 11
73.999999999999943
 21
47.5
 31
0.0
  0
LINE
  5
162B
  8
1
 10
106.00000000004729
 20
102.0
 30
0.0
 11
128.00000000004729
 21
102.0
 31
0.0
  0
LINE
  5
166F
  8
1
 10
117.00000000004729
 20
128.19999999999999
 30
0.0
 11
117.00000000004729
 21
89.999999999999986
 31
0.0
  0
LINE
  5
1670
  8
1
 10
47.899999999999977
 20
181.19999999999999
 30
0.0
 11
47.899999999999977
 21
160.19999999999999
 31
0.0
  0
LINE
  5
1680
  8
1
 10
47.899999999999977
 20
128.19999999999999
 30
0.0
 11
47.899999999999977
 21
89.999999999999986
 31
0.0
  0
LINE
  5
1681
  8
1
 10
47.89999999995262
 20
58.0
 30
0.0
 11
47.89999999995262
 21
37.0
 31
0.0
  0
ENDSEC
  0
EOF
