  0
SECTION
  2
HEADER
  9
$ACADVER
  1
AC1009
  9
$INSBASE
 10
0.0
 20
0.0
 30
0.0
  9
$EXTMIN
 10
0.0
 20
-2.960436562073669
 30
0.0
  9
$EXTMAX
 10
242.49401399999999
 20
217.460432
 30
0.0
  9
$LIMMIN
 10
0.0
 20
0.0
  9
$LIMMAX
 10
375.0
 20
270.0
  9
$ORTHOMODE
 70
     1
  9
$REGENMODE
 70
     1
  9
$FILLMODE
 70
     1
  9
$QTEXTMODE
 70
     0
  9
$MIRRTEXT
 70
     0
  9
$DRAGMODE
 70
     2
  9
$LTSCALE
 40
10.0
  9
$OSMODE
 70
  3071
  9
$ATTMODE
 70
     1
  9
$TEXTSIZE
 40
5.0
  9
$TRACEWID
 40
0.05
  9
$TEXTSTYLE
  7
STANDARD
  9
$CLAYER
  8
0
  9
$CELTYPE
  6
BYLAYER
  9
$CECOLOR
 62
   256
  9
$DIMSCALE
 40
1.0
  9
$DIMASZ
 40
3.0
  9
$DIMEXO
 40
2.0
  9
$DIMDLI
 40
0.38
  9
$DIMRND
 40
0.0
  9
$DIMDLE
 40
0.0
  9
$DIMEXE
 40
2.0
  9
$DIMTP
 40
0.0
  9
$DIMTM
 40
0.0
  9
$DIMTXT
 40
3.2000000000000002
  9
$DIMCEN
 40
0.0
  9
$DIMTSZ
 40
0.0
  9
$DIMTOL
 70
     0
  9
$DIMLIM
 70
     0
  9
$DIMTIH
 70
     0
  9
$DIMTOH
 70
     0
  9
$DIMSE1
 70
     0
  9
$DIMSE2
 70
     0
  9
$DIMTAD
 70
     1
  9
$DIMZIN
 70
     0
  9
$DIMBLK
  1

  9
$DIMASO
 70
     0
  9
$DIMSHO
 70
     0
  9
$DIMPOST
  1

  9
$DIMAPOST
  1

  9
$DIMALT
 70
     0
  9
$DIMALTD
 70
     2
  9
$DIMALTF
 40
25.399999999999999
  9
$DIMLFAC
 40
1.0
  9
$DIMTOFL
 70
     0
  9
$DIMTVP
 40
1.6000000000000001
  9
$DIMTIX
 70
     1
  9
$DIMSOXD
 70
     0
  9
$DIMSAH
 70
     0
  9
$DIMBLK1
  1

  9
$DIMBLK2
  1

  9
$DIMSTYLE
  2
STANDARD
  9
$DIMCLRD
 70
     0
  9
$DIMCLRE
 70
     0
  9
$DIMCLRT
 70
     0
  9
$DIMTFAC
 40
1.0
  9
$DIMGAP
 40
0.09
  9
$LUNITS
 70
     2
  9
$LUPREC
 70
     4
  9
$SKETCHINC
 40
0.1
  9
$FILLETRAD
 40
0.0
  9
$AUNITS
 70
     0
  9
$AUPREC
 70
     4
  9
$MENU
  1
E:\r13\win\SUPPORT\ACAD
  9
$ELEVATION
 40
0.0
  9
$PELEVATION
 40
0.0
  9
$THICKNESS
 40
0.0
  9
$LIMCHECK
 70
     0
  9
$BLIPMODE
 70
     0
  9
$CHAMFERA
 40
0.0
  9
$CHAMFERB
 40
0.0
  9
$SKPOLY
 70
     0
  9
$TDCREATE
 40
2449840.6560995369
  9
$TDUPDATE
 40
2456598.6601285189
  9
$TDINDWG
 40
0.0001128009
  9
$TDUSRTIMER
 40
0.0001128009
  9
$USRTIMER
 70
     1
  9
$ANGBASE
 50
0.0
  9
$ANGDIR
 70
     0
  9
$PDMODE
 70
     0
  9
$PDSIZE
 40
0.0
  9
$PLINEWID
 40
0.0
  9
$COORDS
 70
     1
  9
$SPLFRAME
 70
     0
  9
$SPLINETYPE
 70
     6
  9
$SPLINESEGS
 70
     8
  9
$ATTDIA
 70
     0
  9
$ATTREQ
 70
     1
  9
$HANDLING
 70
     1
  9
$HANDSEED
  5
2C7
  9
$SURFTAB1
 70
     6
  9
$SURFTAB2
 70
     6
  9
$SURFTYPE
 70
     6
  9
$SURFU
 70
     6
  9
$SURFV
 70
     6
  9
$UCSNAME
  2

  9
$UCSORG
 10
0.0
 20
0.0
 30
0.0
  9
$UCSXDIR
 10
1.0
 20
0.0
 30
0.0
  9
$UCSYDIR
 10
0.0
 20
1.0
 30
0.0
  9
$PUCSNAME
  2

  9
$PUCSORG
 10
0.0
 20
0.0
 30
0.0
  9
$PUCSXDIR
 10
1.0
 20
0.0
 30
0.0
  9
$PUCSYDIR
 10
0.0
 20
1.0
 30
0.0
  9
$USERI1
 70
     0
  9
$USERI2
 70
     1
  9
$USERI3
 70
     0
  9
$USERI4
 70
     0
  9
$USERI5
 70
     0
  9
$USERR1
 40
0.0
  9
$USERR2
 40
0.0
  9
$USERR3
 40
0.0
  9
$USERR4
 40
0.0
  9
$USERR5
 40
0.0
  9
$WORLDVIEW
 70
     1
  9
$SHADEDGE
 70
     3
  9
$SHADEDIF
 70
    70
  9
$TILEMODE
 70
     1
  9
$MAXACTVP
 70
    16
  9
$PLIMCHECK
 70
     0
  9
$PEXTMIN
 10
1.0000000000000000E+020
 20
1.0000000000000000E+020
 30
1.0000000000000000E+020
  9
$PEXTMAX
 10
-1.0000000000000000E+020
 20
-1.0000000000000000E+020
 30
-1.0000000000000000E+020
  9
$PLIMMIN
 10
0.0
 20
0.0
  9
$PLIMMAX
 10
12.0
 20
9.0
  9
$UNITMODE
 70
     0
  9
$VISRETAIN
 70
     0
  9
$PLINEGEN
 70
     0
  9
$PSLTSCALE
 70
     0
  0
ENDSEC
  0
SECTION
  2
TABLES
  0
TABLE
  2
VPORT
 70
     1
  0
VPORT
  2
*ACTIVE
 70
     0
 10
0.0
 20
0.0
 11
1.0
 21
1.0
 12
187.49427839065231
 22
169.9063198933564
 13
0.0
 23
0.0
 14
5.0
 24
5.0
 15
10.0
 25
10.0
 16
0.0
 26
0.0
 36
1.0
 17
0.0
 27
0.0
 37
0.0
 40
348.89937369551939
 41
1.831871345029239
 42
50.0
 43
0.0
 44
0.0
 50
0.0
 51
0.0
 71
     0
 72
   100
 73
     1
 74
     0
 75
     0
 76
     0
 77
     0
 78
     2
  0
ENDTAB
  0
TABLE
  2
LTYPE
 70
     3
  0
LTYPE
  2
CONTINUOUS
 70
     0
  3
Solid Line
 72
    65
 73
     0
 40
0.0
  0
LTYPE
  2
CENTER
 70
     0
  3
____ _ ____ _ ____ _ ____ _ ____ _ ____ _ ____
 72
    65
 73
     4
 40
2.0
 49
1.25
 49
-0.25
 49
0.25
 49
-0.25
  0
LTYPE
  2
PHANTOM2
 70
     0
  3
___ _ _ ___ _ _ ___ _ _ ___ _ _
 72
    65
 73
     6
 40
1.25
 49
0.625
 49
-0.125
 49
0.125
 49
-0.125
 49
0.125
 49
-0.125
  0
ENDTAB
  0
TABLE
  2
LAYER
 70
     3
  0
LAYER
  2
0
 70
     0
 62
     7
  6
CONTINUOUS
  0
LAYER
  2
1
 70
     0
 62
     1
  6
CENTER
  0
LAYER
  2
3
 70
     0
 62
     3
  6
CONTINUOUS
  0
ENDTAB
  0
TABLE
  2
STYLE
 70
     2
  0
STYLE
  2
STANDARD
 70
     0
 40
0.0
 41
1.0
 50
0.0
 71
     0
 42
5.0
  3
ROMANS
  4
BIGFONT
  0
STYLE
  2
STANDARD1
 70
     0
 40
0.0
 41
1.0
 50
0.0
 71
     0
 42
3.0
  3
txt
  4

  0
ENDTAB
  0
TABLE
  2
VIEW
 70
     1
  0
VIEW
  2
ALL
 70
     0
 40
270.0
 10
220.99159700000001
 20
135.0
 41
0.0
 11
0.0
 21
0.0
 31
1.0
 12
0.0
 22
0.0
 32
0.0
 42
0.0
 43
0.0
 44
0.0
 50
0.0
 71
     0
  0
ENDTAB
  0
TABLE
  2
UCS
 70
     0
  0
ENDTAB
  0
TABLE
  2
APPID
 70
     3
  0
APPID
  2
ACAD
 70
     0
  0
APPID
  2
ACAD_MLEADERVER
 70
     0
  0
APPID
  2
ACAD_NAV_VCDISPLAY
 70
     0
  0
ENDTAB
  0
TABLE
  2
DIMSTYLE
 70
     1
  0
DIMSTYLE
  2
STANDARD
 70
     0
  3

  4

  5

  6

  7

 40
1.0
 41
0.18
 42
0.0625
 43
0.38
 44
0.18
 45
0.0
 46
0.0
 47
0.0
 48
0.0
140
0.18
141
0.09
142
0.0
143
25.399999999999999
144
1.0
145
0.0
146
1.0
147
0.09
 71
     0
 72
     0
 73
     1
 74
     1
 75
     0
 76
     0
 77
     0
 78
     0
170
     0
171
     2
172
     0
173
     0
174
     0
175
     0
176
     0
177
     0
178
     0
  0
ENDTAB
  0
ENDSEC
  0
SECTION
  2
BLOCKS
  0
BLOCK
  8
0
  2
$MODEL_SPACE
 70
     0
 10
0.0
 20
0.0
 30
0.0
  3
$MODEL_SPACE
  1

  0
ENDBLK
  5
10B
  8
0
  0
BLOCK
 67
     1
  8
0
  2
$PAPER_SPACE
 70
     0
 10
0.0
 20
0.0
 30
0.0
  3
$PAPER_SPACE
  1

  0
ENDBLK
  5
109
 67
     1
  8
0
  0
BLOCK
  8
0
  2
STDGX5
 70
     0
 10
0.0
 20
0.0
 30
0.0
  3
STDGX5
  1

  0
ENDBLK
  5
29
  8
0
  0
ENDSEC
  0
SECTION
  2
ENTITIES
  0
LINE
  5
2A
  8
0
 10
228.49401399999999
 20
80.471582999999995
 30
0.0
 11
224.49401399999999
 21
80.57158299999999
 31
0.0
  0
LINE
  5
2B
  8
0
 10
228.49401399999999
 20
80.471582999999995
 30
0.0
 11
228.49401399999999
 21
76.671582999999998
 31
0.0
  0
LINE
  5
2C
  8
0
 10
224.49401399999999
 20
76.571582999999976
 30
0.0
 11
228.49401399999999
 21
76.671582999999998
 31
0.0
  0
LINE
  5
2D
  8
0
 10
224.49401399999999
 20
74.271582999999993
 30
0.0
 11
228.49401399999999
 21
74.371583000000001
 31
0.0
  0
LINE
  5
2E
  8
0
 10
228.49401399999999
 20
75.971582999999995
 30
0.0
 11
224.49401399999999
 21
76.07158299999999
 31
0.0
  0
LINE
  5
2F
  8
0
 10
228.49401399999999
 20
74.371583000000001
 30
0.0
 11
228.49401399999999
 21
75.971582999999995
 31
0.0
  0
LINE
  5
30
  8
0
 10
228.49401399999999
 20
85.57158299999999
 30
0.0
 11
228.49401399999999
 21
87.171582999999984
 31
0.0
  0
LINE
  5
31
  8
0
 10
228.49401399999999
 20
87.171582999999984
 30
0.0
 11
224.49401399999999
 21
87.271582999999993
 31
0.0
  0
LINE
  5
32
  8
0
 10
224.49401399999999
 20
85.471582999999995
 30
0.0
 11
228.49401399999999
 21
85.57158299999999
 31
0.0
  0
LINE
  5
33
  8
0
 10
224.49401399999999
 20
97.471582999999995
 30
0.0
 11
228.49401399999999
 21
97.571583000000004
 31
0.0
  0
LINE
  5
34
  8
0
 10
228.49401399999999
 20
99.171582999999998
 30
0.0
 11
224.49401399999999
 21
99.271583000000007
 31
0.0
  0
LINE
  5
35
  8
0
 10
228.49401399999999
 20
97.571583000000004
 30
0.0
 11
228.49401399999999
 21
99.171582999999998
 31
0.0
  0
LINE
  5
36
  8
0
 10
228.49401399999999
 20
96.271582999999993
 30
0.0
 11
224.49401399999999
 21
96.371583000000015
 31
0.0
  0
LINE
  5
37
  8
0
 10
228.49401399999999
 20
96.271582999999993
 30
0.0
 11
228.49401399999999
 21
95.771582999999978
 31
0.0
  0
LINE
  5
38
  8
0
 10
199.99401399999991
 20
67.771582999999993
 30
0.0
 11
200.49401399999999
 21
67.771582999999993
 31
0.0
  0
LINE
  5
39
  8
0
 10
199.99401399999991
 20
67.771582999999993
 30
0.0
 11
199.894014
 21
71.771582999999993
 31
0.0
  0
LINE
  5
3A
  8
0
 10
198.69401400000001
 20
67.771582999999993
 30
0.0
 11
197.09401399999999
 21
67.771582999999993
 31
0.0
  0
LINE
  5
3B
  8
0
 10
197.09401399999999
 20
67.771582999999993
 30
0.0
 11
196.99401399999999
 21
71.771582999999993
 31
0.0
  0
LINE
  5
3C
  8
0
 10
198.794014
 20
71.771582999999993
 30
0.0
 11
198.69401400000001
 21
67.771582999999993
 31
0.0
  0
LINE
  5
3D
  8
0
 10
210.794014
 20
71.771582999999993
 30
0.0
 11
210.69401400000001
 21
67.771582999999993
 31
0.0
  0
LINE
  5
3E
  8
0
 10
209.09401399999999
 20
67.771582999999993
 30
0.0
 11
208.99401399999999
 21
71.771582999999993
 31
0.0
  0
LINE
  5
3F
  8
0
 10
210.69401400000001
 20
67.771582999999993
 30
0.0
 11
209.09401399999999
 21
67.771582999999993
 31
0.0
  0
LINE
  5
40
  8
0
 10
221.894014
 20
67.771582999999993
 30
0.0
 11
220.294014
 21
67.771582999999993
 31
0.0
  0
LINE
  5
41
  8
0
 10
220.294014
 20
67.771582999999993
 30
0.0
 11
220.19401400000001
 21
71.771582999999993
 31
0.0
  0
LINE
  5
42
  8
0
 10
221.99401399999999
 20
71.771582999999993
 30
0.0
 11
221.894014
 21
67.771582999999993
 31
0.0
  0
LINE
  5
43
  8
0
 10
219.69401400000001
 20
71.771582999999993
 30
0.0
 11
219.59401399999999
 21
67.771582999999993
 31
0.0
  0
LINE
  5
44
  8
0
 10
215.794014
 20
67.771582999999993
 30
0.0
 11
219.59401399999999
 21
67.771582999999993
 31
0.0
  0
LINE
  5
45
  8
0
 10
215.794014
 20
67.771582999999993
 30
0.0
 11
215.69401400000001
 21
71.771582999999993
 31
0.0
  0
LINE
  5
46
  8
0
 10
224.49401399999999
 20
71.771582999999993
 30
0.0
 11
184.49401399999999
 21
71.771582999999993
 31
0.0
  0
LINE
  5
47
  8
0
 10
224.49401399999999
 20
111.77158300000001
 30
0.0
 11
224.49401399999999
 21
71.771582999999993
 31
0.0
  0
LINE
  5
48
  8
0
 10
236.294014
 20
95.771582999999978
 30
0.0
 11
236.294014
 21
87.771582999999993
 31
0.0
  0
LINE
  5
49
  8
0
 10
237.49401399999999
 20
88.971582999999995
 30
0.0
 11
236.294014
 21
87.771582999999993
 31
0.0
  0
LINE
  5
4A
  8
0
 10
236.294014
 20
95.771582999999978
 30
0.0
 11
237.49401399999999
 21
94.57158299999999
 31
0.0
  0
LINE
  5
4B
  8
3
 10
224.49401399999999
 20
95.095083000000002
 30
0.0
 11
236.97051400000001
 21
95.095083000000002
 31
0.0
  0
LINE
  5
4C
  8
3
 10
224.49401399999999
 20
88.448082999999997
 30
0.0
 11
236.97051400000001
 21
88.448082999999997
 31
0.0
  0
LINE
  5
4D
  8
0
 10
237.49401399999999
 20
94.57158299999999
 30
0.0
 11
237.49401399999999
 21
88.971582999999995
 31
0.0
  0
LINE
  5
4E
  8
0
 10
208.49401399999999
 20
59.971582999999988
 30
0.0
 11
200.49401399999999
 21
59.971582999999988
 31
0.0
  0
LINE
  5
4F
  8
0
 10
201.69401400000001
 20
58.771582999999993
 30
0.0
 11
200.49401399999999
 21
59.971582999999988
 31
0.0
  0
LINE
  5
50
  8
0
 10
208.49401399999999
 20
59.971582999999988
 30
0.0
 11
207.294014
 21
58.771582999999993
 31
0.0
  0
LINE
  5
51
  8
0
 10
208.49401399999999
 20
71.771582999999993
 30
0.0
 11
208.49401399999999
 21
59.971582999999988
 31
0.0
  0
LINE
  5
52
  8
3
 10
207.81751399999999
 20
71.771582999999993
 30
0.0
 11
207.81751399999999
 21
59.295082999999998
 31
0.0
  0
LINE
  5
53
  8
3
 10
201.170514
 20
71.771582999999993
 30
0.0
 11
201.170514
 21
59.295082999999998
 31
0.0
  0
LINE
  5
54
  8
0
 10
200.49401399999999
 20
71.771582999999993
 30
0.0
 11
200.49401399999999
 21
59.971582999999988
 31
0.0
  0
LINE
  5
55
  8
0
 10
207.294014
 20
58.771582999999993
 30
0.0
 11
201.69401400000001
 21
58.771582999999993
 31
0.0
  0
LINE
  5
56
  8
0
 10
224.49401399999999
 20
95.771582999999978
 30
0.0
 11
236.294014
 21
95.771582999999978
 31
0.0
  0
LINE
  5
57
  8
0
 10
224.49401399999999
 20
87.771582999999993
 30
0.0
 11
236.294014
 21
87.771582999999993
 31
0.0
  0
LINE
  5
58
  8
0
 10
224.49401399999999
 20
183.460432
 30
0.0
 11
236.294014
 21
183.460432
 31
0.0
  0
LINE
  5
59
  8
0
 10
224.49401399999999
 20
175.460432
 30
0.0
 11
236.294014
 21
175.460432
 31
0.0
  0
LINE
  5
5A
  8
0
 10
207.294014
 20
212.460432
 30
0.0
 11
201.69401400000001
 21
212.460432
 31
0.0
  0
LINE
  5
5B
  8
0
 10
200.49401399999999
 20
199.460432
 30
0.0
 11
200.49401399999999
 21
211.26043200000001
 31
0.0
  0
LINE
  5
5C
  8
3
 10
201.170514
 20
199.460432
 30
0.0
 11
201.170514
 21
211.93693200000001
 31
0.0
  0
LINE
  5
5D
  8
3
 10
207.81751399999999
 20
199.460432
 30
0.0
 11
207.81751399999999
 21
211.93693200000001
 31
0.0
  0
LINE
  5
5E
  8
0
 10
208.49401399999999
 20
199.460432
 30
0.0
 11
208.49401399999999
 21
211.26043200000001
 31
0.0
  0
LINE
  5
5F
  8
0
 10
208.49401399999999
 20
211.26043200000001
 30
0.0
 11
207.294014
 21
212.460432
 31
0.0
  0
LINE
  5
60
  8
0
 10
201.69401400000001
 20
212.460432
 30
0.0
 11
200.49401399999999
 21
211.26043200000001
 31
0.0
  0
LINE
  5
61
  8
0
 10
208.49401399999999
 20
211.26043200000001
 30
0.0
 11
200.49401399999999
 21
211.26043200000001
 31
0.0
  0
LINE
  5
62
  8
0
 10
237.49401399999999
 20
176.66043199999999
 30
0.0
 11
237.49401399999999
 21
182.26043200000001
 31
0.0
  0
LINE
  5
63
  8
3
 10
224.49401399999999
 20
182.78393199999999
 30
0.0
 11
236.97051400000001
 21
182.78393199999999
 31
0.0
  0
LINE
  5
64
  8
3
 10
224.49401399999999
 20
176.136932
 30
0.0
 11
236.97051400000001
 21
176.136932
 31
0.0
  0
LINE
  5
65
  8
0
 10
236.294014
 20
175.460432
 30
0.0
 11
237.49401399999999
 21
176.66043199999999
 31
0.0
  0
LINE
  5
66
  8
0
 10
237.49401399999999
 20
182.26043200000001
 30
0.0
 11
236.294014
 21
183.460432
 31
0.0
  0
LINE
  5
67
  8
0
 10
236.294014
 20
175.460432
 30
0.0
 11
236.294014
 21
183.460432
 31
0.0
  0
LINE
  5
68
  8
0
 10
224.49401399999999
 20
159.460432
 30
0.0
 11
224.49401399999999
 21
199.460432
 31
0.0
  0
LINE
  5
69
  8
0
 10
224.49401399999999
 20
199.460432
 30
0.0
 11
184.49401399999999
 21
199.460432
 31
0.0
  0
LINE
  5
6A
  8
0
 10
215.794014
 20
203.460432
 30
0.0
 11
215.69401400000001
 21
199.460432
 31
0.0
  0
LINE
  5
6B
  8
0
 10
215.794014
 20
203.460432
 30
0.0
 11
219.59401399999999
 21
203.460432
 31
0.0
  0
LINE
  5
6C
  8
0
 10
219.69401400000001
 20
199.460432
 30
0.0
 11
219.59401399999999
 21
203.460432
 31
0.0
  0
LINE
  5
6D
  8
0
 10
221.99401399999999
 20
199.460432
 30
0.0
 11
221.894014
 21
203.460432
 31
0.0
  0
LINE
  5
6E
  8
0
 10
220.294014
 20
203.460432
 30
0.0
 11
220.19401400000001
 21
199.460432
 31
0.0
  0
LINE
  5
6F
  8
0
 10
221.894014
 20
203.460432
 30
0.0
 11
220.294014
 21
203.460432
 31
0.0
  0
LINE
  5
70
  8
0
 10
210.69401400000001
 20
203.460432
 30
0.0
 11
209.09401399999999
 21
203.460432
 31
0.0
  0
LINE
  5
71
  8
0
 10
209.09401399999999
 20
203.460432
 30
0.0
 11
208.99401399999999
 21
199.460432
 31
0.0
  0
LINE
  5
72
  8
0
 10
210.794014
 20
199.460432
 30
0.0
 11
210.69401400000001
 21
203.460432
 31
0.0
  0
LINE
  5
73
  8
0
 10
198.794014
 20
199.460432
 30
0.0
 11
198.69401400000001
 21
203.460432
 31
0.0
  0
LINE
  5
74
  8
0
 10
197.09401399999999
 20
203.460432
 30
0.0
 11
196.99401399999999
 21
199.460432
 31
0.0
  0
LINE
  5
75
  8
0
 10
198.69401400000001
 20
203.460432
 30
0.0
 11
197.09401399999999
 21
203.460432
 31
0.0
  0
LINE
  5
76
  8
0
 10
199.99401399999991
 20
203.460432
 30
0.0
 11
199.894014
 21
199.460432
 31
0.0
  0
LINE
  5
77
  8
0
 10
199.99401399999991
 20
203.460432
 30
0.0
 11
200.49401399999999
 21
203.460432
 31
0.0
  0
LINE
  5
78
  8
0
 10
228.49401399999999
 20
174.960432
 30
0.0
 11
228.49401399999999
 21
175.460432
 31
0.0
  0
LINE
  5
79
  8
0
 10
228.49401399999999
 20
174.960432
 30
0.0
 11
224.49401399999999
 21
174.860432
 31
0.0
  0
LINE
  5
7A
  8
0
 10
228.49401399999999
 20
173.66043199999999
 30
0.0
 11
228.49401399999999
 21
172.06043199999999
 31
0.0
  0
LINE
  5
7B
  8
0
 10
228.49401399999999
 20
172.06043199999999
 30
0.0
 11
224.49401399999999
 21
171.960432
 31
0.0
  0
LINE
  5
7C
  8
0
 10
224.49401399999999
 20
173.76043200000001
 30
0.0
 11
228.49401399999999
 21
173.66043199999999
 31
0.0
  0
LINE
  5
7D
  8
0
 10
224.49401399999999
 20
185.76043200000001
 30
0.0
 11
228.49401399999999
 21
185.66043199999999
 31
0.0
  0
LINE
  5
7E
  8
0
 10
228.49401399999999
 20
184.06043199999999
 30
0.0
 11
224.49401399999999
 21
183.960432
 31
0.0
  0
LINE
  5
7F
  8
0
 10
228.49401399999999
 20
185.66043199999999
 30
0.0
 11
228.49401399999999
 21
184.06043199999999
 31
0.0
  0
LINE
  5
80
  8
0
 10
228.49401399999999
 20
196.860432
 30
0.0
 11
228.49401399999999
 21
195.26043200000001
 31
0.0
  0
LINE
  5
81
  8
0
 10
228.49401399999999
 20
195.26043200000001
 30
0.0
 11
224.49401399999999
 21
195.16043199999999
 31
0.0
  0
LINE
  5
82
  8
0
 10
224.49401399999999
 20
196.960432
 30
0.0
 11
228.49401399999999
 21
196.860432
 31
0.0
  0
LINE
  5
83
  8
0
 10
224.49401399999999
 20
194.66043199999999
 30
0.0
 11
228.49401399999999
 21
194.56043199999999
 31
0.0
  0
LINE
  5
84
  8
0
 10
228.49401399999999
 20
190.76043200000001
 30
0.0
 11
228.49401399999999
 21
194.56043199999999
 31
0.0
  0
LINE
  5
85
  8
0
 10
228.49401399999999
 20
190.76043200000001
 30
0.0
 11
224.49401399999999
 21
190.66043199999999
 31
0.0
  0
LINE
  5
8D
  8
0
 10
92.701700999999986
 20
87.771582999999993
 30
0.0
 11
80.901700999999989
 21
87.771582999999993
 31
0.0
  0
LINE
  5
8E
  8
0
 10
92.701700999999986
 20
95.771582999999978
 30
0.0
 11
80.901700999999989
 21
95.771582999999978
 31
0.0
  0
LINE
  5
8F
  8
0
 10
109.901701
 20
58.771582999999993
 30
0.0
 11
115.501701
 21
58.771582999999993
 31
0.0
  0
LINE
  5
90
  8
0
 10
116.701701
 20
71.771582999999993
 30
0.0
 11
116.701701
 21
59.971582999999988
 31
0.0
  0
LINE
  5
91
  8
3
 10
116.025201
 20
71.771582999999993
 30
0.0
 11
116.025201
 21
59.295082999999998
 31
0.0
  0
LINE
  5
92
  8
3
 10
109.378201
 20
71.771582999999993
 30
0.0
 11
109.378201
 21
59.295082999999998
 31
0.0
  0
LINE
  5
93
  8
0
 10
108.701701
 20
71.771582999999993
 30
0.0
 11
108.701701
 21
59.971582999999988
 31
0.0
  0
LINE
  5
94
  8
0
 10
108.701701
 20
59.971582999999988
 30
0.0
 11
109.901701
 21
58.771582999999993
 31
0.0
  0
LINE
  5
95
  8
0
 10
115.501701
 20
58.771582999999993
 30
0.0
 11
116.701701
 21
59.971582999999988
 31
0.0
  0
LINE
  5
96
  8
0
 10
108.701701
 20
59.971582999999988
 30
0.0
 11
116.701701
 21
59.971582999999988
 31
0.0
  0
LINE
  5
97
  8
0
 10
79.701701
 20
94.57158299999999
 30
0.0
 11
79.701701
 21
88.971582999999995
 31
0.0
  0
LINE
  5
98
  8
3
 10
92.701700999999986
 20
88.448082999999997
 30
0.0
 11
80.225200999999984
 21
88.448082999999997
 31
0.0
  0
LINE
  5
99
  8
3
 10
92.701700999999986
 20
95.095083000000002
 30
0.0
 11
80.225200999999984
 21
95.095083000000002
 31
0.0
  0
LINE
  5
9A
  8
0
 10
80.901700999999989
 20
95.771582999999978
 30
0.0
 11
79.701701
 21
94.57158299999999
 31
0.0
  0
LINE
  5
9B
  8
0
 10
79.701701
 20
88.971582999999995
 30
0.0
 11
80.901700999999989
 21
87.771582999999993
 31
0.0
  0
LINE
  5
9C
  8
0
 10
80.901700999999989
 20
95.771582999999978
 30
0.0
 11
80.901700999999989
 21
87.771582999999993
 31
0.0
  0
LINE
  5
9D
  8
0
 10
92.701700999999986
 20
111.77158300000001
 30
0.0
 11
92.701700999999986
 21
71.771582999999993
 31
0.0
  0
LINE
  5
9E
  8
0
 10
92.701700999999986
 20
71.771582999999993
 30
0.0
 11
132.70170100000001
 21
71.771582999999993
 31
0.0
  0
LINE
  5
9F
  8
0
 10
101.401701
 20
67.771582999999993
 30
0.0
 11
101.501701
 21
71.771582999999993
 31
0.0
  0
LINE
  5
A0
  8
0
 10
101.401701
 20
67.771582999999993
 30
0.0
 11
97.601701000000006
 21
67.771582999999993
 31
0.0
  0
LINE
  5
A1
  8
0
 10
97.501700999999997
 20
71.771582999999993
 30
0.0
 11
97.601701000000006
 21
67.771582999999993
 31
0.0
  0
LINE
  5
A2
  8
0
 10
95.201700999999986
 20
71.771582999999993
 30
0.0
 11
95.301700999999994
 21
67.771582999999993
 31
0.0
  0
LINE
  5
A3
  8
0
 10
96.901701000000017
 20
67.771582999999993
 30
0.0
 11
97.001701000000011
 21
71.771582999999993
 31
0.0
  0
LINE
  5
A4
  8
0
 10
95.301700999999994
 20
67.771582999999993
 30
0.0
 11
96.901701000000017
 21
67.771582999999993
 31
0.0
  0
LINE
  5
A5
  8
0
 10
106.501701
 20
67.771582999999993
 30
0.0
 11
108.10170100000001
 21
67.771582999999993
 31
0.0
  0
LINE
  5
A6
  8
0
 10
108.10170100000001
 20
67.771582999999993
 30
0.0
 11
108.201701
 21
71.771582999999993
 31
0.0
  0
LINE
  5
A7
  8
0
 10
106.401701
 20
71.771582999999993
 30
0.0
 11
106.501701
 21
67.771582999999993
 31
0.0
  0
LINE
  5
A8
  8
0
 10
118.401701
 20
71.771582999999993
 30
0.0
 11
118.501701
 21
67.771582999999993
 31
0.0
  0
LINE
  5
A9
  8
0
 10
120.10170100000001
 20
67.771582999999993
 30
0.0
 11
120.201701
 21
71.771582999999993
 31
0.0
  0
LINE
  5
AA
  8
0
 10
118.501701
 20
67.771582999999993
 30
0.0
 11
120.10170100000001
 21
67.771582999999993
 31
0.0
  0
LINE
  5
AB
  8
0
 10
117.201701
 20
67.771582999999993
 30
0.0
 11
117.30170099999999
 21
71.771582999999993
 31
0.0
  0
LINE
  5
AC
  8
0
 10
117.201701
 20
67.771582999999993
 30
0.0
 11
116.701701
 21
67.771582999999993
 31
0.0
  0
LINE
  5
AD
  8
0
 10
88.701701000000014
 20
96.271582999999993
 30
0.0
 11
88.701701000000014
 21
95.771582999999978
 31
0.0
  0
LINE
  5
AE
  8
0
 10
88.701701000000014
 20
96.271582999999993
 30
0.0
 11
92.701700999999986
 21
96.371583000000015
 31
0.0
  0
LINE
  5
AF
  8
0
 10
88.701701000000014
 20
97.571583000000004
 30
0.0
 11
88.701701000000014
 21
99.171582999999998
 31
0.0
  0
LINE
  5
B0
  8
0
 10
88.701701000000014
 20
99.171582999999998
 30
0.0
 11
92.701700999999986
 21
99.271583000000007
 31
0.0
  0
LINE
  5
B1
  8
0
 10
92.701700999999986
 20
97.471582999999995
 30
0.0
 11
88.701701000000014
 21
97.571583000000004
 31
0.0
  0
LINE
  5
B2
  8
0
 10
92.701700999999986
 20
85.471582999999995
 30
0.0
 11
88.701701000000014
 21
85.57158299999999
 31
0.0
  0
LINE
  5
B3
  8
0
 10
88.701701000000014
 20
87.171582999999984
 30
0.0
 11
92.701700999999986
 21
87.271582999999993
 31
0.0
  0
LINE
  5
B4
  8
0
 10
88.701701000000014
 20
85.57158299999999
 30
0.0
 11
88.701701000000014
 21
87.171582999999984
 31
0.0
  0
LINE
  5
B5
  8
0
 10
88.701701000000014
 20
74.371583000000001
 30
0.0
 11
88.701701000000014
 21
75.971582999999995
 31
0.0
  0
LINE
  5
B6
  8
0
 10
88.701701000000014
 20
75.971582999999995
 30
0.0
 11
92.701700999999986
 21
76.07158299999999
 31
0.0
  0
LINE
  5
B7
  8
0
 10
92.701700999999986
 20
74.271582999999993
 30
0.0
 11
88.701701000000014
 21
74.371583000000001
 31
0.0
  0
LINE
  5
B8
  8
0
 10
92.701700999999986
 20
76.571582999999976
 30
0.0
 11
88.701701000000014
 21
76.671582999999998
 31
0.0
  0
LINE
  5
B9
  8
0
 10
88.701701000000014
 20
80.471582999999995
 30
0.0
 11
88.701701000000014
 21
76.671582999999998
 31
0.0
  0
LINE
  5
BA
  8
0
 10
88.701701000000014
 20
80.471582999999995
 30
0.0
 11
92.701700999999986
 21
80.57158299999999
 31
0.0
  0
LINE
  5
BB
  8
1
 10
137.70170100000001
 20
91.771583000000007
 30
0.0
 11
74.701701
 21
91.771583000000007
 31
0.0
  0
LINE
  5
BC
  8
1
 10
112.701701
 20
116.77158300000001
 30
0.0
 11
112.701701
 21
53.771582999999993
 31
0.0
  0
INSERT
  5
BD
  8
0
  2
STDGX5
 10
0.0
 20
0.0
 30
0.0
  0
INSERT
  5
BE
  8
0
  2
STDGX5
 10
86.903397999999996
 20
187.009308
 30
0.0
  0
LINE
  5
C0
  8
0
 10
128.70170100000001
 20
111.77158300000001
 30
0.0
 11
92.701700999999986
 21
111.77158300000001
 31
0.0
  0
LINE
  5
C1
  8
0
 10
132.70170100000001
 20
71.771582999999993
 30
0.0
 11
132.70170100000001
 21
107.77158300000001
 31
0.0
  0
ARC
  5
C3
  8
0
 10
128.70170100000001
 20
107.77158300000001
 30
0.0
 40
4.0
 50
0.0
 51
90.0
  0
ARC
  5
C4
  8
0
 10
188.49401399999999
 20
107.77158300000001
 30
0.0
 40
4.0
 50
90.0
 51
180.0
  0
LINE
  5
C6
  8
0
 10
184.49401399999999
 20
71.771582999999993
 30
0.0
 11
184.49401399999999
 21
107.77158300000001
 31
0.0
  0
LINE
  5
C7
  8
1
 10
179.49401399999999
 20
91.771583000000007
 30
0.0
 11
242.49401399999999
 21
91.771583000000007
 31
0.0
  0
LINE
  5
C8
  8
1
 10
204.49401399999999
 20
116.77158300000001
 30
0.0
 11
204.49401399999999
 21
53.771582999999993
 31
0.0
  0
LINE
  5
C9
  8
0
 10
188.49401399999999
 20
111.77158300000001
 30
0.0
 11
224.49401399999999
 21
111.77158300000001
 31
0.0
  0
LINE
  5
CA
  8
0
 10
188.49401399999999
 20
159.460432
 30
0.0
 11
224.49401399999999
 21
159.460432
 31
0.0
  0
LINE
  5
CB
  8
0
 10
184.49401399999999
 20
199.460432
 30
0.0
 11
184.49401399999999
 21
163.460432
 31
0.0
  0
ARC
  5
CC
  8
0
 10
188.49401399999999
 20
163.460432
 30
0.0
 40
4.0
 50
180.0
 51
270.0
  0
LINE
  5
CD
  8
0
 10
198.794014
 20
199.460432
 30
0.0
 11
198.69401400000001
 21
203.460432
 31
0.0
  0
LINE
  5
CE
  8
0
 10
197.09401399999999
 20
203.460432
 30
0.0
 11
196.99401399999999
 21
199.460432
 31
0.0
  0
LINE
  5
CF
  8
0
 10
198.69401400000001
 20
203.460432
 30
0.0
 11
197.09401399999999
 21
203.460432
 31
0.0
  0
LINE
  5
D0
  8
0
 10
199.99401399999991
 20
203.460432
 30
0.0
 11
199.894014
 21
199.460432
 31
0.0
  0
LINE
  5
D1
  8
0
 10
199.99401399999991
 20
203.460432
 30
0.0
 11
200.49401399999999
 21
203.460432
 31
0.0
  0
LINE
  5
D2
  8
1
 10
179.49401399999999
 20
179.460432
 30
0.0
 11
242.49401399999999
 21
179.460432
 31
0.0
  0
LINE
  5
D3
  8
1
 10
204.49401399999999
 20
154.460432
 30
0.0
 11
204.49401399999999
 21
217.460432
 31
0.0
  0
TEXT
  5
230
  8
0
 62
     3
 10
0.0
 20
0.0
 30
0.0
 40
10.0
  1
EJUS4040
  7
STANDARD1
  0
ENDSEC
  0
EOF
