  0
SECTION
  2
HEADER
  9
$ACADVER
  1
AC1009
  9
$INSBASE
 10
0.0
 20
0.0
 30
0.0
  9
$EXTMIN
 10
0.0
 20
-2.960436562073669
 30
0.0
  9
$EXTMAX
 10
284.41465649399328
 20
222.17484504125309
 30
0.0
  9
$LIMMIN
 10
0.0
 20
0.0
  9
$LIMMAX
 10
270.0
 20
175.0
  9
$ORTHOMODE
 70
     0
  9
$REGENMODE
 70
     1
  9
$FILLMODE
 70
     1
  9
$QTEXTMODE
 70
     0
  9
$MIRRTEXT
 70
     0
  9
$DRAGMODE
 70
     2
  9
$LTSCALE
 40
5.0
  9
$OSMODE
 70
  3071
  9
$ATTMODE
 70
     1
  9
$TEXTSIZE
 40
0.2
  9
$TRACEWID
 40
0.05
  9
$TEXTSTYLE
  7
STANDARD
  9
$CLAYER
  8
0
  9
$CELTYPE
  6
BYLAYER
  9
$CECOLOR
 62
   256
  9
$DIMSCALE
 40
1.0
  9
$DIMASZ
 40
3.0
  9
$DIMEXO
 40
2.0
  9
$DIMDLI
 40
0.38
  9
$DIMRND
 40
0.0
  9
$DIMDLE
 40
0.0
  9
$DIMEXE
 40
2.0
  9
$DIMTP
 40
0.0
  9
$DIMTM
 40
0.0
  9
$DIMTXT
 40
3.0
  9
$DIMCEN
 40
0.0
  9
$DIMTSZ
 40
0.0
  9
$DIMTOL
 70
     0
  9
$DIMLIM
 70
     0
  9
$DIMTIH
 70
     0
  9
$DIMTOH
 70
     0
  9
$DIMSE1
 70
     0
  9
$DIMSE2
 70
     0
  9
$DIMTAD
 70
     1
  9
$DIMZIN
 70
     0
  9
$DIMBLK
  1

  9
$DIMASO
 70
     0
  9
$DIMSHO
 70
     0
  9
$DIMPOST
  1

  9
$DIMAPOST
  1

  9
$DIMALT
 70
     0
  9
$DIMALTD
 70
     2
  9
$DIMALTF
 40
25.399999999999999
  9
$DIMLFAC
 40
1.0
  9
$DIMTOFL
 70
     1
  9
$DIMTVP
 40
1.6000000000000001
  9
$DIMTIX
 70
     1
  9
$DIMSOXD
 70
     0
  9
$DIMSAH
 70
     0
  9
$DIMBLK1
  1

  9
$DIMBLK2
  1

  9
$DIMSTYLE
  2
STANDARD
  9
$DIMCLRD
 70
     0
  9
$DIMCLRE
 70
     0
  9
$DIMCLRT
 70
     0
  9
$DIMTFAC
 40
1.0
  9
$DIMGAP
 40
0.09
  9
$LUNITS
 70
     2
  9
$LUPREC
 70
     4
  9
$SKETCHINC
 40
0.1
  9
$FILLETRAD
 40
0.0
  9
$AUNITS
 70
     1
  9
$AUPREC
 70
     4
  9
$MENU
  1
E:\r13\win\SUPPORT\ACAD
  9
$ELEVATION
 40
0.0
  9
$PELEVATION
 40
0.0
  9
$THICKNESS
 40
0.0
  9
$LIMCHECK
 70
     0
  9
$BLIPMODE
 70
     0
  9
$CHAMFERA
 40
0.0
  9
$CHAMFERB
 40
0.0
  9
$SKPOLY
 70
     0
  9
$TDCREATE
 40
2449839.7803587969
  9
$TDUPDATE
 40
2456598.6778631359
  9
$TDINDWG
 40
0.0703016088
  9
$TDUSRTIMER
 40
0.0703016088
  9
$USRTIMER
 70
     1
  9
$ANGBASE
 50
0.0
  9
$ANGDIR
 70
     0
  9
$PDMODE
 70
     0
  9
$PDSIZE
 40
0.0
  9
$PLINEWID
 40
0.0
  9
$COORDS
 70
     1
  9
$SPLFRAME
 70
     0
  9
$SPLINETYPE
 70
     6
  9
$SPLINESEGS
 70
     8
  9
$ATTDIA
 70
     0
  9
$ATTREQ
 70
     1
  9
$HANDLING
 70
     1
  9
$HANDSEED
  5
DC7
  9
$SURFTAB1
 70
     6
  9
$SURFTAB2
 70
     6
  9
$SURFTYPE
 70
     6
  9
$SURFU
 70
     6
  9
$SURFV
 70
     6
  9
$UCSNAME
  2

  9
$UCSORG
 10
0.0
 20
0.0
 30
0.0
  9
$UCSXDIR
 10
1.0
 20
0.0
 30
0.0
  9
$UCSYDIR
 10
0.0
 20
1.0
 30
0.0
  9
$PUCSNAME
  2

  9
$PUCSORG
 10
0.0
 20
0.0
 30
0.0
  9
$PUCSXDIR
 10
1.0
 20
0.0
 30
0.0
  9
$PUCSYDIR
 10
0.0
 20
1.0
 30
0.0
  9
$USERI1
 70
     0
  9
$USERI2
 70
     1
  9
$USERI3
 70
     1
  9
$USERI4
 70
     0
  9
$USERI5
 70
     0
  9
$USERR1
 40
0.0
  9
$USERR2
 40
0.0
  9
$USERR3
 40
0.0
  9
$USERR4
 40
0.0
  9
$USERR5
 40
0.0
  9
$WORLDVIEW
 70
     1
  9
$SHADEDGE
 70
     3
  9
$SHADEDIF
 70
    70
  9
$TILEMODE
 70
     1
  9
$MAXACTVP
 70
    16
  9
$PLIMCHECK
 70
     0
  9
$PEXTMIN
 10
1.0000000000000000E+020
 20
1.0000000000000000E+020
 30
1.0000000000000000E+020
  9
$PEXTMAX
 10
-1.0000000000000000E+020
 20
-1.0000000000000000E+020
 30
-1.0000000000000000E+020
  9
$PLIMMIN
 10
0.0
 20
0.0
  9
$PLIMMAX
 10
12.0
 20
9.0
  9
$UNITMODE
 70
     0
  9
$VISRETAIN
 70
     0
  9
$PLINEGEN
 70
     0
  9
$PSLTSCALE
 70
     0
  0
ENDSEC
  0
SECTION
  2
TABLES
  0
TABLE
  2
VPORT
 70
     1
  0
VPORT
  2
*ACTIVE
 70
     0
 10
0.0
 20
0.0
 11
1.0
 21
1.0
 12
142.20732890920121
 22
139.6223957016916
 13
0.0
 23
0.0
 14
10.0
 24
10.0
 15
10.0
 25
10.0
 16
0.0
 26
0.0
 36
1.0
 17
0.0
 27
0.0
 37
0.0
 40
287.7790450132108
 41
1.8318713450292401
 42
50.0
 43
0.0
 44
0.0
 50
0.0
 51
0.0
 71
     0
 72
   500
 73
     1
 74
     0
 75
     0
 76
     0
 77
     0
 78
     2
  0
ENDTAB
  0
TABLE
  2
LTYPE
 70
     3
  0
LTYPE
  2
CONTINUOUS
 70
     0
  3
Solid Line
 72
    65
 73
     0
 40
0.0
  0
LTYPE
  2
CENTER
 70
     0
  3
____ _ ____ _ ____ _ ____ _ ____ _ ____ _ ____
 72
    65
 73
     4
 40
2.0
 49
1.25
 49
-0.25
 49
0.25
 49
-0.25
  0
LTYPE
  2
PHANTOM2
 70
     0
  3
Phantom (.5x) ___ _ _ ___ _ _ ___ _ _ ___ _ _
 72
    65
 73
     6
 40
1.25
 49
0.625
 49
-0.125
 49
0.125
 49
-0.125
 49
0.125
 49
-0.125
  0
ENDTAB
  0
TABLE
  2
LAYER
 70
     4
  0
LAYER
  2
0
 70
     0
 62
     7
  6
CONTINUOUS
  0
LAYER
  2
1
 70
     0
 62
     1
  6
CENTER
  0
LAYER
  2
5
 70
     0
 62
     3
  6
PHANTOM2
  0
LAYER
  2
3
 70
     0
 62
     3
  6
CONTINUOUS
  0
ENDTAB
  0
TABLE
  2
STYLE
 70
     2
  0
STYLE
  2
STANDARD
 70
     0
 40
0.0
 41
1.0
 50
0.0
 71
     0
 42
0.2
  3
TXT
  4
BIGFONT
  0
STYLE
  2
STANDARD1
 70
     0
 40
0.0
 41
1.0
 50
0.0
 71
     0
 42
3.0
  3
txt
  4

  0
ENDTAB
  0
TABLE
  2
VIEW
 70
     1
  0
VIEW
  2
ALL
 70
     0
 40
179.5384664489153
 10
135.0
 20
89.769233224457665
 41
0.0
 11
0.0
 21
0.0
 31
1.0
 12
0.0
 22
0.0
 32
0.0
 42
0.0
 43
0.0
 44
0.0
 50
0.0
 71
     0
  0
ENDTAB
  0
TABLE
  2
UCS
 70
     0
  0
ENDTAB
  0
TABLE
  2
APPID
 70
     6
  0
APPID
  2
ACAD
 70
     0
  0
APPID
  2
GENIUS_GENODEF_13
 70
     0
  0
APPID
  2
GENIUS_GENOBJ-N-FIL_13
 70
     0
  0
APPID
  2
GENIUS_GENOREF_13
 70
     0
  0
APPID
  2
ACAD_MLEADERVER
 70
     0
  0
APPID
  2
ACAD_NAV_VCDISPLAY
 70
     0
  0
ENDTAB
  0
TABLE
  2
DIMSTYLE
 70
     1
  0
DIMSTYLE
  2
STANDARD
 70
     0
  3

  4

  5

  6

  7

 40
1.0
 41
0.18
 42
0.0625
 43
0.38
 44
0.18
 45
0.0
 46
0.0
 47
0.0
 48
0.0
140
0.18
141
0.09
142
0.0
143
25.399999999999999
144
1.0
145
0.0
146
1.0
147
0.09
 71
     0
 72
     0
 73
     1
 74
     1
 75
     0
 76
     0
 77
     0
 78
     0
170
     0
171
     2
172
     0
173
     0
174
     0
175
     0
176
     0
177
     0
178
     0
  0
ENDTAB
  0
ENDSEC
  0
SECTION
  2
BLOCKS
  0
BLOCK
  8
0
  2
$MODEL_SPACE
 70
     0
 10
0.0
 20
0.0
 30
0.0
  3
$MODEL_SPACE
  1

  0
ENDBLK
  5
522
  8
0
  0
BLOCK
 67
     1
  8
0
  2
$PAPER_SPACE
 70
     0
 10
0.0
 20
0.0
 30
0.0
  3
$PAPER_SPACE
  1

  0
ENDBLK
  5
520
 67
     1
  8
0
  0
ENDSEC
  0
SECTION
  2
ENTITIES
  0
LINE
  5
A7B
  8
0
 10
199.91465649399379
 20
205.52443452011241
 30
0.0
 11
201.85558591446309
 21
197.55650892477391
 31
0.0
  0
LINE
  5
A7C
  8
0
 10
199.91465649399379
 20
208.82525556239381
 30
0.0
 11
201.85558591446309
 21
216.79318115773231
 31
0.0
  0
LINE
  5
A7D
  8
0
 10
199.91465649399379
 20
205.52443452011241
 30
0.0
 11
199.91465649399379
 21
208.82525556239381
 31
0.0
  0
ARC
  5
A7E
  8
0
 10
203.48687800336231
 20
197.6748450412538
 30
0.0
 40
0.5
 50
270.00000000000648
 51
346.30330705665602
  0
ARC
  5
A7F
  8
0
 10
203.48687800336231
 20
216.67484504125261
 30
0.0
 40
0.5
 50
13.696692943343949
 51
89.999999999993491
  0
LINE
  5
A80
  8
3
 10
205.91465649399379
 20
147.274845041253
 30
0.0
 11
205.91465649399379
 21
127.1793677687854
 31
0.0
  0
ARC
  5
A81
  8
0
 10
196.38065649399391
 20
127.67484504125321
 30
0.0
 40
0.5
 50
158.72499999999721
 51
270.0
  0
LINE
  5
A82
  8
0
 10
195.91465649399379
 20
146.07484504125321
 30
0.0
 11
195.91465649399379
 21
128.2748450412532
 31
0.0
  0
LINE
  5
A83
  8
0
 10
195.91465649399379
 20
146.67484504125321
 30
0.0
 11
195.91465649399379
 21
127.85684504125329
 31
0.0
  0
LINE
  5
A84
  8
0
 10
201.97565649399371
 20
137.9148450412533
 30
0.0
 11
199.91465649399379
 21
146.48384504125329
 31
0.0
  0
LINE
  5
A85
  8
0
 10
203.85365649399381
 20
137.9148450412533
 30
0.0
 11
205.91465649399379
 21
146.48384504125329
 31
0.0
  0
LINE
  5
A86
  8
0
 10
201.9486564939937
 20
138.14084504125319
 30
0.0
 11
201.9486564939937
 21
169.17484504125321
 31
0.0
  0
LINE
  5
A87
  8
0
 10
203.88065649399391
 20
138.14084504125319
 30
0.0
 11
203.88065649399391
 21
168.7188450412533
 31
0.0
  0
LINE
  5
A88
  8
0
 10
205.91465649399379
 20
157.1828450412531
 30
0.0
 11
205.91465649399379
 21
147.274845041253
 31
0.0
  0
LINE
  5
A89
  8
0
 10
209.41465649399379
 20
129.38384504125329
 30
0.0
 11
209.41465649399379
 21
144.9658450412532
 31
0.0
  0
LINE
  5
A8A
  8
0
 10
196.38065649399391
 20
127.17484504125321
 30
0.0
 11
205.81965649399379
 21
127.17484504125321
 31
0.0
  0
LINE
  5
A8B
  8
0
 10
206.3196564939937
 20
127.30884504125321
 30
0.0
 11
209.16465649399379
 21
128.9508450412531
 31
0.0
  0
ARC
  5
A8C
  8
0
 10
205.81965649399379
 20
128.17484504125321
 30
0.0
 40
1.0
 50
270.0
 51
300.00000000000051
  0
ARC
  5
A8D
  8
0
 10
208.91465649399379
 20
129.38384504125329
 30
0.0
 40
0.5
 50
300.00000000000051
 51
0.0
  0
ARC
  5
A8E
  8
0
 10
202.91465649399379
 20
138.14084504125319
 30
0.0
 40
0.965926
 50
193.52200000000141
 51
346.47799999999847
  0
LINE
  5
A8F
  8
0
 10
203.8726564939937
 20
168.7618450412532
 30
0.0
 11
205.91465649399379
 21
157.1828450412531
 31
0.0
  0
LINE
  5
A90
  8
0
 10
199.91465649399379
 20
146.48384504125329
 30
0.0
 11
199.91465649399379
 21
168.67484504125321
 31
0.0
  0
LINE
  5
A91
  8
0
 10
205.91465649399379
 20
151.1618450412532
 30
0.0
 11
209.34765649399381
 21
145.2158450412532
 31
0.0
  0
LINE
  5
A92
  8
0
 10
205.91465649399379
 20
147.2748450412532
 30
0.0
 11
209.16465649399379
 21
145.3988450412532
 31
0.0
  0
ARC
  5
A93
  8
0
 10
208.91465649399379
 20
144.9658450412532
 30
0.0
 40
0.5
 50
0.0
 51
59.99999999999946
  0
ARC
  5
A94
  8
0
 10
196.41465649399379
 20
146.67484504125321
 30
0.0
 40
0.5
 50
90.0
 51
180.0
  0
LINE
  5
A95
  8
0
 10
196.41465649399379
 20
147.17484504125321
 30
0.0
 11
199.91465649399379
 21
147.17484504125321
 31
0.0
  0
LINE
  5
A96
  8
0
 10
203.38065649399391
 20
169.17484504125321
 30
0.0
 11
200.41465649399379
 21
169.17484504125321
 31
0.0
  0
ARC
  5
A97
  8
0
 10
203.38065649399391
 20
168.67484504125321
 30
0.0
 40
0.5
 50
0.0
 51
90.0
  0
ARC
  5
A98
  8
0
 10
200.41465649399379
 20
168.67484504125321
 30
0.0
 40
0.5
 50
90.0
 51
179.99999195649951
  0
LINE
  5
A99
  8
0
 10
194.91465649399379
 20
127.2748450412532
 30
0.0
 11
195.91465649399379
 21
128.2748450412532
 31
0.0
  0
LINE
  5
A9A
  8
0
 10
194.91465649399379
 20
147.07484504125321
 30
0.0
 11
195.91465649399379
 21
146.07484504125321
 31
0.0
  0
LINE
  5
A9B
  8
1
 10
142.41465649399379
 20
137.17484504125321
 30
0.0
 11
214.4145564939941
 21
137.17484504125329
 31
0.0
  0
LINE
  5
A9C
  8
0
 10
180.0456564939939
 20
124.17484504125321
 30
0.0
 11
180.0456564939939
 21
150.17484504125321
 31
0.0
  0
LINE
  5
A9D
  8
0
 10
179.0456564939939
 20
150.17484504125321
 30
0.0
 11
179.0456564939939
 21
124.17484504125321
 31
0.0
  0
LINE
  5
A9E
  8
0
 10
194.91465649399379
 20
147.07484504125321
 30
0.0
 11
194.91465649399379
 21
127.2748450412532
 31
0.0
  0
LINE
  5
A9F
  8
0
 10
174.61465649399361
 20
152.17484504125309
 30
0.0
 11
174.61465649399381
 21
122.17484504125321
 31
0.0
  0
LINE
  5
AA0
  8
0
 10
175.9146564939937
 20
123.17484504125321
 30
0.0
 11
175.9146564939937
 21
151.17484504125321
 31
0.0
  0
LINE
  5
AA1
  8
0
 10
183.5646564939936
 20
151.90084504125321
 30
0.0
 11
183.5646564939936
 21
122.44884504125331
 31
0.0
  0
LINE
  5
AA2
  8
0
 10
189.0646564939936
 20
123.6648450412532
 30
0.0
 11
189.0646564939936
 21
150.6848450412532
 31
0.0
  0
ARC
  5
AA3
  8
0
 10
163.15165649399361
 20
137.17484504125321
 30
0.0
 40
25.912500000000001
 50
342.49500000000057
 51
17.504999999999441
  0
LINE
  5
AA4
  8
0
 10
164.91465649399379
 20
151.87484504125311
 30
0.0
 11
164.91465649399379
 21
117.67484504125321
 31
0.0
  0
LINE
  5
AA5
  8
0
 10
175.9146564939937
 20
135.3748450412532
 30
0.0
 11
179.0456564939939
 21
135.3748450412532
 31
0.0
  0
LINE
  5
AA6
  8
3
 10
176.91465649399379
 20
127.2748450412532
 30
0.0
 11
178.2566564939936
 21
128.04984504125321
 31
0.0
  0
LINE
  5
AA7
  8
0
 10
179.0456564939939
 20
127.2748450412532
 30
0.0
 11
175.9146564939937
 21
127.2748450412532
 31
0.0
  0
ARC
  5
AA8
  8
0
 10
182.13565649399379
 20
125.4838450412533
 30
0.0
 40
6.9281100000000002
 50
0.0
 51
34.228999999999957
  0
LINE
  5
AA9
  8
0
 10
184.0646564939936
 20
121.5868450412532
 30
0.0
 11
187.8636564939936
 21
121.5868450412532
 31
0.0
  0
LINE
  5
AAA
  8
0
 10
187.8636564939936
 20
121.5868450412532
 30
0.0
 11
189.0646564939936
 21
123.6648450412532
 31
0.0
  0
LINE
  5
AAB
  8
0
 10
184.0646564939936
 20
121.5868450412532
 30
0.0
 11
183.5646564939936
 21
122.4528450412532
 31
0.0
  0
LINE
  5
AAC
  8
0
 10
179.0456564939939
 20
124.17484504125321
 30
0.0
 11
180.0456564939939
 21
124.17484504125321
 31
0.0
  0
LINE
  5
AAD
  8
0
 10
184.0646564939936
 20
129.3808450412532
 30
0.0
 11
187.8636564939936
 21
129.3808450412532
 31
0.0
  0
LINE
  5
AAE
  8
0
 10
192.41465649399399
 20
147.07484504125321
 30
0.0
 11
192.41465649399379
 21
127.2748450412532
 31
0.0
  0
LINE
  5
AAF
  8
3
 10
189.0646564939936
 20
128.04984504125321
 30
0.0
 11
191.6396564939939
 21
128.04984504125321
 31
0.0
  0
LINE
  5
AB0
  8
0
 10
194.91465649399379
 20
127.2748450412532
 30
0.0
 11
189.0646564939936
 21
127.2748450412532
 31
0.0
  0
LINE
  5
AB1
  8
3
 10
191.6396564939939
 20
128.04984504125321
 30
0.0
 11
192.41465649399379
 21
127.2748450412532
 31
0.0
  0
LINE
  5
AB2
  8
0
 10
189.0646564939936
 20
135.3748450412532
 30
0.0
 11
192.41465649399399
 21
135.3748450412532
 31
0.0
  0
LINE
  5
AB3
  8
3
 10
180.0456564939939
 20
128.04984504125321
 30
0.0
 11
183.5646564939936
 21
128.04984504125321
 31
0.0
  0
LINE
  5
AB4
  8
0
 10
183.5646564939936
 20
127.2748450412532
 30
0.0
 11
180.0456564939939
 21
127.2748450412532
 31
0.0
  0
ARC
  5
AB5
  8
0
 10
189.79265649399369
 20
125.4838450412533
 30
0.0
 40
6.9281100000000002
 50
145.77060000000051
 51
154.02199999999829
  0
ARC
  5
AB6
  8
0
 10
208.77665649399361
 20
137.17484504125321
 30
0.0
 40
25.912500000000001
 50
193.3480000000028
 51
197.5049999999994
  0
LINE
  5
AB7
  8
3
 10
178.2566564939936
 20
128.04984504125321
 30
0.0
 11
179.0456564939939
 21
128.04984504125321
 31
0.0
  0
LINE
  5
AB8
  8
0
 10
180.0456564939939
 20
135.3748450412532
 30
0.0
 11
183.5646564939936
 21
135.3748450412532
 31
0.0
  0
LINE
  5
AB9
  8
0
 10
169.61465649399361
 20
120.9748450412533
 30
0.0
 11
165.21465649399369
 21
120.9748450412533
 31
0.0
  0
LINE
  5
ABA
  8
0
 10
165.41465649399379
 20
117.17484504125311
 30
0.0
 11
169.41465649399379
 21
117.17484504125311
 31
0.0
  0
ARC
  5
ABB
  8
0
 10
169.41465649399379
 20
117.67484504125321
 30
0.0
 40
0.5
 50
270.0
 51
0.0
  0
LINE
  5
ABC
  8
0
 10
174.61465649399381
 20
122.17484504125321
 30
0.0
 11
170.21465649399369
 21
122.17484504125321
 31
0.0
  0
LINE
  5
ABD
  8
0
 10
174.61465649399381
 20
123.17484504125321
 30
0.0
 11
175.9146564939937
 21
123.17484504125321
 31
0.0
  0
ARC
  5
ABE
  8
0
 10
170.21465649399369
 20
122.4748450412532
 30
0.0
 40
0.3
 50
180.0
 51
270.0
  0
ARC
  5
ABF
  8
0
 10
169.61465649399361
 20
121.2748450412532
 30
0.0
 40
0.3
 50
270.0
 51
0.0
  0
ARC
  5
AC0
  8
0
 10
165.41465649399379
 20
117.67484504125321
 30
0.0
 40
0.5
 50
180.0
 51
270.0
  0
ARC
  5
AC1
  8
0
 10
165.21465649399369
 20
121.2748450412532
 30
0.0
 40
0.3
 50
180.0
 51
270.0
  0
ARC
  5
AC2
  8
0
 10
167.41465649399379
 20
137.17484504125321
 30
0.0
 40
2.5
 50
0.0
 51
90.0
  0
CIRCLE
  5
AC3
  8
0
 10
167.41465649399379
 20
137.17484504125321
 30
0.0
 40
1.0
  0
LINE
  5
AC4
  8
0
 10
176.91465649399379
 20
135.3748450412532
 30
0.0
 11
176.91465649399379
 21
127.2748450412532
 31
0.0
  0
LINE
  5
AC5
  8
0
 10
175.9146564939937
 20
138.9748450412533
 30
0.0
 11
179.0456564939939
 21
138.9748450412533
 31
0.0
  0
LINE
  5
AC6
  8
3
 10
176.91465649399379
 20
147.07484504125321
 30
0.0
 11
178.2566564939936
 21
146.29984504125329
 31
0.0
  0
LINE
  5
AC7
  8
0
 10
175.9146564939937
 20
147.07484504125321
 30
0.0
 11
179.0456564939939
 21
147.07484504125321
 31
0.0
  0
LINE
  5
AC8
  8
0
 10
187.8636564939936
 20
152.76384504125321
 30
0.0
 11
189.0646564939936
 21
150.6848450412532
 31
0.0
  0
LINE
  5
AC9
  8
0
 10
184.0646564939936
 20
144.9688450412533
 30
0.0
 11
187.8636564939936
 21
144.9688450412533
 31
0.0
  0
ARC
  5
ACA
  8
0
 10
182.13565649399379
 20
148.86584504125321
 30
0.0
 40
6.9281100000000002
 50
325.77100000000002
 51
0.0
  0
LINE
  5
ACB
  8
0
 10
189.0646564939936
 20
138.9748450412533
 30
0.0
 11
192.41465649399399
 21
138.9748450412533
 31
0.0
  0
LINE
  5
ACC
  8
3
 10
189.0646564939936
 20
146.29984504125329
 30
0.0
 11
191.6396564939939
 21
146.29984504125329
 31
0.0
  0
LINE
  5
ACD
  8
0
 10
189.0646564939936
 20
147.07484504125321
 30
0.0
 11
194.91465649399379
 21
147.07484504125321
 31
0.0
  0
LINE
  5
ACE
  8
3
 10
191.6396564939939
 20
146.29984504125329
 30
0.0
 11
192.41465649399379
 21
147.07484504125321
 31
0.0
  0
ARC
  5
ACF
  8
0
 10
208.77665649399361
 20
137.17484504125321
 30
0.0
 40
25.912500000000001
 50
162.49490000000151
 51
166.6520000000003
  0
LINE
  5
AD0
  8
0
 10
180.0456564939939
 20
138.9748450412533
 30
0.0
 11
183.5646564939936
 21
138.9748450412533
 31
0.0
  0
LINE
  5
AD1
  8
3
 10
180.0456564939939
 20
146.29984504125329
 30
0.0
 11
183.5646564939936
 21
146.29984504125329
 31
0.0
  0
LINE
  5
AD2
  8
0
 10
180.0456564939939
 20
147.07484504125321
 30
0.0
 11
183.5646564939936
 21
147.07484504125321
 31
0.0
  0
ARC
  5
AD3
  8
0
 10
189.79265649399369
 20
148.86584504125321
 30
0.0
 40
6.9281100000000002
 50
205.97800000000171
 51
214.22900000000271
  0
LINE
  5
AD4
  8
0
 10
180.0456564939939
 20
150.17484504125321
 30
0.0
 11
179.0456564939939
 21
150.17484504125321
 31
0.0
  0
LINE
  5
AD5
  8
3
 10
178.2566564939936
 20
146.29984504125329
 30
0.0
 11
179.0456564939939
 21
146.29984504125329
 31
0.0
  0
LINE
  5
AD6
  8
0
 10
184.0646564939936
 20
152.76384504125321
 30
0.0
 11
187.8636564939936
 21
152.76384504125321
 31
0.0
  0
LINE
  5
AD7
  8
0
 10
184.0646564939936
 20
152.76384504125321
 30
0.0
 11
183.5646564939936
 21
151.89784504125311
 31
0.0
  0
LINE
  5
AD8
  8
0
 10
166.52565649399361
 20
140.68584504125309
 30
0.0
 11
168.30365649399391
 21
140.68584504125309
 31
0.0
  0
LINE
  5
AD9
  8
0
 10
176.91465649399379
 20
147.07484504125321
 30
0.0
 11
176.91465649399379
 21
138.9748450412533
 31
0.0
  0
LINE
  5
ADA
  8
0
 10
169.31465649399391
 20
139.67484504125321
 30
0.0
 11
168.30365649399391
 21
140.68584504125309
 31
0.0
  0
LINE
  5
ADB
  8
0
 10
169.31465649399391
 20
139.67484504125321
 30
0.0
 11
169.41465649399379
 21
139.67484504125321
 31
0.0
  0
ARC
  5
ADC
  8
0
 10
169.41465649399379
 20
139.17484504125321
 30
0.0
 40
0.5
 50
0.0
 51
90.0
  0
LINE
  5
ADD
  8
0
 10
165.5146564939937
 20
139.67484504125321
 30
0.0
 11
166.52565649399361
 21
140.68584504125309
 31
0.0
  0
LINE
  5
ADE
  8
0
 10
164.91465649399379
 20
139.67484504125321
 30
0.0
 11
165.5146564939937
 21
139.67484504125321
 31
0.0
  0
LINE
  5
ADF
  8
0
 10
167.41465649399379
 20
139.67484504125321
 30
0.0
 11
165.41465649399379
 21
139.67484504125321
 31
0.0
  0
LINE
  5
AE0
  8
0
 10
174.61465649399381
 20
152.17484504125321
 30
0.0
 11
165.21465649399369
 21
152.17484504125321
 31
0.0
  0
LINE
  5
AE1
  8
0
 10
174.61465649399381
 20
151.17484504125321
 30
0.0
 11
175.9146564939937
 21
151.17484504125321
 31
0.0
  0
ARC
  5
AE2
  8
0
 10
165.21465649399369
 20
151.87484504125311
 30
0.0
 40
0.3
 50
90.0
 51
180.0
  0
ARC
  5
AE3
  8
0
 10
101.11465649399391
 20
168.17484504125329
 30
0.0
 40
1.0
 50
0.0
 51
90.0
  0
ARC
  5
AE4
  8
0
 10
100.5146564939939
 20
139.37484504125331
 30
0.0
 40
0.3
 50
90.0
 51
180.0
  0
LINE
  5
AE5
  8
0
 10
100.5146564939939
 20
139.67484504125329
 30
0.0
 11
106.61465649399381
 21
139.67484504125329
 31
0.0
  0
LINE
  5
AE6
  8
0
 10
102.11465649399391
 20
148.3548450412533
 30
0.0
 11
102.11465649399391
 21
168.17484504125329
 31
0.0
  0
LINE
  5
AE7
  8
3
 10
90.464656493993843
 20
152.0838450412534
 30
0.0
 11
90.464656493993843
 21
169.17484504125329
 31
0.0
  0
LINE
  5
AE8
  8
3
 10
93.764656493993925
 20
169.17484504125329
 30
0.0
 11
93.764656493993925
 21
152.0838450412534
 31
0.0
  0
ARC
  5
AE9
  8
0
 10
95.786256493993974
 20
119.17484504125331
 30
0.0
 40
2.0
 50
270.0
 51
315.0
  0
LINE
  5
AEA
  8
0
 10
97.200456493993897
 20
117.76084504125311
 30
0.0
 11
100.61465649399391
 21
120.9748450412533
 31
0.0
  0
ARC
  5
AEB
  8
0
 10
88.443056493993936
 20
119.17484504125331
 30
0.0
 40
2.0
 50
225.0
 51
270.0
  0
LINE
  5
AEC
  8
0
 10
88.443056493993936
 20
117.17484504125321
 30
0.0
 11
95.786256493993974
 21
117.17484504125321
 31
0.0
  0
LINE
  5
AED
  8
0
 10
105.11465649399381
 20
120.9748450412533
 30
0.0
 11
100.61465649399391
 21
120.9748450412533
 31
0.0
  0
LINE
  5
AEE
  8
1
 10
92.114656493993834
 20
112.17484504125321
 30
0.0
 11
92.114656493993834
 21
174.17484504125329
 31
0.0
  0
LINE
  5
AEF
  8
0
 10
100.2146564939938
 20
137.17484504125329
 30
0.0
 11
100.2146564939938
 21
139.37484504125331
 31
0.0
  0
ARC
  5
AF0
  8
0
 10
83.114656493993934
 20
168.17484504125329
 30
0.0
 40
1.0
 50
90.0
 51
180.0
  0
ARC
  5
AF1
  8
0
 10
83.714656493993857
 20
139.37484504125331
 30
0.0
 40
0.3
 50
0.0
 51
90.0
  0
ARC
  5
AF2
  8
0
 10
77.614656493993934
 20
139.17484504125329
 30
0.0
 40
0.5
 50
90.0
 51
180.0
  0
LINE
  5
AF3
  8
0
 10
77.614656493993934
 20
139.67484504125329
 30
0.0
 11
83.714656493993857
 21
139.67484504125329
 31
0.0
  0
LINE
  5
AF4
  8
0
 10
82.114656493993948
 20
168.17484504125329
 30
0.0
 11
82.114656493993948
 21
148.3548450412533
 31
0.0
  0
ARC
  5
AF5
  8
0
 10
79.114656493993948
 20
122.9748450412532
 30
0.0
 40
2.0
 50
180.0
 51
270.0
  0
LINE
  5
AF6
  8
0
 10
79.114656493993948
 20
120.9748450412533
 30
0.0
 11
83.514656493994039
 21
120.9748450412533
 31
0.0
  0
LINE
  5
AF7
  8
0
 10
84.014656493993925
 20
137.17484504125329
 30
0.0
 11
84.014656493993925
 21
139.37484504125331
 31
0.0
  0
LINE
  5
AF8
  8
0
 10
77.114656493993948
 20
139.17484504125329
 30
0.0
 11
77.114656493993948
 21
122.9748450412532
 31
0.0
  0
LINE
  5
AF9
  8
1
 10
112.11465649399381
 20
137.17484504125321
 30
0.0
 11
72.114656493994062
 21
137.17484504125321
 31
0.0
  0
ARC
  5
AFA
  8
0
 10
92.114656493993948
 20
137.17484504125329
 30
0.0
 40
8.0999999999999996
 50
180.0
 51
0.0
  0
LINE
  5
AFB
  8
0
 10
87.028856493993885
 20
117.76084504125311
 30
0.0
 11
83.614656493993948
 21
120.9748450412533
 31
0.0
  0
LINE
  5
AFC
  8
0
 10
83.114656493993934
 20
169.17484504125329
 30
0.0
 11
101.11465649399391
 21
169.17484504125329
 31
0.0
  0
ARC
  5
AFD
  8
0
 10
92.114656493993948
 20
137.17484504125329
 30
0.0
 40
15.0
 50
9.1840639280252443
 51
170.8159360719747
  0
LINE
  5
AFE
  8
0
 10
107.11465649399381
 20
139.17484504125329
 30
0.0
 11
107.11465649399381
 21
122.9748450412532
 31
0.0
  0
ARC
  5
AFF
  8
0
 10
105.11465649399381
 20
122.9748450412532
 30
0.0
 40
2.0
 50
270.0
 51
0.0
  0
ARC
  5
B00
  8
0
 10
106.61465649399381
 20
139.17484504125329
 30
0.0
 40
0.5
 50
0.0
 51
90.0
  0
LINE
  5
B01
  8
0
 10
92.114656493993948
 20
152.7633022966746
 30
0.0
 11
93.202280642378241
 21
152.135362201828
 31
0.0
  0
LINE
  5
B02
  8
0
 10
78.614656504980644
 20
144.96907366896801
 30
0.0
 11
79.702280653386424
 21
145.59701376382711
 31
0.0
  0
LINE
  5
B03
  8
0
 10
105.6146564830072
 20
144.96907366896801
 30
0.0
 11
105.6146564830072
 21
143.7131934792489
 31
0.0
  0
LINE
  5
B04
  8
0
 10
104.5270323346095
 20
145.59701376381531
 30
0.0
 11
105.61465649399391
 21
144.96907366261789
 31
0.0
  0
LINE
  5
B05
  8
0
 10
91.027032345589305
 20
152.1353622018265
 30
0.0
 11
92.114656504980644
 21
152.7633023030283
 31
0.0
  0
LINE
  5
B06
  8
0
 10
78.614656504980644
 20
143.7131934792489
 30
0.0
 11
78.614656504980644
 21
144.96907368165731
 31
0.0
  0
LINE
  5
B07
  8
3
 10
192.41465649399399
 20
138.9748450412533
 30
0.0
 11
189.0646564939936
 21
138.24393595034411
 31
0.0
  0
LINE
  5
B08
  8
3
 10
175.9146564939937
 20
138.9748450412533
 30
0.0
 11
179.0456564939939
 21
138.29171776852601
 31
0.0
  0
LINE
  5
B09
  8
3
 10
180.0456564939939
 20
138.07353595034419
 30
0.0
 11
183.5646564939936
 21
137.30575413216241
 31
0.0
  0
LINE
  5
B0A
  8
3
 10
179.0456564939939
 20
136.05797231398051
 30
0.0
 11
175.9146564939937
 21
135.3748450412532
 31
0.0
  0
LINE
  5
B0B
  8
3
 10
183.5646564939936
 20
137.04393595034409
 30
0.0
 11
180.0456564939939
 21
136.27615413216219
 31
0.0
  0
LINE
  5
B0C
  8
3
 10
189.0646564939936
 20
136.1057541321625
 30
0.0
 11
192.41465649399399
 21
135.3748450412532
 31
0.0
  0
LINE
  5
B0D
  8
1
 10
167.41465649399379
 20
140.67484504125321
 30
0.0
 11
167.41465649399379
 21
133.67484504125321
 31
0.0
  0
LINE
  5
B0E
  8
0
 10
169.91465649399379
 20
139.17484504125321
 30
0.0
 11
169.91465649399379
 21
117.67484504125321
 31
0.0
  0
LINE
  5
B0F
  8
5
 10
169.91465649399379
 20
139.67484504125321
 30
0.0
 11
147.91465649399379
 21
139.67484504125321
 31
0.0
  0
LINE
  5
B10
  8
5
 10
151.21465649399391
 20
134.97484504125319
 30
0.0
 11
151.21465649399391
 21
139.3748450412532
 31
0.0
  0
LINE
  5
B11
  8
5
 10
147.41465649399379
 20
139.17484504125329
 30
0.0
 11
147.41465649399379
 21
135.17484504125329
 31
0.0
  0
ARC
  5
B12
  8
5
 10
147.91465649399379
 20
135.17484504125329
 30
0.0
 40
0.5
 50
180.0
 51
270.0
  0
ARC
  5
B13
  8
5
 10
151.5146564939937
 20
134.97484504125319
 30
0.0
 40
0.3
 50
180.0
 51
270.0
  0
ARC
  5
B14
  8
5
 10
147.91465649399379
 20
139.17484504125329
 30
0.0
 40
0.5
 50
90.0
 51
180.0
  0
ARC
  5
B15
  8
5
 10
151.5146564939937
 20
139.3748450412532
 30
0.0
 40
0.3
 50
90.0
 51
180.0
  0
LINE
  5
B16
  8
5
 10
153.21465649399391
 20
139.67484504125309
 30
0.0
 11
153.21465649399391
 21
134.67484504125329
 31
0.0
  0
LINE
  5
B17
  8
5
 10
167.41465649399379
 20
134.67484504125329
 30
0.0
 11
147.91465649399379
 21
134.67484504125329
 31
0.0
  0
ARC
  5
B18
  8
5
 10
167.41465649399379
 20
137.17484504125329
 30
0.0
 40
2.5
 50
270.0
 51
0.0
  0
LINE
  5
B19
  8
5
 10
169.91465649399379
 20
139.67484504125329
 30
0.0
 11
169.91465649399379
 21
137.17484504125341
 31
0.0
  0
ARC
  5
B1A
  8
0
 10
249.91465649399359
 20
139.17484504125329
 30
0.0
 40
0.5
 50
127.982508005909
 51
180.0
  0
ARC
  5
B1B
  8
0
 10
251.4146564939935
 20
122.9748450412532
 30
0.0
 40
2.0
 50
180.0
 51
270.0
  0
LINE
  5
B1C
  8
0
 10
249.4146564939935
 20
139.17484504125329
 30
0.0
 11
249.4146564939935
 21
122.9748450412532
 31
0.0
  0
LINE
  5
B1D
  8
0
 10
273.41465649399362
 20
169.17484504125329
 30
0.0
 11
255.4146564939935
 21
169.17484504125329
 31
0.0
  0
LINE
  5
B1E
  8
0
 10
269.5004564939934
 20
117.76084504125311
 30
0.0
 11
272.91465649399362
 21
120.9748450412533
 31
0.0
  0
LINE
  5
B1F
  8
1
 10
244.41465649399359
 20
137.17484504125321
 30
0.0
 11
284.41465649399328
 21
137.17484504125321
 31
0.0
  0
LINE
  5
B20
  8
0
 10
279.41465649399362
 20
139.17484504125329
 30
0.0
 11
279.41465649399362
 21
122.9748450412532
 31
0.0
  0
LINE
  5
B21
  8
0
 10
277.41465649399362
 20
120.9748450412533
 30
0.0
 11
273.01465649399353
 21
120.9748450412533
 31
0.0
  0
ARC
  5
B22
  8
0
 10
277.41465649399362
 20
122.9748450412532
 30
0.0
 40
2.0
 50
270.0
 51
0.0
  0
LINE
  5
B23
  8
0
 10
274.4146564939935
 20
168.17484504125329
 30
0.0
 11
274.4146564939935
 21
137.17484504125321
 31
0.0
  0
ARC
  5
B24
  8
0
 10
278.91465649399362
 20
139.17484504125329
 30
0.0
 40
0.5
 50
0.0
 51
52.017491994074653
  0
ARC
  5
B25
  8
0
 10
273.41465649399362
 20
168.17484504125329
 30
0.0
 40
1.0
 50
0.0
 51
90.0
  0
LINE
  5
B26
  8
1
 10
264.41465649399362
 20
112.17484504125321
 30
0.0
 11
264.41465649399362
 21
174.17484504125329
 31
0.0
  0
LINE
  5
B27
  8
0
 10
251.4146564939935
 20
120.9748450412533
 30
0.0
 11
255.91465649399359
 21
120.9748450412533
 31
0.0
  0
LINE
  5
B28
  8
0
 10
268.08625649399352
 20
117.17484504125321
 30
0.0
 11
260.74305649399338
 21
117.17484504125321
 31
0.0
  0
ARC
  5
B29
  8
0
 10
268.08625649399352
 20
119.17484504125331
 30
0.0
 40
2.0
 50
270.0
 51
315.0
  0
LINE
  5
B2A
  8
0
 10
259.3288564939935
 20
117.76084504125311
 30
0.0
 11
255.91465649399359
 21
120.9748450412533
 31
0.0
  0
ARC
  5
B2B
  8
0
 10
260.74305649399338
 20
119.17484504125331
 30
0.0
 40
2.0
 50
225.0
 51
270.0
  0
LINE
  5
B2C
  8
3
 10
262.76465649399353
 20
157.1828450412533
 30
0.0
 11
262.76465649399353
 21
147.03778070970401
 31
0.0
  0
LINE
  5
B2D
  8
3
 10
266.0646564939936
 20
147.03778070970401
 30
0.0
 11
266.0646564939936
 21
157.1828450412533
 31
0.0
  0
LINE
  5
B2E
  8
0
 10
254.41465649399359
 20
137.17484504125321
 30
0.0
 11
254.41465649399359
 21
168.17484504125329
 31
0.0
  0
ARC
  5
B2F
  8
0
 10
255.4146564939935
 20
168.17484504125329
 30
0.0
 40
1.0
 50
90.0
 51
180.0
  0
LINE
  5
B30
  8
0
 10
277.91465648300692
 20
144.96907366262371
 30
0.0
 11
277.91465648300692
 21
129.38061639450481
 31
0.0
  0
LINE
  5
B31
  8
0
 10
277.91465648299231
 20
129.38061640718499
 30
0.0
 11
264.41465648300692
 21
121.5863877731246
 31
0.0
  0
LINE
  5
B32
  8
0
 10
264.41465649399362
 20
121.5863877794784
 30
0.0
 11
250.91465649399359
 21
129.38061641353511
 31
0.0
  0
LINE
  5
B33
  8
0
 10
250.91465650498029
 20
129.38061640719411
 30
0.0
 11
250.91465650498029
 21
144.9690736753129
 31
0.0
  0
LINE
  5
B34
  8
0
 10
250.91465650498029
 20
144.96907366262371
 30
0.0
 11
254.41465649399359
 21
146.98979959844419
 31
0.0
  0
LINE
  5
B35
  8
0
 10
274.4146564939935
 20
146.98979959843649
 30
0.0
 11
277.91465649399362
 21
144.96907365627359
 31
0.0
  0
ARC
  5
B36
  8
0
 10
264.41465649399362
 20
137.17484504125321
 30
0.0
 40
15.00000000000003
 50
131.8103148957772
 51
145.84193290760311
  0
ARC
  5
B37
  8
0
 10
264.41465649399362
 20
137.17484504125321
 30
0.0
 40
15.00000000000003
 50
154.15806714055881
 51
205.84193285944119
  0
ARC
  5
B38
  8
0
 10
264.41465649399362
 20
137.17484504125321
 30
0.0
 40
14.0
 50
164.64111424942001
 51
195.3588857505799
  0
ARC
  5
B39
  8
0
 10
264.41465649399362
 20
137.17484504125321
 30
0.0
 40
15.00000000000003
 50
34.15806709234085
 51
48.189685104222789
  0
ARC
  5
B3A
  8
0
 10
264.41465649399362
 20
137.17484504125321
 30
0.0
 40
15.00000000000003
 50
334.15806714055299
 51
25.841932859446999
  0
ARC
  5
B3B
  8
0
 10
264.41465649399362
 20
137.17484504125321
 30
0.0
 40
14.0
 50
344.641114249412
 51
15.35888575058798
  0
ARC
  5
B3C
  8
0
 10
264.41465649399362
 20
137.17484504125321
 30
0.0
 40
14.0
 50
284.64111433438097
 51
315.3588856656782
  0
ARC
  5
B3D
  8
0
 10
264.41465649399362
 20
137.17484504125321
 30
0.0
 40
15.00000000000003
 50
274.15806718875149
 51
325.84193281130109
  0
ARC
  5
B3E
  8
0
 10
264.41465649399362
 20
137.17484504125321
 30
0.0
 40
14.0
 50
224.64111433430341
 51
255.35888566571941
  0
ARC
  5
B3F
  8
0
 10
264.41465649399362
 20
137.17484504125321
 30
0.0
 40
15.00000000000003
 50
214.15806718870161
 51
265.84193281132031
  0
ARC
  5
B40
  8
3
 10
264.41465649399362
 20
137.17484504125329
 30
0.0
 40
13.49999998350976
 50
137.79455367343911
 51
42.205446326560867
  0
ARC
  5
B41
  8
0
 10
264.41465649399362
 20
137.17484504125321
 30
0.0
 40
8.0409999999998831
 50
101.4773317858206
 51
78.522668214179404
  0
CIRCLE
  5
B42
  8
0
 10
264.41465649399362
 20
137.17484504125321
 30
0.0
 40
6.5
  0
LINE
  5
B43
  8
0
 10
260.91465649399362
 20
140.67484504125329
 30
0.0
 11
267.9146564939935
 21
140.67484504125329
 31
0.0
  0
LINE
  5
B44
  8
0
 10
267.9146564939935
 20
140.67484504125329
 30
0.0
 11
267.9146564939935
 21
133.67484504125329
 31
0.0
  0
LINE
  5
B45
  8
0
 10
267.9146564939935
 20
133.67484504125329
 30
0.0
 11
260.91465649399362
 21
133.67484504125329
 31
0.0
  0
LINE
  5
B46
  8
0
 10
260.91465649399362
 20
133.67484504125329
 30
0.0
 11
260.91465649399362
 21
140.67484504125329
 31
0.0
  0
ARC
  5
B47
  8
0
 10
264.41465649399362
 20
137.17484504125321
 30
0.0
 40
10.0
 50
99.206896221344138
 51
80.793103778655876
  0
LINE
  5
B48
  8
0
 10
262.81465649399371
 20
151.1618450412532
 30
0.0
 11
266.01465649399353
 21
151.1618450412532
 31
0.0
  0
LINE
  5
B49
  8
0
 10
266.01465649399353
 20
143.47484504125319
 30
0.0
 11
266.01465649399353
 21
151.1618450412532
 31
0.0
  0
LINE
  5
B4A
  8
0
 10
262.81465649399371
 20
143.4748450412531
 30
0.0
 11
262.81465649399371
 21
151.1618450412532
 31
0.0
  0
LINE
  5
B4B
  8
3
 10
262.76465649399353
 20
157.1828450412533
 30
0.0
 11
266.0646564939936
 21
157.1828450412533
 31
0.0
  0
LINE
  5
B4C
  8
3
 10
254.70754971280689
 20
168.88195182243999
 30
0.0
 11
262.76465649399353
 21
157.1828450412533
 31
0.0
  0
LINE
  5
B4D
  8
3
 10
274.12176327518
 20
168.88195182243999
 30
0.0
 11
266.0646564939936
 21
157.1828450412533
 31
0.0
  0
LINE
  5
B4E
  8
0
 10
259.61986765609868
 20
127.2748450412532
 30
0.0
 11
263.0039828960268
 21
127.2748450412532
 31
0.0
  0
LINE
  5
B4F
  8
0
 10
254.5146564939935
 20
135.7641714432861
 30
0.0
 11
254.5146564939935
 21
132.38005620335841
 31
0.0
  0
LINE
  5
B50
  8
0
 10
274.31465649399343
 20
135.76417144328639
 30
0.0
 11
274.31465649399343
 21
132.3800562033577
 31
0.0
  0
LINE
  5
B55
  8
0
 10
265.82533009195998
 20
127.2748450412532
 30
0.0
 11
269.20944533188822
 21
127.2748450412532
 31
0.0
  0
CIRCLE
  5
B56
  8
0
 10
264.41465649399362
 20
137.17484504125321
 30
0.0
 40
2.0
  0
LINE
  5
B57
  8
0
 10
169.91465649399379
 20
91.874845041253494
 30
0.0
 11
169.91465649399379
 21
62.674845041253548
 31
0.0
  0
ARC
  5
B58
  8
0
 10
196.41465649399379
 20
67.674845041253207
 30
0.0
 40
0.5
 50
180.0
 51
270.0
  0
LINE
  5
B59
  8
3
 10
205.91455649399381
 20
87.170322313721044
 30
0.0
 11
205.91455649399381
 21
67.179367768785369
 31
0.0
  0
LINE
  5
B5A
  8
3
 10
189.0646564939936
 20
76.105754132162474
 30
0.0
 11
192.41465649399399
 21
75.374845041253252
 31
0.0
  0
LINE
  5
B5B
  8
3
 10
183.5646564939936
 20
77.043935950344235
 30
0.0
 11
180.0456564939939
 21
76.276154132162333
 31
0.0
  0
LINE
  5
B5C
  8
3
 10
179.0456564939939
 20
76.057972313980486
 30
0.0
 11
175.9146564939937
 21
75.374845041253252
 31
0.0
  0
LINE
  5
B5D
  8
3
 10
180.0456564939939
 20
78.073535950344194
 30
0.0
 11
183.5646564939936
 21
77.305754132162406
 31
0.0
  0
LINE
  5
B5E
  8
3
 10
175.9146564939937
 20
78.974845041253275
 30
0.0
 11
179.0456564939939
 21
78.291717768526041
 31
0.0
  0
LINE
  5
B5F
  8
3
 10
192.41465649399399
 20
78.974845041253275
 30
0.0
 11
189.0646564939936
 21
78.243935950344166
 31
0.0
  0
LINE
  5
B60
  8
0
 10
206.31955649399379
 20
67.308845041253221
 30
0.0
 11
209.16465649399379
 21
68.950845041253274
 31
0.0
  0
ARC
  5
B61
  8
0
 10
205.81955649399379
 20
68.174845041253207
 30
0.0
 40
1.0
 50
270.0
 51
300.00000000000051
  0
LINE
  5
B62
  8
0
 10
196.41465649399379
 20
67.174845041253207
 30
0.0
 11
205.81955649399379
 21
67.174845041253207
 31
0.0
  0
ARC
  5
B63
  8
0
 10
208.91465649399379
 20
69.38384504125338
 30
0.0
 40
0.5
 50
300.00000000000051
 51
0.0
  0
LINE
  5
B64
  8
0
 10
209.41465649399379
 20
69.38384504125338
 30
0.0
 11
209.41465649399379
 21
84.964845041253184
 31
0.0
  0
LINE
  5
B65
  8
0
 10
174.61465649399381
 20
91.174845041253207
 30
0.0
 11
175.9146564939937
 21
91.174845041253207
 31
0.0
  0
LINE
  5
B66
  8
0
 10
174.61465649399381
 20
92.174845041253207
 30
0.0
 11
170.21465649399369
 21
92.174845041253207
 31
0.0
  0
LINE
  5
B67
  8
0
 10
176.91465649399379
 20
87.074845041253184
 30
0.0
 11
176.91465649399379
 21
78.974845041253275
 31
0.0
  0
LINE
  5
B68
  8
0
 10
183.8146564939936
 20
90.674845041254017
 30
0.0
 11
183.5646564939936
 21
90.241845041253995
 31
0.0
  0
LINE
  5
B69
  8
0
 10
183.8146564939934
 20
90.674845041253434
 30
0.0
 11
188.46415649399361
 21
90.674845041253434
 31
0.0
  0
LINE
  5
B6A
  8
3
 10
178.2566564939936
 20
86.29984504125332
 30
0.0
 11
179.0456564939939
 21
86.29984504125332
 31
0.0
  0
LINE
  5
B6B
  8
0
 10
180.0456564939939
 20
90.174845041253207
 30
0.0
 11
179.0456564939939
 21
90.174845041253207
 31
0.0
  0
LINE
  5
B6C
  8
0
 10
180.0456564939939
 20
87.074845041253184
 30
0.0
 11
183.5646564939936
 21
87.074845041253184
 31
0.0
  0
LINE
  5
B6D
  8
3
 10
180.0456564939939
 20
86.29984504125332
 30
0.0
 11
183.5646564939936
 21
86.29984504125332
 31
0.0
  0
LINE
  5
B6E
  8
0
 10
180.0456564939939
 20
78.974845041253275
 30
0.0
 11
183.5646564939936
 21
78.974845041253275
 31
0.0
  0
LINE
  5
B6F
  8
3
 10
191.6396564939939
 20
86.29984504125332
 30
0.0
 11
192.41465649399379
 21
87.074845041253184
 31
0.0
  0
LINE
  5
B70
  8
0
 10
189.0646564939936
 20
87.074845041253184
 30
0.0
 11
194.91465649399379
 21
87.074845041253184
 31
0.0
  0
LINE
  5
B71
  8
3
 10
189.0646564939936
 20
86.29984504125332
 30
0.0
 11
191.6396564939939
 21
86.29984504125332
 31
0.0
  0
LINE
  5
B72
  8
0
 10
189.0646564939936
 20
78.974845041253275
 30
0.0
 11
192.41465649399399
 21
78.974845041253275
 31
0.0
  0
LINE
  5
B73
  8
0
 10
184.0646564939936
 20
77.174845041253207
 30
0.0
 11
187.8636564939936
 21
77.174845041253207
 31
0.0
  0
LINE
  5
B74
  8
0
 10
188.46415649399361
 20
90.674845041253434
 30
0.0
 11
189.0646564939936
 21
89.635345041253458
 31
0.0
  0
LINE
  5
B75
  8
0
 10
175.9146564939937
 20
87.074845041253184
 30
0.0
 11
179.0456564939939
 21
87.074845041253184
 31
0.0
  0
LINE
  5
B76
  8
3
 10
176.91465649399379
 20
87.074845041253184
 30
0.0
 11
178.2566564939936
 21
86.29984504125332
 31
0.0
  0
LINE
  5
B77
  8
0
 10
175.9146564939937
 20
78.974845041253275
 30
0.0
 11
179.0456564939939
 21
78.974845041253275
 31
0.0
  0
LINE
  5
B78
  8
0
 10
176.91465649399379
 20
75.374845041253252
 30
0.0
 11
176.91465649399379
 21
67.274845041253229
 31
0.0
  0
ARC
  5
B79
  8
0
 10
165.41465649399379
 20
62.674845041253548
 30
0.0
 40
0.5
 50
180.0
 51
270.0
  0
ARC
  5
B7A
  8
0
 10
170.21465649399369
 20
62.474845041253282
 30
0.0
 40
0.3
 50
180.0
 51
270.0
  0
LINE
  5
B7B
  8
0
 10
174.61465649399381
 20
63.174845041253207
 30
0.0
 11
175.9146564939937
 21
63.174845041253207
 31
0.0
  0
LINE
  5
B7C
  8
0
 10
174.61465649399381
 20
62.174845041253199
 30
0.0
 11
170.21465649399369
 21
62.174845041253199
 31
0.0
  0
ARC
  5
B7D
  8
0
 10
169.41465649399379
 20
62.674845041253548
 30
0.0
 40
0.5
 50
270.0
 51
0.0
  0
LINE
  5
B7E
  8
0
 10
165.41465649399379
 20
62.174845041253427
 30
0.0
 11
169.41465649399379
 21
62.174845041253427
 31
0.0
  0
LINE
  5
B7F
  8
0
 10
180.0456564939939
 20
75.374845041253252
 30
0.0
 11
183.5646564939936
 21
75.374845041253252
 31
0.0
  0
LINE
  5
B80
  8
3
 10
178.2566564939936
 20
68.049845041253207
 30
0.0
 11
179.0456564939939
 21
68.049845041253207
 31
0.0
  0
LINE
  5
B81
  8
0
 10
183.5646564939936
 20
67.274845041253229
 30
0.0
 11
180.0456564939939
 21
67.274845041253229
 31
0.0
  0
LINE
  5
B82
  8
3
 10
180.0456564939939
 20
68.049845041253207
 30
0.0
 11
183.5646564939936
 21
68.049845041253207
 31
0.0
  0
LINE
  5
B83
  8
0
 10
189.0646564939936
 20
75.374845041253252
 30
0.0
 11
192.41465649399399
 21
75.374845041253252
 31
0.0
  0
LINE
  5
B84
  8
3
 10
191.6396564939939
 20
68.049845041253207
 30
0.0
 11
192.41465649399379
 21
67.274845041253229
 31
0.0
  0
LINE
  5
B85
  8
0
 10
194.91465649399379
 20
67.274845041253229
 30
0.0
 11
189.0646564939936
 21
67.274845041253229
 31
0.0
  0
LINE
  5
B86
  8
3
 10
189.0646564939936
 20
68.049845041253207
 30
0.0
 11
191.6396564939939
 21
68.049845041253207
 31
0.0
  0
LINE
  5
B87
  8
0
 10
192.41465649399399
 20
87.074845041253184
 30
0.0
 11
192.41465649399379
 21
67.274845041253229
 31
0.0
  0
LINE
  5
B88
  8
0
 10
179.0456564939939
 20
64.174845041253207
 30
0.0
 11
180.0456564939939
 21
64.174845041253207
 31
0.0
  0
LINE
  5
B89
  8
0
 10
179.0456564939939
 20
67.274845041253229
 30
0.0
 11
175.9146564939937
 21
67.274845041253229
 31
0.0
  0
LINE
  5
B8A
  8
3
 10
176.91465649399379
 20
67.274845041253229
 30
0.0
 11
178.2566564939936
 21
68.049845041253207
 31
0.0
  0
LINE
  5
B8B
  8
0
 10
175.9146564939937
 20
75.374845041253252
 30
0.0
 11
179.0456564939939
 21
75.374845041253252
 31
0.0
  0
LINE
  5
B8C
  8
0
 10
164.91465649399379
 20
91.674845041253207
 30
0.0
 11
164.91465649399379
 21
62.674845041253548
 31
0.0
  0
LINE
  5
B8D
  8
0
 10
189.0646564939936
 20
64.714345041253182
 30
0.0
 11
189.06465649399391
 21
89.635345041253103
 31
0.0
  0
LINE
  5
B8E
  8
0
 10
183.5646564939936
 20
90.241845041253669
 30
0.0
 11
183.5646564939936
 21
64.107845041252403
 31
0.0
  0
LINE
  5
B8F
  8
0
 10
175.9146564939937
 20
63.174845041253207
 30
0.0
 11
175.9146564939937
 21
91.174845041253207
 31
0.0
  0
LINE
  5
B90
  8
0
 10
174.61465649399361
 20
92.174845041253207
 30
0.0
 11
174.61465649399381
 21
62.174845041253199
 31
0.0
  0
LINE
  5
B91
  8
0
 10
194.91465649399379
 20
87.074845041253184
 30
0.0
 11
194.91465649399379
 21
67.274845041253229
 31
0.0
  0
LINE
  5
B92
  8
0
 10
179.0456564939939
 20
90.174845041253207
 30
0.0
 11
179.0456564939939
 21
64.174845041253207
 31
0.0
  0
LINE
  5
B93
  8
0
 10
180.0456564939939
 20
64.174845041253207
 30
0.0
 11
180.0456564939939
 21
90.174845041253207
 31
0.0
  0
LINE
  5
B94
  8
0
 10
195.91465649399379
 20
86.674845041253306
 30
0.0
 11
195.91465649399379
 21
67.674845041253207
 31
0.0
  0
LINE
  5
B95
  8
1
 10
159.91465649399379
 20
77.174845041253207
 30
0.0
 11
214.41455649399381
 21
77.174845041253207
 31
0.0
  0
LINE
  5
B96
  8
0
 10
194.91465649399379
 20
87.074845041253184
 30
0.0
 11
195.91465649399379
 21
86.074845041253184
 31
0.0
  0
LINE
  5
B97
  8
0
 10
194.91465649399379
 20
67.274845041253229
 30
0.0
 11
195.91465649399379
 21
68.274845041253215
 31
0.0
  0
ARC
  5
B98
  8
0
 10
208.91465649399379
 20
84.965845041253147
 30
0.0
 40
0.5
 50
0.0
 51
59.99999999999946
  0
ARC
  5
B99
  8
0
 10
205.81955649399379
 20
86.17484504125332
 30
0.0
 40
1.0
 50
59.99999999999946
 51
90.0
  0
LINE
  5
B9A
  8
0
 10
206.31955649399379
 20
87.040845041253306
 30
0.0
 11
209.16465649399379
 21
85.398845041253253
 31
0.0
  0
LINE
  5
B9B
  8
0
 10
196.41465649399379
 20
87.17484504125332
 30
0.0
 11
205.81955649399379
 21
87.17484504125332
 31
0.0
  0
ARC
  5
B9C
  8
0
 10
196.41465649399379
 20
86.674845041253306
 30
0.0
 40
0.5
 50
90.0
 51
180.0
  0
LINE
  5
B9D
  8
0
 10
169.91465649399379
 20
68.674845041253533
 30
0.0
 11
164.91465649399379
 21
68.674845041253533
 31
0.0
  0
LINE
  5
B9E
  8
3
 10
169.91465649399379
 20
72.737878176523282
 30
0.0
 11
164.91465649399379
 21
72.737878176523282
 31
0.0
  0
LINE
  5
B9F
  8
3
 10
169.91465649399379
 20
81.611811905983245
 30
0.0
 11
164.91465649399379
 21
81.611811905983245
 31
0.0
  0
LINE
  5
BA0
  8
0
 10
169.91465649399379
 20
85.674845041252979
 30
0.0
 11
164.91465649399379
 21
85.674845041252979
 31
0.0
  0
LINE
  5
BA1
  8
0
 10
165.41465649399379
 20
92.17484504125332
 30
0.0
 11
169.41465649399379
 21
92.17484504125332
 31
0.0
  0
ARC
  5
BA2
  8
0
 10
169.41465649399379
 20
91.674845041253207
 30
0.0
 40
0.5
 50
0.0
 51
90.0
  0
ARC
  5
BA3
  8
0
 10
170.21465649399369
 20
91.874845041253494
 30
0.0
 40
0.3
 50
90.0
 51
180.0
  0
ARC
  5
BA4
  8
0
 10
165.41465649399379
 20
91.674845041253207
 30
0.0
 40
0.5
 50
90.0
 51
180.0
  0
ARC
  5
BA5
  8
0
 10
169.49558863387821
 20
83.924845041253533
 30
0.0
 40
19.56906786011557
 50
339.82234802212741
 51
20.177651977872621
  0
ARC
  5
BA6
  8
0
 10
229.41617879766071
 20
83.921954500240304
 30
0.0
 40
45.851522394778911
 50
171.53082240409859
 51
188.46187401618141
  0
ARC
  5
BA7
  8
0
 10
169.49558863387821
 20
70.424845041252865
 30
0.0
 40
19.56906786011557
 50
339.82234802212741
 51
20.177651977872621
  0
ARC
  5
BA8
  8
0
 10
229.41617879766071
 20
70.427735582266109
 30
0.0
 40
45.851522394778911
 50
171.5381259838185
 51
188.4691775959013
  0
LINE
  5
BA9
  8
0
 10
188.46415649399361
 20
63.674845041252858
 30
0.0
 11
189.0646564939936
 21
64.714345041252955
 31
0.0
  0
LINE
  5
BAA
  8
0
 10
183.8146564939934
 20
63.674845041252858
 30
0.0
 11
188.46415649399361
 21
63.674845041252858
 31
0.0
  0
LINE
  5
BAB
  8
0
 10
183.8146564939936
 20
63.674845041252411
 30
0.0
 11
183.5646564939936
 21
64.107845041252403
 31
0.0
  0
LINE
  5
BAC
  8
0
 10
183.8146564939936
 20
220.674845041254
 30
0.0
 11
183.5646564939936
 21
220.24184504125401
 31
0.0
  0
LINE
  5
BAD
  8
0
 10
183.8146564939934
 20
220.67484504125341
 30
0.0
 11
188.46415649399361
 21
220.67484504125341
 31
0.0
  0
LINE
  5
BAE
  8
0
 10
188.46415649399361
 20
220.67484504125341
 30
0.0
 11
189.0646564939936
 21
219.63534504125349
 31
0.0
  0
ARC
  5
BAF
  8
0
 10
229.41617879766071
 20
213.9219545002403
 30
0.0
 40
45.851522394778911
 50
171.53082240409859
 51
188.46187401618141
  0
ARC
  5
BB0
  8
0
 10
169.49558863387821
 20
213.92484504125349
 30
0.0
 40
19.56906786011557
 50
339.82234802212741
 51
20.177651977872621
  0
ARC
  5
BB1
  8
0
 10
229.41617879766071
 20
200.42773558226611
 30
0.0
 40
45.851522394778911
 50
171.5381259838185
 51
188.4691775959013
  0
ARC
  5
BB2
  8
0
 10
169.49558863387821
 20
200.42484504125289
 30
0.0
 40
19.56906786011557
 50
339.82234802212741
 51
20.177651977872621
  0
ARC
  5
BB3
  8
0
 10
196.41465649399379
 20
197.67484504125309
 30
0.0
 40
0.5
 50
180.0
 51
270.0
  0
LINE
  5
BB4
  8
0
 10
206.31955649399379
 20
197.30884504125311
 30
0.0
 11
209.16465649399379
 21
198.9508450412531
 31
0.0
  0
ARC
  5
BB5
  8
0
 10
205.81955649399379
 20
198.17484504125309
 30
0.0
 40
1.0
 50
270.0
 51
300.00000000000051
  0
ARC
  5
BB6
  8
0
 10
208.91465649399379
 20
199.3838450412531
 30
0.0
 40
0.5
 50
300.00000000000051
 51
0.0
  0
LINE
  5
BB7
  8
0
 10
194.91465649399379
 20
217.07484504125321
 30
0.0
 11
195.91465649399379
 21
216.07484504125321
 31
0.0
  0
LINE
  5
BB8
  8
0
 10
194.91465649399379
 20
197.2748450412532
 30
0.0
 11
195.91465649399379
 21
198.2748450412532
 31
0.0
  0
LINE
  5
BB9
  8
1
 10
159.91465649399379
 20
207.17484504125321
 30
0.0
 11
214.41455649399381
 21
207.17484504125321
 31
0.0
  0
LINE
  5
BBA
  8
0
 10
195.91465649399379
 20
197.67484504125309
 30
0.0
 11
195.91465649399379
 21
216.67484504125321
 31
0.0
  0
LINE
  5
BBB
  8
0
 10
180.0456564939939
 20
220.17484504125309
 30
0.0
 11
180.0456564939939
 21
194.17484504125309
 31
0.0
  0
LINE
  5
BBC
  8
0
 10
179.0456564939939
 20
194.17484504125309
 30
0.0
 11
179.0456564939939
 21
220.17484504125309
 31
0.0
  0
LINE
  5
BBD
  8
0
 10
194.91465649399379
 20
197.2748450412532
 30
0.0
 11
194.91465649399379
 21
217.07484504125321
 31
0.0
  0
LINE
  5
BBE
  8
0
 10
174.61465649399361
 20
192.17484504125321
 30
0.0
 11
174.61465649399381
 21
222.17484504125309
 31
0.0
  0
LINE
  5
BBF
  8
0
 10
175.9146564939937
 20
221.17484504125309
 30
0.0
 11
175.9146564939937
 21
193.17484504125309
 31
0.0
  0
LINE
  5
BC0
  8
0
 10
183.5646564939936
 20
194.10784504125269
 30
0.0
 11
183.5646564939936
 21
220.24184504125401
 31
0.0
  0
LINE
  5
BC1
  8
0
 10
189.0646564939936
 20
219.6353450412532
 30
0.0
 11
189.06465649399391
 21
194.7143450412533
 31
0.0
  0
LINE
  5
BC2
  8
0
 10
175.9146564939937
 20
208.97484504125299
 30
0.0
 11
179.0456564939939
 21
208.97484504125299
 31
0.0
  0
LINE
  5
BC3
  8
3
 10
176.91465649399379
 20
217.07484504125321
 30
0.0
 11
178.2566564939936
 21
216.29984504125309
 31
0.0
  0
LINE
  5
BC4
  8
0
 10
179.0456564939939
 20
217.07484504125321
 30
0.0
 11
175.9146564939937
 21
217.07484504125321
 31
0.0
  0
LINE
  5
BC5
  8
0
 10
179.0456564939939
 20
220.17484504125309
 30
0.0
 11
180.0456564939939
 21
220.17484504125309
 31
0.0
  0
LINE
  5
BC6
  8
0
 10
192.41465649399399
 20
197.2748450412532
 30
0.0
 11
192.41465649399379
 21
217.07484504125321
 31
0.0
  0
LINE
  5
BC7
  8
3
 10
189.0646564939936
 20
216.29984504125309
 30
0.0
 11
191.6396564939939
 21
216.29984504125309
 31
0.0
  0
LINE
  5
BC8
  8
0
 10
194.91465649399379
 20
217.07484504125321
 30
0.0
 11
189.0646564939936
 21
217.07484504125321
 31
0.0
  0
LINE
  5
BC9
  8
3
 10
191.6396564939939
 20
216.29984504125309
 30
0.0
 11
192.41465649399379
 21
217.07484504125321
 31
0.0
  0
LINE
  5
BCA
  8
0
 10
189.0646564939936
 20
208.97484504125299
 30
0.0
 11
192.41465649399399
 21
208.97484504125299
 31
0.0
  0
LINE
  5
BCB
  8
3
 10
180.0456564939939
 20
216.29984504125309
 30
0.0
 11
183.5646564939936
 21
216.29984504125309
 31
0.0
  0
LINE
  5
BCC
  8
0
 10
183.5646564939936
 20
217.07484504125321
 30
0.0
 11
180.0456564939939
 21
217.07484504125321
 31
0.0
  0
LINE
  5
BCD
  8
3
 10
178.2566564939936
 20
216.29984504125309
 30
0.0
 11
179.0456564939939
 21
216.29984504125309
 31
0.0
  0
LINE
  5
BCE
  8
0
 10
180.0456564939939
 20
208.97484504125299
 30
0.0
 11
183.5646564939936
 21
208.97484504125299
 31
0.0
  0
LINE
  5
BCF
  8
0
 10
174.61465649399381
 20
222.17484504125309
 30
0.0
 11
165.21465649399349
 21
222.17484504125309
 31
0.0
  0
LINE
  5
BD0
  8
0
 10
174.61465649399381
 20
221.17484504125309
 30
0.0
 11
175.9146564939937
 21
221.17484504125309
 31
0.0
  0
LINE
  5
BD1
  8
0
 10
176.91465649399379
 20
208.97484504125299
 30
0.0
 11
176.91465649399379
 21
217.07484504125321
 31
0.0
  0
LINE
  5
BD2
  8
0
 10
175.9146564939937
 20
205.37484504125311
 30
0.0
 11
179.0456564939939
 21
205.37484504125311
 31
0.0
  0
LINE
  5
BD3
  8
3
 10
176.91465649399379
 20
197.2748450412532
 30
0.0
 11
178.2566564939936
 21
198.04984504125309
 31
0.0
  0
LINE
  5
BD4
  8
0
 10
175.9146564939937
 20
197.2748450412532
 30
0.0
 11
179.0456564939939
 21
197.2748450412532
 31
0.0
  0
LINE
  5
BD5
  8
0
 10
188.46415649399361
 20
193.67484504125289
 30
0.0
 11
189.0646564939936
 21
194.7143450412529
 31
0.0
  0
LINE
  5
BD6
  8
0
 10
184.0646564939936
 20
207.17484504125309
 30
0.0
 11
187.8636564939936
 21
207.17484504125309
 31
0.0
  0
LINE
  5
BD7
  8
0
 10
189.0646564939936
 20
205.37484504125311
 30
0.0
 11
192.41465649399399
 21
205.37484504125311
 31
0.0
  0
LINE
  5
BD8
  8
3
 10
189.0646564939936
 20
198.04984504125309
 30
0.0
 11
191.6396564939939
 21
198.04984504125309
 31
0.0
  0
LINE
  5
BD9
  8
0
 10
189.0646564939936
 20
197.2748450412532
 30
0.0
 11
194.91465649399379
 21
197.2748450412532
 31
0.0
  0
LINE
  5
BDA
  8
3
 10
191.6396564939939
 20
198.04984504125309
 30
0.0
 11
192.41465649399379
 21
197.2748450412532
 31
0.0
  0
LINE
  5
BDB
  8
0
 10
180.0456564939939
 20
205.37484504125311
 30
0.0
 11
183.5646564939936
 21
205.37484504125311
 31
0.0
  0
LINE
  5
BDC
  8
3
 10
180.0456564939939
 20
198.04984504125309
 30
0.0
 11
183.5646564939936
 21
198.04984504125309
 31
0.0
  0
LINE
  5
BDD
  8
0
 10
180.0456564939939
 20
197.2748450412532
 30
0.0
 11
183.5646564939936
 21
197.2748450412532
 31
0.0
  0
LINE
  5
BDE
  8
0
 10
180.0456564939939
 20
194.17484504125309
 30
0.0
 11
179.0456564939939
 21
194.17484504125309
 31
0.0
  0
LINE
  5
BDF
  8
3
 10
178.2566564939936
 20
198.04984504125309
 30
0.0
 11
179.0456564939939
 21
198.04984504125309
 31
0.0
  0
LINE
  5
BE0
  8
0
 10
183.8146564939934
 20
193.67484504125289
 30
0.0
 11
188.46415649399361
 21
193.67484504125289
 31
0.0
  0
LINE
  5
BE1
  8
0
 10
183.8146564939936
 20
193.67484504125241
 30
0.0
 11
183.5646564939936
 21
194.1078450412524
 31
0.0
  0
LINE
  5
BE2
  8
0
 10
176.91465649399379
 20
197.2748450412532
 30
0.0
 11
176.91465649399379
 21
205.37484504125311
 31
0.0
  0
LINE
  5
BE3
  8
0
 10
174.61465649399381
 20
192.17484504125309
 30
0.0
 11
165.21465649399349
 21
192.17484504125309
 31
0.0
  0
LINE
  5
BE4
  8
0
 10
174.61465649399381
 20
193.17484504125309
 30
0.0
 11
175.9146564939937
 21
193.17484504125309
 31
0.0
  0
LINE
  5
BE5
  8
0
 10
209.41465649399379
 20
214.965845041253
 30
0.0
 11
209.41465649399379
 21
199.3848450412531
 31
0.0
  0
ARC
  5
BE6
  8
0
 10
208.91465649399379
 20
214.965845041253
 30
0.0
 40
0.5
 50
0.0
 51
59.99999999999946
  0
LINE
  5
BE7
  8
0
 10
196.41465649399399
 20
217.1748450412536
 30
0.0
 11
205.81955649399401
 21
217.17484504125241
 31
0.0
  0
ARC
  5
BE8
  8
0
 10
205.81955649399379
 20
216.17484504125309
 30
0.0
 40
1.0
 50
59.99999999999946
 51
90.0
  0
LINE
  5
BE9
  8
0
 10
206.31955649399379
 20
217.04084504125311
 30
0.0
 11
209.16465649399379
 21
215.398845041253
 31
0.0
  0
LINE
  5
BEA
  8
3
 10
192.41465649399399
 20
205.37484504125311
 30
0.0
 11
189.0646564939936
 21
206.10575413216219
 31
0.0
  0
LINE
  5
BEB
  8
3
 10
175.9146564939937
 20
205.37484504125311
 30
0.0
 11
179.0456564939939
 21
206.0579723139804
 31
0.0
  0
LINE
  5
BEC
  8
3
 10
180.0456564939939
 20
206.27615413216219
 30
0.0
 11
183.5646564939936
 21
207.04393595034389
 31
0.0
  0
LINE
  5
BED
  8
3
 10
179.0456564939939
 20
208.29171776852581
 30
0.0
 11
175.9146564939937
 21
208.97484504125299
 31
0.0
  0
LINE
  5
BEE
  8
3
 10
183.5646564939936
 20
207.30575413216221
 30
0.0
 11
180.0456564939939
 21
208.07353595034411
 31
0.0
  0
LINE
  5
BEF
  8
3
 10
189.0646564939936
 20
208.24393595034391
 30
0.0
 11
192.41465649399399
 21
208.97484504125299
 31
0.0
  0
LINE
  5
BF0
  8
3
 10
205.91465649399379
 20
208.8248450412531
 30
0.0
 11
205.91465649399379
 21
217.1703223137209
 31
0.0
  0
ARC
  5
BF1
  8
0
 10
196.41465649399379
 20
216.67484504125321
 30
0.0
 40
0.5
 50
90.0
 51
180.0
  0
ARC
  5
BF2
  8
0
 10
165.21465649399349
 20
221.874845041253
 30
0.0
 40
0.3
 50
90.0
 51
180.0
  0
LINE
  5
BF3
  8
0
 10
164.91465649399379
 20
221.874845041253
 30
0.0
 11
164.91465649399379
 21
192.4748450412535
 31
0.0
  0
ARC
  5
BF4
  8
0
 10
165.21465649399349
 20
192.4748450412535
 30
0.0
 40
0.3
 50
180.0
 51
270.0
  0
LINE
  5
BF5
  8
0
 10
203.87965649399391
 20
197.36545037856999
 30
0.0
 11
203.87965649399371
 21
216.98423970393659
 31
0.0
  0
ARC
  5
BF6
  8
0
 10
202.341380689586
 20
216.67484504125321
 30
0.0
 40
0.5
 50
90.0
 51
166.30978429481391
  0
ARC
  5
BF7
  8
0
 10
202.341380689586
 20
197.67484504125289
 30
0.0
 40
0.5
 50
193.69021570518609
 51
270.0
  0
LINE
  5
BF8
  8
0
 10
196.41465649399399
 20
197.17484504125269
 30
0.0
 11
205.81955649399401
 21
197.1748450412538
 31
0.0
  0
LINE
  5
BF9
  8
0
 10
203.9726593975856
 20
216.7932360756532
 30
0.0
 11
205.91465649399379
 21
208.82484504125321
 31
0.0
  0
LINE
  5
BFA
  8
0
 10
203.97265939758631
 20
197.5564540068531
 30
0.0
 11
205.91465649399379
 21
205.524845041253
 31
0.0
  0
LINE
  5
BFB
  8
0
 10
209.41465649399379
 20
208.77484504125309
 30
0.0
 11
205.91465649399399
 21
208.774845041253
 31
0.0
  0
LINE
  5
BFC
  8
0
 10
209.41465649399379
 20
205.57484504125321
 30
0.0
 11
205.91465649399399
 21
205.5748450412533
 31
0.0
  0
LINE
  5
BFD
  8
0
 10
205.91465649399379
 20
208.82484504125321
 30
0.0
 11
205.91465649399379
 21
205.524845041253
 31
0.0
  0
LINE
  5
BFE
  8
3
 10
205.91465649399379
 20
205.524845041253
 30
0.0
 11
205.91465649399379
 21
197.17936776878511
 31
0.0
  0
ARC
  5
C07
  8
0
 10
264.41465649399339
 20
137.17484504125321
 30
0.0
 40
11.00000000000011
 50
155.3800226713401
 51
24.619977328656699
  0
TEXT
  5
D2F
  8
0
 62
     3
 10
0.0
 20
0.0
 30
0.0
 40
10.0
  1
EL1-24
  7
STANDARD1
  0
ENDSEC
  0
EOF
