  0
SECTION
  2
HEADER
  9
$ACADVER
  1
AC1009
  9
$INSBASE
 10
0.0
 20
0.0
 30
0.0
  9
$EXTMIN
 10
0.0
 20
-2.960436562073669
 30
0.0
  9
$EXTMAX
 10
292.4146564939935
 20
222.17484504125309
 30
0.0
  9
$LIMMIN
 10
0.0
 20
0.0
  9
$LIMMAX
 10
270.0
 20
175.0
  9
$ORTHOMODE
 70
     0
  9
$REGENMODE
 70
     1
  9
$FILLMODE
 70
     1
  9
$QTEXTMODE
 70
     0
  9
$MIRRTEXT
 70
     0
  9
$DRAGMODE
 70
     2
  9
$LTSCALE
 40
5.0
  9
$OSMODE
 70
  3071
  9
$ATTMODE
 70
     1
  9
$TEXTSIZE
 40
0.2
  9
$TRACEWID
 40
0.05
  9
$TEXTSTYLE
  7
STANDARD
  9
$CLAYER
  8
0
  9
$CELTYPE
  6
BYLAYER
  9
$CECOLOR
 62
   256
  9
$DIMSCALE
 40
1.0
  9
$DIMASZ
 40
3.0
  9
$DIMEXO
 40
2.0
  9
$DIMDLI
 40
0.38
  9
$DIMRND
 40
0.0
  9
$DIMDLE
 40
0.0
  9
$DIMEXE
 40
2.0
  9
$DIMTP
 40
0.0
  9
$DIMTM
 40
0.0
  9
$DIMTXT
 40
3.0
  9
$DIMCEN
 40
0.0
  9
$DIMTSZ
 40
0.0
  9
$DIMTOL
 70
     0
  9
$DIMLIM
 70
     0
  9
$DIMTIH
 70
     0
  9
$DIMTOH
 70
     0
  9
$DIMSE1
 70
     0
  9
$DIMSE2
 70
     0
  9
$DIMTAD
 70
     1
  9
$DIMZIN
 70
     0
  9
$DIMBLK
  1

  9
$DIMASO
 70
     0
  9
$DIMSHO
 70
     0
  9
$DIMPOST
  1

  9
$DIMAPOST
  1

  9
$DIMALT
 70
     0
  9
$DIMALTD
 70
     2
  9
$DIMALTF
 40
25.399999999999999
  9
$DIMLFAC
 40
1.0
  9
$DIMTOFL
 70
     1
  9
$DIMTVP
 40
1.6000000000000001
  9
$DIMTIX
 70
     1
  9
$DIMSOXD
 70
     0
  9
$DIMSAH
 70
     0
  9
$DIMBLK1
  1

  9
$DIMBLK2
  1

  9
$DIMSTYLE
  2
STANDARD
  9
$DIMCLRD
 70
     0
  9
$DIMCLRE
 70
     0
  9
$DIMCLRT
 70
     0
  9
$DIMTFAC
 40
1.0
  9
$DIMGAP
 40
0.09
  9
$LUNITS
 70
     2
  9
$LUPREC
 70
     4
  9
$SKETCHINC
 40
0.1
  9
$FILLETRAD
 40
0.0
  9
$AUNITS
 70
     1
  9
$AUPREC
 70
     4
  9
$MENU
  1
E:\r13\win\SUPPORT\ACAD
  9
$ELEVATION
 40
0.0
  9
$PELEVATION
 40
0.0
  9
$THICKNESS
 40
0.0
  9
$LIMCHECK
 70
     0
  9
$BLIPMODE
 70
     0
  9
$CHAMFERA
 40
0.0
  9
$CHAMFERB
 40
0.0
  9
$SKPOLY
 70
     0
  9
$TDCREATE
 40
2449839.7803587969
  9
$TDUPDATE
 40
2456598.6778873382
  9
$TDINDWG
 40
0.0662398958
  9
$TDUSRTIMER
 40
0.0662398958
  9
$USRTIMER
 70
     1
  9
$ANGBASE
 50
0.0
  9
$ANGDIR
 70
     0
  9
$PDMODE
 70
     0
  9
$PDSIZE
 40
0.0
  9
$PLINEWID
 40
0.0
  9
$COORDS
 70
     1
  9
$SPLFRAME
 70
     0
  9
$SPLINETYPE
 70
     6
  9
$SPLINESEGS
 70
     8
  9
$ATTDIA
 70
     0
  9
$ATTREQ
 70
     1
  9
$HANDLING
 70
     1
  9
$HANDSEED
  5
F4C
  9
$SURFTAB1
 70
     6
  9
$SURFTAB2
 70
     6
  9
$SURFTYPE
 70
     6
  9
$SURFU
 70
     6
  9
$SURFV
 70
     6
  9
$UCSNAME
  2

  9
$UCSORG
 10
0.0
 20
0.0
 30
0.0
  9
$UCSXDIR
 10
1.0
 20
0.0
 30
0.0
  9
$UCSYDIR
 10
0.0
 20
1.0
 30
0.0
  9
$PUCSNAME
  2

  9
$PUCSORG
 10
0.0
 20
0.0
 30
0.0
  9
$PUCSXDIR
 10
1.0
 20
0.0
 30
0.0
  9
$PUCSYDIR
 10
0.0
 20
1.0
 30
0.0
  9
$USERI1
 70
     0
  9
$USERI2
 70
     1
  9
$USERI3
 70
     1
  9
$USERI4
 70
     0
  9
$USERI5
 70
     0
  9
$USERR1
 40
0.0
  9
$USERR2
 40
0.0
  9
$USERR3
 40
0.0
  9
$USERR4
 40
0.0
  9
$USERR5
 40
0.0
  9
$WORLDVIEW
 70
     1
  9
$SHADEDGE
 70
     3
  9
$SHADEDIF
 70
    70
  9
$TILEMODE
 70
     1
  9
$MAXACTVP
 70
    16
  9
$PLIMCHECK
 70
     0
  9
$PEXTMIN
 10
1.0000000000000000E+020
 20
1.0000000000000000E+020
 30
1.0000000000000000E+020
  9
$PEXTMAX
 10
-1.0000000000000000E+020
 20
-1.0000000000000000E+020
 30
-1.0000000000000000E+020
  9
$PLIMMIN
 10
0.0
 20
0.0
  9
$PLIMMAX
 10
12.0
 20
9.0
  9
$UNITMODE
 70
     0
  9
$VISRETAIN
 70
     0
  9
$PLINEGEN
 70
     0
  9
$PSLTSCALE
 70
     0
  0
ENDSEC
  0
SECTION
  2
TABLES
  0
TABLE
  2
VPORT
 70
     1
  0
VPORT
  2
*ACTIVE
 70
     0
 10
0.0
 20
0.0
 11
1.0
 21
1.0
 12
146.2073289278276
 22
139.6223957016916
 13
0.0
 23
0.0
 14
10.0
 24
10.0
 15
10.0
 25
10.0
 16
0.0
 26
0.0
 36
1.0
 17
0.0
 27
0.0
 37
0.0
 40
287.7790450132108
 41
1.8318713450292401
 42
50.0
 43
0.0
 44
0.0
 50
0.0
 51
0.0
 71
     0
 72
   500
 73
     1
 74
     0
 75
     0
 76
     0
 77
     0
 78
     2
  0
ENDTAB
  0
TABLE
  2
LTYPE
 70
     3
  0
LTYPE
  2
CONTINUOUS
 70
     0
  3
Solid Line
 72
    65
 73
     0
 40
0.0
  0
LTYPE
  2
CENTER
 70
     0
  3
____ _ ____ _ ____ _ ____ _ ____ _ ____ _ ____
 72
    65
 73
     4
 40
2.0
 49
1.25
 49
-0.25
 49
0.25
 49
-0.25
  0
LTYPE
  2
PHANTOM2
 70
     0
  3
Phantom (.5x) ___ _ _ ___ _ _ ___ _ _ ___ _ _
 72
    65
 73
     6
 40
1.25
 49
0.625
 49
-0.125
 49
0.125
 49
-0.125
 49
0.125
 49
-0.125
  0
ENDTAB
  0
TABLE
  2
LAYER
 70
     4
  0
LAYER
  2
0
 70
     0
 62
     7
  6
CONTINUOUS
  0
LAYER
  2
1
 70
     0
 62
     1
  6
CENTER
  0
LAYER
  2
5
 70
     0
 62
     3
  6
PHANTOM2
  0
LAYER
  2
3
 70
     0
 62
     3
  6
CONTINUOUS
  0
ENDTAB
  0
TABLE
  2
STYLE
 70
     2
  0
STYLE
  2
STANDARD
 70
     0
 40
0.0
 41
1.0
 50
0.0
 71
     0
 42
0.2
  3
TXT
  4
BIGFONT
  0
STYLE
  2
STANDARD1
 70
     0
 40
0.0
 41
1.0
 50
0.0
 71
     0
 42
3.0
  3
txt
  4

  0
ENDTAB
  0
TABLE
  2
VIEW
 70
     1
  0
VIEW
  2
ALL
 70
     0
 40
179.5384664489153
 10
135.0
 20
89.769233224457665
 41
0.0
 11
0.0
 21
0.0
 31
1.0
 12
0.0
 22
0.0
 32
0.0
 42
0.0
 43
0.0
 44
0.0
 50
0.0
 71
     0
  0
ENDTAB
  0
TABLE
  2
UCS
 70
     0
  0
ENDTAB
  0
TABLE
  2
APPID
 70
     6
  0
APPID
  2
ACAD
 70
     0
  0
APPID
  2
GENIUS_GENODEF_13
 70
     0
  0
APPID
  2
GENIUS_GENOBJ-N-FIL_13
 70
     0
  0
APPID
  2
GENIUS_GENOREF_13
 70
     0
  0
APPID
  2
ACAD_MLEADERVER
 70
     0
  0
APPID
  2
ACAD_NAV_VCDISPLAY
 70
     0
  0
ENDTAB
  0
TABLE
  2
DIMSTYLE
 70
     1
  0
DIMSTYLE
  2
STANDARD
 70
     0
  3

  4

  5

  6

  7

 40
1.0
 41
0.18
 42
0.0625
 43
0.38
 44
0.18
 45
0.0
 46
0.0
 47
0.0
 48
0.0
140
0.18
141
0.09
142
0.0
143
25.399999999999999
144
1.0
145
0.0
146
1.0
147
0.09
 71
     0
 72
     0
 73
     1
 74
     1
 75
     0
 76
     0
 77
     0
 78
     0
170
     0
171
     2
172
     0
173
     0
174
     0
175
     0
176
     0
177
     0
178
     0
  0
ENDTAB
  0
ENDSEC
  0
SECTION
  2
BLOCKS
  0
BLOCK
  8
0
  2
$MODEL_SPACE
 70
     0
 10
0.0
 20
0.0
 30
0.0
  3
$MODEL_SPACE
  1

  0
ENDBLK
  5
522
  8
0
  0
BLOCK
 67
     1
  8
0
  2
$PAPER_SPACE
 70
     0
 10
0.0
 20
0.0
 30
0.0
  3
$PAPER_SPACE
  1

  0
ENDBLK
  5
520
 67
     1
  8
0
  0
ENDSEC
  0
SECTION
  2
ENTITIES
  0
LINE
  5
C07
  8
3
 10
213.9146564939939
 20
205.524845041253
 30
0.0
 11
213.9146564939939
 21
197.17936776878511
 31
0.0
  0
LINE
  5
C08
  8
0
 10
213.9146564939939
 20
208.82484504125321
 30
0.0
 11
213.9146564939939
 21
205.524845041253
 31
0.0
  0
LINE
  5
C09
  8
0
 10
217.4146564939939
 20
205.57484504125321
 30
0.0
 11
213.9146564939941
 21
205.5748450412533
 31
0.0
  0
LINE
  5
C0A
  8
0
 10
217.4146564939939
 20
208.77484504125309
 30
0.0
 11
213.9146564939941
 21
208.774845041253
 31
0.0
  0
LINE
  5
C0B
  8
0
 10
211.9726593975864
 20
197.5564540068531
 30
0.0
 11
213.9146564939939
 21
205.524845041253
 31
0.0
  0
LINE
  5
C0C
  8
0
 10
211.97265939758569
 20
216.7932360756532
 30
0.0
 11
213.9146564939939
 21
208.82484504125321
 31
0.0
  0
LINE
  5
C0D
  8
0
 10
196.4146564939941
 20
197.17484504125269
 30
0.0
 11
213.8195564939941
 21
197.1748450412538
 31
0.0
  0
ARC
  5
C0E
  8
0
 10
210.34138068958609
 20
197.67484504125289
 30
0.0
 40
0.5
 50
193.69021570518771
 51
270.0
  0
ARC
  5
C0F
  8
0
 10
210.34138068958609
 20
216.67484504125321
 30
0.0
 40
0.5
 50
90.0
 51
166.30978429481229
  0
LINE
  5
C10
  8
0
 10
211.8796564939941
 20
197.36545037856999
 30
0.0
 11
211.87965649399379
 21
216.98423970393659
 31
0.0
  0
ARC
  5
C11
  8
0
 10
165.2146564939936
 20
192.4748450412535
 30
0.0
 40
0.3
 50
180.0
 51
270.0
  0
LINE
  5
C12
  8
0
 10
164.9146564939939
 20
221.874845041253
 30
0.0
 11
164.9146564939939
 21
192.4748450412535
 31
0.0
  0
ARC
  5
C13
  8
0
 10
165.2146564939936
 20
221.874845041253
 30
0.0
 40
0.3
 50
90.0
 51
180.0
  0
ARC
  5
C14
  8
0
 10
196.4146564939939
 20
216.67484504125321
 30
0.0
 40
0.5
 50
90.0
 51
180.0
  0
LINE
  5
C15
  8
3
 10
213.9146564939939
 20
208.8248450412531
 30
0.0
 11
213.9146564939939
 21
217.1703223137209
 31
0.0
  0
LINE
  5
C16
  8
3
 10
189.06465649399371
 20
208.24393595034391
 30
0.0
 11
192.4146564939941
 21
208.97484504125299
 31
0.0
  0
LINE
  5
C17
  8
3
 10
183.56465649399371
 20
207.30575413216221
 30
0.0
 11
180.04565649399399
 21
208.07353595034411
 31
0.0
  0
LINE
  5
C18
  8
3
 10
179.04565649399399
 20
208.29171776852581
 30
0.0
 11
175.9146564939939
 21
208.97484504125299
 31
0.0
  0
LINE
  5
C19
  8
3
 10
180.04565649399399
 20
206.27615413216219
 30
0.0
 11
183.56465649399371
 21
207.04393595034389
 31
0.0
  0
LINE
  5
C1A
  8
3
 10
175.9146564939939
 20
205.37484504125311
 30
0.0
 11
179.04565649399399
 21
206.0579723139804
 31
0.0
  0
LINE
  5
C1B
  8
3
 10
192.4146564939941
 20
205.37484504125311
 30
0.0
 11
189.06465649399371
 21
206.10575413216219
 31
0.0
  0
LINE
  5
C1C
  8
0
 10
214.3195564939939
 20
217.04084504125311
 30
0.0
 11
217.1646564939939
 21
215.398845041253
 31
0.0
  0
ARC
  5
C1D
  8
0
 10
213.8195564939939
 20
216.17484504125309
 30
0.0
 40
1.0
 50
59.999999999999858
 51
90.0
  0
LINE
  5
C1E
  8
0
 10
196.4146564939941
 20
217.1748450412536
 30
0.0
 11
213.8195564939941
 21
217.17484504125241
 31
0.0
  0
ARC
  5
C1F
  8
0
 10
216.9146564939939
 20
214.965845041253
 30
0.0
 40
0.5
 50
0.0
 51
59.999999999999858
  0
LINE
  5
C20
  8
0
 10
217.4146564939939
 20
214.965845041253
 30
0.0
 11
217.4146564939939
 21
199.3848450412531
 31
0.0
  0
LINE
  5
C21
  8
0
 10
174.61465649399389
 20
193.17484504125309
 30
0.0
 11
175.9146564939939
 21
193.17484504125309
 31
0.0
  0
LINE
  5
C22
  8
0
 10
174.61465649399389
 20
192.17484504125309
 30
0.0
 11
165.2146564939936
 21
192.17484504125309
 31
0.0
  0
LINE
  5
C23
  8
0
 10
176.9146564939939
 20
197.2748450412532
 30
0.0
 11
176.9146564939939
 21
205.37484504125311
 31
0.0
  0
LINE
  5
C24
  8
0
 10
183.81465649399379
 20
193.67484504125241
 30
0.0
 11
183.56465649399371
 21
194.1078450412524
 31
0.0
  0
LINE
  5
C25
  8
0
 10
183.81465649399351
 20
193.67484504125289
 30
0.0
 11
188.4641564939937
 21
193.67484504125289
 31
0.0
  0
LINE
  5
C26
  8
3
 10
178.2566564939938
 20
198.04984504125309
 30
0.0
 11
179.04565649399399
 21
198.04984504125309
 31
0.0
  0
LINE
  5
C27
  8
0
 10
180.04565649399399
 20
194.17484504125309
 30
0.0
 11
179.04565649399399
 21
194.17484504125309
 31
0.0
  0
LINE
  5
C28
  8
0
 10
180.04565649399399
 20
197.2748450412532
 30
0.0
 11
183.56465649399371
 21
197.2748450412532
 31
0.0
  0
LINE
  5
C29
  8
3
 10
180.04565649399399
 20
198.04984504125309
 30
0.0
 11
183.56465649399371
 21
198.04984504125309
 31
0.0
  0
LINE
  5
C2A
  8
0
 10
180.04565649399399
 20
205.37484504125311
 30
0.0
 11
183.56465649399371
 21
205.37484504125311
 31
0.0
  0
LINE
  5
C2B
  8
3
 10
191.63965649399401
 20
198.04984504125309
 30
0.0
 11
192.4146564939939
 21
197.2748450412532
 31
0.0
  0
LINE
  5
C2C
  8
0
 10
189.06465649399371
 20
197.2748450412532
 30
0.0
 11
194.9146564939939
 21
197.2748450412532
 31
0.0
  0
LINE
  5
C2D
  8
3
 10
189.06465649399371
 20
198.04984504125309
 30
0.0
 11
191.63965649399401
 21
198.04984504125309
 31
0.0
  0
LINE
  5
C2E
  8
0
 10
189.06465649399371
 20
205.37484504125311
 30
0.0
 11
192.4146564939941
 21
205.37484504125311
 31
0.0
  0
LINE
  5
C2F
  8
0
 10
184.06465649399371
 20
207.17484504125309
 30
0.0
 11
187.86365649399369
 21
207.17484504125309
 31
0.0
  0
LINE
  5
C30
  8
0
 10
188.4641564939937
 20
193.67484504125289
 30
0.0
 11
189.06465649399371
 21
194.7143450412529
 31
0.0
  0
LINE
  5
C31
  8
0
 10
175.9146564939939
 20
197.2748450412532
 30
0.0
 11
179.04565649399399
 21
197.2748450412532
 31
0.0
  0
LINE
  5
C32
  8
3
 10
176.9146564939939
 20
197.2748450412532
 30
0.0
 11
178.2566564939938
 21
198.04984504125309
 31
0.0
  0
LINE
  5
C33
  8
0
 10
175.9146564939939
 20
205.37484504125311
 30
0.0
 11
179.04565649399399
 21
205.37484504125311
 31
0.0
  0
LINE
  5
C34
  8
0
 10
176.9146564939939
 20
208.97484504125299
 30
0.0
 11
176.9146564939939
 21
217.07484504125321
 31
0.0
  0
LINE
  5
C35
  8
0
 10
174.61465649399389
 20
221.17484504125309
 30
0.0
 11
175.9146564939939
 21
221.17484504125309
 31
0.0
  0
LINE
  5
C36
  8
0
 10
174.61465649399389
 20
222.17484504125309
 30
0.0
 11
165.2146564939936
 21
222.17484504125309
 31
0.0
  0
LINE
  5
C37
  8
0
 10
180.04565649399399
 20
208.97484504125299
 30
0.0
 11
183.56465649399371
 21
208.97484504125299
 31
0.0
  0
LINE
  5
C38
  8
3
 10
178.2566564939938
 20
216.29984504125309
 30
0.0
 11
179.04565649399399
 21
216.29984504125309
 31
0.0
  0
LINE
  5
C39
  8
0
 10
183.56465649399371
 20
217.07484504125321
 30
0.0
 11
180.04565649399399
 21
217.07484504125321
 31
0.0
  0
LINE
  5
C3A
  8
3
 10
180.04565649399399
 20
216.29984504125309
 30
0.0
 11
183.56465649399371
 21
216.29984504125309
 31
0.0
  0
LINE
  5
C3B
  8
0
 10
189.06465649399371
 20
208.97484504125299
 30
0.0
 11
192.4146564939941
 21
208.97484504125299
 31
0.0
  0
LINE
  5
C3C
  8
3
 10
191.63965649399401
 20
216.29984504125309
 30
0.0
 11
192.4146564939939
 21
217.07484504125321
 31
0.0
  0
LINE
  5
C3D
  8
0
 10
194.9146564939939
 20
217.07484504125321
 30
0.0
 11
189.06465649399371
 21
217.07484504125321
 31
0.0
  0
LINE
  5
C3E
  8
3
 10
189.06465649399371
 20
216.29984504125309
 30
0.0
 11
191.63965649399401
 21
216.29984504125309
 31
0.0
  0
LINE
  5
C3F
  8
0
 10
192.4146564939941
 20
197.2748450412532
 30
0.0
 11
192.4146564939939
 21
217.07484504125321
 31
0.0
  0
LINE
  5
C40
  8
0
 10
179.04565649399399
 20
220.17484504125309
 30
0.0
 11
180.04565649399399
 21
220.17484504125309
 31
0.0
  0
LINE
  5
C41
  8
0
 10
179.04565649399399
 20
217.07484504125321
 30
0.0
 11
175.9146564939939
 21
217.07484504125321
 31
0.0
  0
LINE
  5
C42
  8
3
 10
176.9146564939939
 20
217.07484504125321
 30
0.0
 11
178.2566564939938
 21
216.29984504125309
 31
0.0
  0
LINE
  5
C43
  8
0
 10
175.9146564939939
 20
208.97484504125299
 30
0.0
 11
179.04565649399399
 21
208.97484504125299
 31
0.0
  0
LINE
  5
C44
  8
0
 10
189.06465649399371
 20
219.6353450412532
 30
0.0
 11
189.06465649399399
 21
194.7143450412533
 31
0.0
  0
LINE
  5
C45
  8
0
 10
183.56465649399371
 20
194.10784504125269
 30
0.0
 11
183.56465649399371
 21
220.24184504125401
 31
0.0
  0
LINE
  5
C46
  8
0
 10
175.9146564939939
 20
221.17484504125309
 30
0.0
 11
175.9146564939939
 21
193.17484504125309
 31
0.0
  0
LINE
  5
C47
  8
0
 10
174.61465649399369
 20
192.17484504125321
 30
0.0
 11
174.61465649399389
 21
222.17484504125309
 31
0.0
  0
LINE
  5
C48
  8
0
 10
194.9146564939939
 20
197.2748450412532
 30
0.0
 11
194.9146564939939
 21
217.07484504125321
 31
0.0
  0
LINE
  5
C49
  8
0
 10
179.04565649399399
 20
194.17484504125309
 30
0.0
 11
179.04565649399399
 21
220.17484504125309
 31
0.0
  0
LINE
  5
C4A
  8
0
 10
180.04565649399399
 20
220.17484504125309
 30
0.0
 11
180.04565649399399
 21
194.17484504125309
 31
0.0
  0
LINE
  5
C4B
  8
0
 10
195.9146564939939
 20
197.67484504125309
 30
0.0
 11
195.9146564939939
 21
216.67484504125321
 31
0.0
  0
LINE
  5
C4C
  8
1
 10
159.9146564939939
 20
207.17484504125321
 30
0.0
 11
222.4145564939939
 21
207.17484504125321
 31
0.0
  0
LINE
  5
C4D
  8
0
 10
194.9146564939939
 20
197.2748450412532
 30
0.0
 11
195.9146564939939
 21
198.2748450412532
 31
0.0
  0
LINE
  5
C4E
  8
0
 10
194.9146564939939
 20
217.07484504125321
 30
0.0
 11
195.9146564939939
 21
216.07484504125321
 31
0.0
  0
ARC
  5
C4F
  8
0
 10
216.9146564939939
 20
199.3838450412531
 30
0.0
 40
0.5
 50
300.00000000000011
 51
0.0
  0
ARC
  5
C50
  8
0
 10
213.8195564939939
 20
198.17484504125309
 30
0.0
 40
1.0
 50
270.0
 51
300.00000000000011
  0
LINE
  5
C51
  8
0
 10
214.3195564939939
 20
197.30884504125311
 30
0.0
 11
217.1646564939939
 21
198.9508450412531
 31
0.0
  0
ARC
  5
C52
  8
0
 10
196.4146564939939
 20
197.67484504125309
 30
0.0
 40
0.5
 50
180.0
 51
270.0
  0
ARC
  5
C53
  8
0
 10
169.4955886338783
 20
200.42484504125289
 30
0.0
 40
19.56906786011557
 50
339.82234802212889
 51
20.177651977872621
  0
ARC
  5
C54
  8
0
 10
229.41617879766079
 20
200.42773558226611
 30
0.0
 40
45.851522394778911
 50
171.53812598381771
 51
188.4691775959013
  0
ARC
  5
C55
  8
0
 10
169.4955886338783
 20
213.92484504125349
 30
0.0
 40
19.56906786011557
 50
339.82234802212741
 51
20.177651977871101
  0
ARC
  5
C56
  8
0
 10
229.41617879766079
 20
213.9219545002403
 30
0.0
 40
45.851522394778911
 50
171.53082240409859
 51
188.46187401618221
  0
LINE
  5
C57
  8
0
 10
188.4641564939937
 20
220.67484504125341
 30
0.0
 11
189.06465649399371
 21
219.63534504125349
 31
0.0
  0
LINE
  5
C58
  8
0
 10
183.81465649399351
 20
220.67484504125341
 30
0.0
 11
188.4641564939937
 21
220.67484504125341
 31
0.0
  0
LINE
  5
C59
  8
0
 10
183.81465649399379
 20
220.674845041254
 30
0.0
 11
183.56465649399371
 21
220.24184504125401
 31
0.0
  0
LINE
  5
C5A
  8
0
 10
183.81465649399379
 20
63.674845041252411
 30
0.0
 11
183.56465649399371
 21
64.107845041252403
 31
0.0
  0
LINE
  5
C5B
  8
0
 10
183.81465649399351
 20
63.674845041252922
 30
0.0
 11
188.4641564939937
 21
63.674845041252922
 31
0.0
  0
LINE
  5
C5C
  8
0
 10
188.4641564939937
 20
63.674845041252922
 30
0.0
 11
189.06465649399371
 21
64.714345041252955
 31
0.0
  0
ARC
  5
C5D
  8
0
 10
229.41617879766079
 20
70.427735582266109
 30
0.0
 40
45.851522394778911
 50
171.53812598381771
 51
188.4691775959013
  0
ARC
  5
C5E
  8
0
 10
169.4955886338783
 20
70.424845041252865
 30
0.0
 40
19.56906786011557
 50
339.82234802212889
 51
20.177651977872621
  0
ARC
  5
C5F
  8
0
 10
229.41617879766079
 20
83.921954500240304
 30
0.0
 40
45.851522394778911
 50
171.53082240409859
 51
188.46187401618221
  0
ARC
  5
C60
  8
0
 10
169.4955886338783
 20
83.924845041253491
 30
0.0
 40
19.56906786011557
 50
339.82234802212741
 51
20.177651977871101
  0
ARC
  5
C61
  8
0
 10
165.4146564939939
 20
91.674845041253207
 30
0.0
 40
0.5
 50
90.0
 51
180.0
  0
ARC
  5
C62
  8
0
 10
170.2146564939938
 20
91.874845041253494
 30
0.0
 40
0.3
 50
90.0
 51
180.0
  0
ARC
  5
C63
  8
0
 10
169.4146564939939
 20
91.674845041253207
 30
0.0
 40
0.5
 50
0.0
 51
90.0
  0
LINE
  5
C64
  8
0
 10
165.4146564939939
 20
92.174845041253263
 30
0.0
 11
169.4146564939939
 21
92.174845041253263
 31
0.0
  0
LINE
  5
C65
  8
0
 10
169.9146564939939
 20
85.674845041252979
 30
0.0
 11
164.9146564939939
 21
85.674845041252979
 31
0.0
  0
LINE
  5
C66
  8
3
 10
169.9146564939939
 20
81.611811905983245
 30
0.0
 11
164.9146564939939
 21
81.611811905983245
 31
0.0
  0
LINE
  5
C67
  8
3
 10
169.9146564939939
 20
72.737878176523225
 30
0.0
 11
164.9146564939939
 21
72.737878176523282
 31
0.0
  0
LINE
  5
C68
  8
0
 10
169.9146564939939
 20
68.674845041253491
 30
0.0
 11
164.9146564939939
 21
68.674845041253491
 31
0.0
  0
ARC
  5
C69
  8
0
 10
196.4146564939939
 20
86.674845041253306
 30
0.0
 40
0.5
 50
90.0
 51
180.0
  0
LINE
  5
C6A
  8
0
 10
196.4146564939939
 20
87.17484504125332
 30
0.0
 11
213.8195564939939
 21
87.174845041253263
 31
0.0
  0
LINE
  5
C6B
  8
0
 10
214.3195564939939
 20
87.040845041253235
 30
0.0
 11
217.1646564939939
 21
85.398845041253196
 31
0.0
  0
ARC
  5
C6C
  8
0
 10
213.8195564939939
 20
86.174845041253263
 30
0.0
 40
1.0
 50
59.999999999999858
 51
90.0
  0
ARC
  5
C6D
  8
0
 10
216.9146564939939
 20
84.965845041253147
 30
0.0
 40
0.5
 50
0.0
 51
59.999999999999858
  0
LINE
  5
C6E
  8
0
 10
194.9146564939939
 20
67.274845041253229
 30
0.0
 11
195.9146564939939
 21
68.274845041253215
 31
0.0
  0
LINE
  5
C6F
  8
0
 10
194.9146564939939
 20
87.074845041253184
 30
0.0
 11
195.9146564939939
 21
86.074845041253184
 31
0.0
  0
LINE
  5
C70
  8
1
 10
159.9146564939939
 20
77.174845041253207
 30
0.0
 11
222.4145564939939
 21
77.174845041253207
 31
0.0
  0
LINE
  5
C71
  8
0
 10
195.9146564939939
 20
86.674845041253306
 30
0.0
 11
195.9146564939939
 21
67.674845041253207
 31
0.0
  0
LINE
  5
C72
  8
0
 10
180.04565649399399
 20
64.174845041253207
 30
0.0
 11
180.04565649399399
 21
90.174845041253207
 31
0.0
  0
LINE
  5
C73
  8
0
 10
179.04565649399399
 20
90.174845041253207
 30
0.0
 11
179.04565649399399
 21
64.174845041253207
 31
0.0
  0
LINE
  5
C74
  8
0
 10
194.9146564939939
 20
87.074845041253184
 30
0.0
 11
194.9146564939939
 21
67.274845041253229
 31
0.0
  0
LINE
  5
C75
  8
0
 10
174.61465649399369
 20
92.174845041253207
 30
0.0
 11
174.61465649399389
 21
62.174845041253199
 31
0.0
  0
LINE
  5
C76
  8
0
 10
175.9146564939939
 20
63.174845041253207
 30
0.0
 11
175.9146564939939
 21
91.174845041253207
 31
0.0
  0
LINE
  5
C77
  8
0
 10
183.56465649399371
 20
90.241845041253669
 30
0.0
 11
183.56465649399371
 21
64.107845041252347
 31
0.0
  0
LINE
  5
C78
  8
0
 10
189.06465649399371
 20
64.714345041253125
 30
0.0
 11
189.06465649399399
 21
89.635345041253103
 31
0.0
  0
LINE
  5
C79
  8
0
 10
164.9146564939939
 20
91.674845041253207
 30
0.0
 11
164.9146564939939
 21
62.674845041253491
 31
0.0
  0
LINE
  5
C7A
  8
0
 10
175.9146564939939
 20
75.374845041253252
 30
0.0
 11
179.04565649399399
 21
75.374845041253252
 31
0.0
  0
LINE
  5
C7B
  8
3
 10
176.9146564939939
 20
67.274845041253229
 30
0.0
 11
178.2566564939938
 21
68.049845041253207
 31
0.0
  0
LINE
  5
C7C
  8
0
 10
179.04565649399399
 20
67.274845041253229
 30
0.0
 11
175.9146564939939
 21
67.274845041253229
 31
0.0
  0
LINE
  5
C7D
  8
0
 10
179.04565649399399
 20
64.174845041253207
 30
0.0
 11
180.04565649399399
 21
64.174845041253207
 31
0.0
  0
LINE
  5
C7E
  8
0
 10
192.4146564939941
 20
87.074845041253184
 30
0.0
 11
192.4146564939939
 21
67.274845041253229
 31
0.0
  0
LINE
  5
C7F
  8
3
 10
189.06465649399371
 20
68.049845041253207
 30
0.0
 11
191.63965649399401
 21
68.049845041253207
 31
0.0
  0
LINE
  5
C80
  8
0
 10
194.9146564939939
 20
67.274845041253229
 30
0.0
 11
189.06465649399371
 21
67.274845041253229
 31
0.0
  0
LINE
  5
C81
  8
3
 10
191.63965649399401
 20
68.049845041253207
 30
0.0
 11
192.4146564939939
 21
67.274845041253229
 31
0.0
  0
LINE
  5
C82
  8
0
 10
189.06465649399371
 20
75.374845041253252
 30
0.0
 11
192.4146564939941
 21
75.374845041253252
 31
0.0
  0
LINE
  5
C83
  8
3
 10
180.04565649399399
 20
68.049845041253207
 30
0.0
 11
183.56465649399371
 21
68.049845041253207
 31
0.0
  0
LINE
  5
C84
  8
0
 10
183.56465649399371
 20
67.274845041253229
 30
0.0
 11
180.04565649399399
 21
67.274845041253229
 31
0.0
  0
LINE
  5
C85
  8
3
 10
178.2566564939938
 20
68.049845041253207
 30
0.0
 11
179.04565649399399
 21
68.049845041253207
 31
0.0
  0
LINE
  5
C86
  8
0
 10
180.04565649399399
 20
75.374845041253252
 30
0.0
 11
183.56465649399371
 21
75.374845041253252
 31
0.0
  0
LINE
  5
C87
  8
0
 10
165.4146564939939
 20
62.174845041253427
 30
0.0
 11
169.4146564939939
 21
62.174845041253427
 31
0.0
  0
ARC
  5
C88
  8
0
 10
169.4146564939939
 20
62.674845041253491
 30
0.0
 40
0.5
 50
270.0
 51
0.0
  0
LINE
  5
C89
  8
0
 10
174.61465649399389
 20
62.174845041253199
 30
0.0
 11
170.2146564939938
 21
62.174845041253199
 31
0.0
  0
LINE
  5
C8A
  8
0
 10
174.61465649399389
 20
63.174845041253207
 30
0.0
 11
175.9146564939939
 21
63.174845041253207
 31
0.0
  0
ARC
  5
C8B
  8
0
 10
170.2146564939938
 20
62.474845041253282
 30
0.0
 40
0.3
 50
180.0
 51
270.0
  0
ARC
  5
C8C
  8
0
 10
165.4146564939939
 20
62.674845041253491
 30
0.0
 40
0.5
 50
180.0
 51
270.0
  0
LINE
  5
C8D
  8
0
 10
176.9146564939939
 20
75.374845041253252
 30
0.0
 11
176.9146564939939
 21
67.274845041253229
 31
0.0
  0
LINE
  5
C8E
  8
0
 10
175.9146564939939
 20
78.974845041253275
 30
0.0
 11
179.04565649399399
 21
78.974845041253275
 31
0.0
  0
LINE
  5
C8F
  8
3
 10
176.9146564939939
 20
87.074845041253184
 30
0.0
 11
178.2566564939938
 21
86.29984504125332
 31
0.0
  0
LINE
  5
C90
  8
0
 10
175.9146564939939
 20
87.074845041253184
 30
0.0
 11
179.04565649399399
 21
87.074845041253184
 31
0.0
  0
LINE
  5
C91
  8
0
 10
188.4641564939937
 20
90.674845041253434
 30
0.0
 11
189.06465649399371
 21
89.635345041253458
 31
0.0
  0
LINE
  5
C92
  8
0
 10
184.06465649399371
 20
77.174845041253207
 30
0.0
 11
187.86365649399369
 21
77.174845041253207
 31
0.0
  0
LINE
  5
C93
  8
0
 10
189.06465649399371
 20
78.974845041253275
 30
0.0
 11
192.4146564939941
 21
78.974845041253275
 31
0.0
  0
LINE
  5
C94
  8
3
 10
189.06465649399371
 20
86.29984504125332
 30
0.0
 11
191.63965649399401
 21
86.29984504125332
 31
0.0
  0
LINE
  5
C95
  8
0
 10
189.06465649399371
 20
87.074845041253184
 30
0.0
 11
194.9146564939939
 21
87.074845041253184
 31
0.0
  0
LINE
  5
C96
  8
3
 10
191.63965649399401
 20
86.29984504125332
 30
0.0
 11
192.4146564939939
 21
87.074845041253184
 31
0.0
  0
LINE
  5
C97
  8
0
 10
180.04565649399399
 20
78.974845041253275
 30
0.0
 11
183.56465649399371
 21
78.974845041253275
 31
0.0
  0
LINE
  5
C98
  8
3
 10
180.04565649399399
 20
86.29984504125332
 30
0.0
 11
183.56465649399371
 21
86.29984504125332
 31
0.0
  0
LINE
  5
C99
  8
0
 10
180.04565649399399
 20
87.074845041253184
 30
0.0
 11
183.56465649399371
 21
87.074845041253184
 31
0.0
  0
LINE
  5
C9A
  8
0
 10
180.04565649399399
 20
90.174845041253207
 30
0.0
 11
179.04565649399399
 21
90.174845041253207
 31
0.0
  0
LINE
  5
C9B
  8
3
 10
178.2566564939938
 20
86.29984504125332
 30
0.0
 11
179.04565649399399
 21
86.29984504125332
 31
0.0
  0
LINE
  5
C9C
  8
0
 10
183.81465649399351
 20
90.674845041253434
 30
0.0
 11
188.4641564939937
 21
90.674845041253434
 31
0.0
  0
LINE
  5
C9D
  8
0
 10
183.81465649399379
 20
90.674845041254017
 30
0.0
 11
183.56465649399371
 21
90.241845041253953
 31
0.0
  0
LINE
  5
C9E
  8
0
 10
176.9146564939939
 20
87.074845041253184
 30
0.0
 11
176.9146564939939
 21
78.974845041253275
 31
0.0
  0
LINE
  5
C9F
  8
0
 10
174.61465649399389
 20
92.174845041253207
 30
0.0
 11
170.2146564939938
 21
92.174845041253207
 31
0.0
  0
LINE
  5
CA0
  8
0
 10
174.61465649399389
 20
91.174845041253207
 30
0.0
 11
175.9146564939939
 21
91.174845041253207
 31
0.0
  0
LINE
  5
CA1
  8
0
 10
217.4146564939939
 20
69.38384504125338
 30
0.0
 11
217.4146564939939
 21
84.964845041253184
 31
0.0
  0
ARC
  5
CA2
  8
0
 10
216.9146564939939
 20
69.38384504125338
 30
0.0
 40
0.5
 50
300.00000000000011
 51
0.0
  0
LINE
  5
CA3
  8
0
 10
196.4146564939939
 20
67.174845041253207
 30
0.0
 11
213.8195564939939
 21
67.174845041253207
 31
0.0
  0
ARC
  5
CA4
  8
0
 10
213.8195564939939
 20
68.174845041253207
 30
0.0
 40
1.0
 50
270.0
 51
300.00000000000011
  0
LINE
  5
CA5
  8
0
 10
214.3195564939939
 20
67.308845041253221
 30
0.0
 11
217.1646564939939
 21
68.950845041253274
 31
0.0
  0
LINE
  5
CA6
  8
3
 10
192.4146564939941
 20
78.974845041253275
 30
0.0
 11
189.06465649399371
 21
78.243935950344166
 31
0.0
  0
LINE
  5
CA7
  8
3
 10
175.9146564939939
 20
78.974845041253275
 30
0.0
 11
179.04565649399399
 21
78.291717768526041
 31
0.0
  0
LINE
  5
CA8
  8
3
 10
180.04565649399399
 20
78.073535950344194
 30
0.0
 11
183.56465649399371
 21
77.305754132162406
 31
0.0
  0
LINE
  5
CA9
  8
3
 10
179.04565649399399
 20
76.057972313980486
 30
0.0
 11
175.9146564939939
 21
75.374845041253252
 31
0.0
  0
LINE
  5
CAA
  8
3
 10
183.56465649399371
 20
77.043935950344235
 30
0.0
 11
180.04565649399399
 21
76.276154132162333
 31
0.0
  0
LINE
  5
CAB
  8
3
 10
189.06465649399371
 20
76.105754132162474
 30
0.0
 11
192.4146564939941
 21
75.374845041253252
 31
0.0
  0
LINE
  5
CAC
  8
3
 10
213.9145564939939
 20
87.170322313721101
 30
0.0
 11
213.9145564939939
 21
67.179367768785369
 31
0.0
  0
ARC
  5
CAD
  8
0
 10
196.4146564939939
 20
67.674845041253207
 30
0.0
 40
0.5
 50
180.0
 51
270.0
  0
LINE
  5
CAE
  8
0
 10
169.9146564939939
 20
91.874845041253494
 30
0.0
 11
169.9146564939939
 21
62.674845041253491
 31
0.0
  0
CIRCLE
  5
CAF
  8
0
 10
272.41465649399368
 20
137.17484504125321
 30
0.0
 40
2.0
  0
LINE
  5
CB0
  8
0
 10
273.8253300919601
 20
127.2748450412532
 30
0.0
 11
277.20944533188828
 21
127.2748450412532
 31
0.0
  0
ARC
  5
CB3
  8
0
 10
272.41465649399368
 20
137.17484504125329
 30
0.0
 40
11.00000000000011
 50
155.38002267134311
 51
24.619977328657608
  0
LINE
  5
CB5
  8
0
 10
282.3146564939936
 20
135.76417144328639
 30
0.0
 11
282.3146564939936
 21
132.3800562033577
 31
0.0
  0
LINE
  5
CB6
  8
0
 10
262.51465649399358
 20
135.7641714432861
 30
0.0
 11
262.51465649399358
 21
132.38005620335841
 31
0.0
  0
LINE
  5
CB7
  8
0
 10
267.61986765609879
 20
127.2748450412532
 30
0.0
 11
271.00398289602703
 21
127.2748450412532
 31
0.0
  0
LINE
  5
CB8
  8
3
 10
282.12176327518011
 20
168.88195182243999
 30
0.0
 11
274.06465649399382
 21
157.1828450412533
 31
0.0
  0
LINE
  5
CB9
  8
3
 10
262.70754971280701
 20
168.88195182243999
 30
0.0
 11
270.76465649399358
 21
157.1828450412533
 31
0.0
  0
LINE
  5
CBA
  8
3
 10
270.76465649399358
 20
157.1828450412533
 30
0.0
 11
274.06465649399382
 21
157.1828450412533
 31
0.0
  0
LINE
  5
CBB
  8
0
 10
270.81465649399382
 20
143.4748450412531
 30
0.0
 11
270.81465649399382
 21
151.1618450412532
 31
0.0
  0
LINE
  5
CBC
  8
0
 10
274.01465649399358
 20
143.47484504125319
 30
0.0
 11
274.01465649399358
 21
151.1618450412532
 31
0.0
  0
LINE
  5
CBD
  8
0
 10
270.81465649399382
 20
151.1618450412532
 30
0.0
 11
274.01465649399358
 21
151.1618450412532
 31
0.0
  0
ARC
  5
CBE
  8
0
 10
272.41465649399368
 20
137.17484504125321
 30
0.0
 40
10.0
 50
99.206896221344138
 51
80.793103778655876
  0
LINE
  5
CBF
  8
0
 10
268.91465649399368
 20
133.67484504125329
 30
0.0
 11
268.91465649399368
 21
140.67484504125329
 31
0.0
  0
LINE
  5
CC0
  8
0
 10
275.91465649399368
 20
133.67484504125329
 30
0.0
 11
268.91465649399368
 21
133.67484504125329
 31
0.0
  0
LINE
  5
CC1
  8
0
 10
275.91465649399368
 20
140.67484504125329
 30
0.0
 11
275.91465649399368
 21
133.67484504125329
 31
0.0
  0
LINE
  5
CC2
  8
0
 10
268.91465649399368
 20
140.67484504125329
 30
0.0
 11
275.91465649399368
 21
140.67484504125329
 31
0.0
  0
CIRCLE
  5
CC3
  8
0
 10
272.41465649399368
 20
137.17484504125321
 30
0.0
 40
6.5
  0
ARC
  5
CC4
  8
0
 10
272.41465649399368
 20
137.17484504125321
 30
0.0
 40
8.0409999999998831
 50
101.4773317858202
 51
78.522668214179575
  0
ARC
  5
CC5
  8
3
 10
272.41465649399368
 20
137.17484504125329
 30
0.0
 40
13.49999998350976
 50
137.79455367343971
 51
42.205446326561471
  0
ARC
  5
CC6
  8
0
 10
272.41465649399368
 20
137.17484504125321
 30
0.0
 40
15.00000000000003
 50
214.1580671887022
 51
265.84193281132042
  0
ARC
  5
CC7
  8
0
 10
272.41465649399368
 20
137.17484504125321
 30
0.0
 40
14.0
 50
224.64111433430281
 51
255.35888566571961
  0
ARC
  5
CC8
  8
0
 10
272.41465649399368
 20
137.17484504125321
 30
0.0
 40
15.00000000000003
 50
274.15806718875149
 51
325.84193281130109
  0
ARC
  5
CC9
  8
0
 10
272.41465649399368
 20
137.17484504125321
 30
0.0
 40
14.0
 50
284.64111433438109
 51
315.35888566567758
  0
ARC
  5
CCA
  8
0
 10
272.41465649399368
 20
137.17484504125321
 30
0.0
 40
14.0
 50
344.64111424941279
 51
15.3588857505872
  0
ARC
  5
CCB
  8
0
 10
272.41465649399368
 20
137.17484504125321
 30
0.0
 40
15.00000000000003
 50
334.15806714055373
 51
25.84193285944627
  0
ARC
  5
CCC
  8
0
 10
272.41465649399368
 20
137.17484504125321
 30
0.0
 40
15.00000000000003
 50
34.158067092340161
 51
48.189685104223337
  0
ARC
  5
CCD
  8
0
 10
272.41465649399368
 20
137.17484504125321
 30
0.0
 40
14.0
 50
164.64111424942001
 51
195.3588857505799
  0
ARC
  5
CCE
  8
0
 10
272.41465649399368
 20
137.17484504125321
 30
0.0
 40
15.00000000000003
 50
154.15806714055881
 51
205.84193285944119
  0
ARC
  5
CCF
  8
0
 10
272.41465649399368
 20
137.17484504125321
 30
0.0
 40
15.00000000000003
 50
131.8103148957772
 51
145.84193290760311
  0
LINE
  5
CD0
  8
0
 10
282.41465649399368
 20
146.98979959843649
 30
0.0
 11
285.91465649399368
 21
144.96907365627359
 31
0.0
  0
LINE
  5
CD1
  8
0
 10
258.91465650498043
 20
144.96907366262371
 30
0.0
 11
262.41465649399368
 21
146.98979959844419
 31
0.0
  0
LINE
  5
CD2
  8
0
 10
258.91465650498043
 20
129.38061640719411
 30
0.0
 11
258.91465650498043
 21
144.9690736753129
 31
0.0
  0
LINE
  5
CD3
  8
0
 10
272.41465649399368
 20
121.5863877794784
 30
0.0
 11
258.91465649399368
 21
129.38061641353511
 31
0.0
  0
LINE
  5
CD4
  8
0
 10
285.91465648299243
 20
129.38061640718499
 30
0.0
 11
272.41465648300698
 21
121.5863877731246
 31
0.0
  0
LINE
  5
CD5
  8
0
 10
285.91465648300698
 20
144.96907366262371
 30
0.0
 11
285.91465648300698
 21
129.38061639450481
 31
0.0
  0
ARC
  5
CD6
  8
0
 10
263.41465649399368
 20
168.17484504125329
 30
0.0
 40
1.0
 50
90.0
 51
180.0
  0
LINE
  5
CD7
  8
0
 10
262.41465649399368
 20
137.17484504125321
 30
0.0
 11
262.41465649399368
 21
168.17484504125329
 31
0.0
  0
LINE
  5
CD8
  8
3
 10
274.06465649399382
 20
147.03778070970401
 30
0.0
 11
274.06465649399382
 21
157.1828450412533
 31
0.0
  0
LINE
  5
CD9
  8
3
 10
270.76465649399358
 20
157.1828450412533
 30
0.0
 11
270.76465649399358
 21
147.03778070970401
 31
0.0
  0
ARC
  5
CDA
  8
0
 10
268.74305649399361
 20
119.17484504125331
 30
0.0
 40
2.0
 50
225.0
 51
270.0
  0
LINE
  5
CDB
  8
0
 10
267.32885649399361
 20
117.76084504125311
 30
0.0
 11
263.91465649399368
 21
120.9748450412533
 31
0.0
  0
ARC
  5
CDC
  8
0
 10
276.08625649399357
 20
119.17484504125331
 30
0.0
 40
2.0
 50
270.0
 51
315.0
  0
LINE
  5
CDD
  8
0
 10
276.08625649399357
 20
117.17484504125321
 30
0.0
 11
268.74305649399361
 21
117.17484504125321
 31
0.0
  0
LINE
  5
CDE
  8
0
 10
259.41465649399368
 20
120.9748450412533
 30
0.0
 11
263.91465649399368
 21
120.9748450412533
 31
0.0
  0
LINE
  5
CDF
  8
1
 10
272.41465649399368
 20
112.17484504125321
 30
0.0
 11
272.41465649399368
 21
174.17484504125329
 31
0.0
  0
ARC
  5
CE0
  8
0
 10
281.41465649399368
 20
168.17484504125329
 30
0.0
 40
1.0
 50
0.0
 51
90.0
  0
ARC
  5
CE1
  8
0
 10
286.91465649399368
 20
139.17484504125329
 30
0.0
 40
0.5
 50
0.0
 51
52.017491994074653
  0
LINE
  5
CE2
  8
0
 10
282.41465649399368
 20
168.17484504125329
 30
0.0
 11
282.41465649399368
 21
137.17484504125321
 31
0.0
  0
ARC
  5
CE3
  8
0
 10
285.41465649399368
 20
122.9748450412532
 30
0.0
 40
2.0
 50
270.0
 51
0.0
  0
LINE
  5
CE4
  8
0
 10
285.41465649399368
 20
120.9748450412533
 30
0.0
 11
281.01465649399358
 21
120.9748450412533
 31
0.0
  0
LINE
  5
CE5
  8
0
 10
287.41465649399368
 20
139.17484504125329
 30
0.0
 11
287.41465649399368
 21
122.9748450412532
 31
0.0
  0
LINE
  5
CE6
  8
1
 10
252.4146564939937
 20
137.17484504125321
 30
0.0
 11
292.4146564939935
 21
137.17484504125321
 31
0.0
  0
LINE
  5
CE7
  8
0
 10
277.50045649399351
 20
117.76084504125311
 30
0.0
 11
280.91465649399368
 21
120.9748450412533
 31
0.0
  0
LINE
  5
CE8
  8
0
 10
281.41465649399368
 20
169.17484504125329
 30
0.0
 11
263.41465649399368
 21
169.17484504125329
 31
0.0
  0
LINE
  5
CE9
  8
0
 10
257.41465649399368
 20
139.17484504125329
 30
0.0
 11
257.41465649399368
 21
122.9748450412532
 31
0.0
  0
ARC
  5
CEA
  8
0
 10
259.41465649399368
 20
122.9748450412532
 30
0.0
 40
2.0
 50
180.0
 51
270.0
  0
ARC
  5
CEB
  8
0
 10
257.91465649399368
 20
139.17484504125329
 30
0.0
 40
0.5
 50
127.98250800590959
 51
180.0
  0
LINE
  5
CEC
  8
5
 10
169.9146564939939
 20
139.67484504125329
 30
0.0
 11
169.9146564939939
 21
137.17484504125341
 31
0.0
  0
ARC
  5
CED
  8
5
 10
167.4146564939939
 20
137.17484504125329
 30
0.0
 40
2.5
 50
270.0
 51
0.0
  0
LINE
  5
CEE
  8
5
 10
167.4146564939939
 20
134.67484504125329
 30
0.0
 11
147.9146564939939
 21
134.67484504125329
 31
0.0
  0
LINE
  5
CEF
  8
5
 10
153.21465649399411
 20
139.67484504125309
 30
0.0
 11
153.21465649399411
 21
134.67484504125329
 31
0.0
  0
ARC
  5
CF0
  8
5
 10
151.51465649399381
 20
139.3748450412532
 30
0.0
 40
0.3
 50
90.0
 51
180.0
  0
ARC
  5
CF1
  8
5
 10
147.9146564939939
 20
139.17484504125329
 30
0.0
 40
0.5
 50
90.0
 51
180.0
  0
ARC
  5
CF2
  8
5
 10
151.51465649399381
 20
134.97484504125319
 30
0.0
 40
0.3
 50
180.0
 51
270.0
  0
ARC
  5
CF3
  8
5
 10
147.9146564939939
 20
135.17484504125329
 30
0.0
 40
0.5
 50
180.0
 51
270.0
  0
LINE
  5
CF4
  8
5
 10
147.4146564939939
 20
139.17484504125329
 30
0.0
 11
147.4146564939939
 21
135.17484504125329
 31
0.0
  0
LINE
  5
CF5
  8
5
 10
151.21465649399411
 20
134.97484504125319
 30
0.0
 11
151.21465649399411
 21
139.3748450412532
 31
0.0
  0
LINE
  5
CF6
  8
5
 10
169.9146564939939
 20
139.67484504125321
 30
0.0
 11
147.9146564939939
 21
139.67484504125321
 31
0.0
  0
LINE
  5
CF7
  8
0
 10
169.9146564939939
 20
139.17484504125321
 30
0.0
 11
169.9146564939939
 21
117.67484504125321
 31
0.0
  0
LINE
  5
CF8
  8
1
 10
167.4146564939939
 20
140.67484504125321
 30
0.0
 11
167.4146564939939
 21
133.67484504125321
 31
0.0
  0
LINE
  5
CF9
  8
3
 10
189.06465649399371
 20
136.1057541321625
 30
0.0
 11
192.4146564939941
 21
135.3748450412532
 31
0.0
  0
LINE
  5
CFA
  8
3
 10
183.56465649399371
 20
137.04393595034409
 30
0.0
 11
180.04565649399399
 21
136.27615413216219
 31
0.0
  0
LINE
  5
CFB
  8
3
 10
179.04565649399399
 20
136.05797231398051
 30
0.0
 11
175.9146564939939
 21
135.3748450412532
 31
0.0
  0
LINE
  5
CFC
  8
3
 10
180.04565649399399
 20
138.07353595034419
 30
0.0
 11
183.56465649399371
 21
137.30575413216241
 31
0.0
  0
LINE
  5
CFD
  8
3
 10
175.9146564939939
 20
138.9748450412533
 30
0.0
 11
179.04565649399399
 21
138.29171776852601
 31
0.0
  0
LINE
  5
CFE
  8
3
 10
192.4146564939941
 20
138.9748450412533
 30
0.0
 11
189.06465649399371
 21
138.24393595034411
 31
0.0
  0
LINE
  5
CFF
  8
0
 10
78.614656504980744
 20
143.7131934792489
 30
0.0
 11
78.614656504980744
 21
144.96907368165731
 31
0.0
  0
LINE
  5
D00
  8
0
 10
91.027032345589419
 20
152.1353622018265
 30
0.0
 11
92.114656504980744
 21
152.7633023030283
 31
0.0
  0
LINE
  5
D01
  8
0
 10
104.5270323346096
 20
145.59701376381531
 30
0.0
 11
105.614656493994
 21
144.96907366261789
 31
0.0
  0
LINE
  5
D02
  8
0
 10
105.61465648300729
 20
144.96907366896801
 30
0.0
 11
105.61465648300729
 21
143.7131934792489
 31
0.0
  0
LINE
  5
D03
  8
0
 10
78.614656504980744
 20
144.96907366896801
 30
0.0
 11
79.702280653386538
 21
145.59701376382711
 31
0.0
  0
LINE
  5
D04
  8
0
 10
92.114656493994048
 20
152.7633022966746
 30
0.0
 11
93.202280642378355
 21
152.135362201828
 31
0.0
  0
ARC
  5
D05
  8
0
 10
106.61465649399391
 20
139.17484504125329
 30
0.0
 40
0.5
 50
0.0
 51
90.0
  0
ARC
  5
D06
  8
0
 10
105.11465649399391
 20
122.9748450412532
 30
0.0
 40
2.0
 50
270.0
 51
0.0
  0
LINE
  5
D07
  8
0
 10
107.11465649399391
 20
139.17484504125329
 30
0.0
 11
107.11465649399391
 21
122.9748450412532
 31
0.0
  0
ARC
  5
D08
  8
0
 10
92.114656493994048
 20
137.17484504125329
 30
0.0
 40
15.0
 50
9.1840639280260472
 51
170.81593607197391
  0
LINE
  5
D09
  8
0
 10
83.114656493994076
 20
169.17484504125329
 30
0.0
 11
101.114656493994
 21
169.17484504125329
 31
0.0
  0
LINE
  5
D0A
  8
0
 10
87.028856493993999
 20
117.76084504125311
 30
0.0
 11
83.614656493994062
 21
120.9748450412533
 31
0.0
  0
ARC
  5
D0B
  8
0
 10
92.114656493994048
 20
137.17484504125329
 30
0.0
 40
8.0999999999999996
 50
180.0
 51
0.0
  0
LINE
  5
D0C
  8
1
 10
112.11465649399391
 20
137.17484504125321
 30
0.0
 11
72.114656493994175
 21
137.17484504125321
 31
0.0
  0
LINE
  5
D0D
  8
0
 10
77.114656493994062
 20
139.17484504125329
 30
0.0
 11
77.114656493994062
 21
122.9748450412532
 31
0.0
  0
LINE
  5
D0E
  8
0
 10
84.014656493994025
 20
137.17484504125329
 30
0.0
 11
84.014656493994025
 21
139.37484504125331
 31
0.0
  0
LINE
  5
D0F
  8
0
 10
79.114656493994062
 20
120.9748450412533
 30
0.0
 11
83.514656493994153
 21
120.9748450412533
 31
0.0
  0
ARC
  5
D10
  8
0
 10
79.114656493994062
 20
122.9748450412532
 30
0.0
 40
2.0
 50
180.0
 51
270.0
  0
LINE
  5
D11
  8
0
 10
82.114656493994048
 20
168.17484504125329
 30
0.0
 11
82.114656493994048
 21
148.3548450412533
 31
0.0
  0
LINE
  5
D12
  8
0
 10
77.614656493994062
 20
139.67484504125329
 30
0.0
 11
83.714656493993971
 21
139.67484504125329
 31
0.0
  0
ARC
  5
D13
  8
0
 10
77.614656493994062
 20
139.17484504125329
 30
0.0
 40
0.5
 50
90.0
 51
180.0
  0
ARC
  5
D14
  8
0
 10
83.714656493993971
 20
139.37484504125331
 30
0.0
 40
0.3
 50
0.0
 51
90.0
  0
ARC
  5
D15
  8
0
 10
83.114656493994076
 20
168.17484504125329
 30
0.0
 40
1.0
 50
90.0
 51
180.0
  0
LINE
  5
D16
  8
0
 10
100.2146564939939
 20
137.17484504125329
 30
0.0
 11
100.2146564939939
 21
139.37484504125331
 31
0.0
  0
LINE
  5
D17
  8
1
 10
92.114656493993948
 20
112.17484504125321
 30
0.0
 11
92.114656493993948
 21
174.17484504125329
 31
0.0
  0
LINE
  5
D18
  8
0
 10
105.11465649399391
 20
120.9748450412533
 30
0.0
 11
100.614656493994
 21
120.9748450412533
 31
0.0
  0
LINE
  5
D19
  8
0
 10
88.44305649399405
 20
117.17484504125321
 30
0.0
 11
95.786256493994074
 21
117.17484504125321
 31
0.0
  0
ARC
  5
D1A
  8
0
 10
88.44305649399405
 20
119.17484504125331
 30
0.0
 40
2.0
 50
225.0
 51
270.0
  0
LINE
  5
D1B
  8
0
 10
97.200456493994025
 20
117.76084504125311
 30
0.0
 11
100.614656493994
 21
120.9748450412533
 31
0.0
  0
ARC
  5
D1C
  8
0
 10
95.786256493994074
 20
119.17484504125331
 30
0.0
 40
2.0
 50
270.0
 51
315.0
  0
LINE
  5
D1D
  8
3
 10
93.764656493994039
 20
169.17484504125329
 30
0.0
 11
93.764656493994039
 21
152.0838450412534
 31
0.0
  0
LINE
  5
D1E
  8
3
 10
90.464656493993971
 20
152.0838450412534
 30
0.0
 11
90.464656493993971
 21
169.17484504125329
 31
0.0
  0
LINE
  5
D1F
  8
0
 10
102.114656493994
 20
148.3548450412533
 30
0.0
 11
102.114656493994
 21
168.17484504125329
 31
0.0
  0
LINE
  5
D20
  8
0
 10
100.514656493994
 20
139.67484504125329
 30
0.0
 11
106.61465649399391
 21
139.67484504125329
 31
0.0
  0
ARC
  5
D21
  8
0
 10
100.514656493994
 20
139.37484504125331
 30
0.0
 40
0.3
 50
90.0
 51
180.0
  0
ARC
  5
D22
  8
0
 10
101.114656493994
 20
168.17484504125329
 30
0.0
 40
1.0
 50
0.0
 51
90.0
  0
ARC
  5
D23
  8
0
 10
165.2146564939938
 20
151.87484504125311
 30
0.0
 40
0.3
 50
90.0
 51
180.0
  0
LINE
  5
D24
  8
0
 10
174.61465649399389
 20
151.17484504125321
 30
0.0
 11
175.9146564939939
 21
151.17484504125321
 31
0.0
  0
LINE
  5
D25
  8
0
 10
174.61465649399389
 20
152.17484504125321
 30
0.0
 11
165.2146564939938
 21
152.17484504125321
 31
0.0
  0
LINE
  5
D26
  8
0
 10
167.4146564939939
 20
139.67484504125321
 30
0.0
 11
165.4146564939939
 21
139.67484504125321
 31
0.0
  0
LINE
  5
D27
  8
0
 10
164.9146564939939
 20
139.67484504125321
 30
0.0
 11
165.51465649399381
 21
139.67484504125321
 31
0.0
  0
LINE
  5
D28
  8
0
 10
165.51465649399381
 20
139.67484504125321
 30
0.0
 11
166.52565649399369
 21
140.68584504125309
 31
0.0
  0
ARC
  5
D29
  8
0
 10
169.4146564939939
 20
139.17484504125321
 30
0.0
 40
0.5
 50
0.0
 51
90.0
  0
LINE
  5
D2A
  8
0
 10
169.31465649399399
 20
139.67484504125321
 30
0.0
 11
169.4146564939939
 21
139.67484504125321
 31
0.0
  0
LINE
  5
D2B
  8
0
 10
169.31465649399399
 20
139.67484504125321
 30
0.0
 11
168.303656493994
 21
140.68584504125309
 31
0.0
  0
LINE
  5
D2C
  8
0
 10
176.9146564939939
 20
147.07484504125321
 30
0.0
 11
176.9146564939939
 21
138.9748450412533
 31
0.0
  0
LINE
  5
D2D
  8
0
 10
166.52565649399369
 20
140.68584504125309
 30
0.0
 11
168.303656493994
 21
140.68584504125309
 31
0.0
  0
LINE
  5
D2E
  8
0
 10
184.06465649399371
 20
152.76384504125321
 30
0.0
 11
183.56465649399371
 21
151.89784504125311
 31
0.0
  0
LINE
  5
D2F
  8
0
 10
184.06465649399371
 20
152.76384504125321
 30
0.0
 11
187.86365649399369
 21
152.76384504125321
 31
0.0
  0
LINE
  5
D30
  8
3
 10
178.2566564939938
 20
146.29984504125329
 30
0.0
 11
179.04565649399399
 21
146.29984504125329
 31
0.0
  0
LINE
  5
D31
  8
0
 10
180.04565649399399
 20
150.17484504125321
 30
0.0
 11
179.04565649399399
 21
150.17484504125321
 31
0.0
  0
ARC
  5
D32
  8
0
 10
189.7926564939938
 20
148.86584504125321
 30
0.0
 40
6.9281100000000002
 50
205.9780000000024
 51
214.22900000000271
  0
LINE
  5
D33
  8
0
 10
180.04565649399399
 20
147.07484504125321
 30
0.0
 11
183.56465649399371
 21
147.07484504125321
 31
0.0
  0
LINE
  5
D34
  8
3
 10
180.04565649399399
 20
146.29984504125329
 30
0.0
 11
183.56465649399371
 21
146.29984504125329
 31
0.0
  0
LINE
  5
D35
  8
0
 10
180.04565649399399
 20
138.9748450412533
 30
0.0
 11
183.56465649399371
 21
138.9748450412533
 31
0.0
  0
ARC
  5
D36
  8
0
 10
208.77665649399381
 20
137.17484504125321
 30
0.0
 40
25.912500000000001
 50
162.4949000000023
 51
166.6519999999995
  0
LINE
  5
D37
  8
3
 10
191.63965649399401
 20
146.29984504125329
 30
0.0
 11
192.4146564939939
 21
147.07484504125321
 31
0.0
  0
LINE
  5
D38
  8
0
 10
189.06465649399371
 20
147.07484504125321
 30
0.0
 11
194.9146564939939
 21
147.07484504125321
 31
0.0
  0
LINE
  5
D39
  8
3
 10
189.06465649399371
 20
146.29984504125329
 30
0.0
 11
191.63965649399401
 21
146.29984504125329
 31
0.0
  0
LINE
  5
D3A
  8
0
 10
189.06465649399371
 20
138.9748450412533
 30
0.0
 11
192.4146564939941
 21
138.9748450412533
 31
0.0
  0
ARC
  5
D3B
  8
0
 10
182.13565649399391
 20
148.86584504125321
 30
0.0
 40
6.9281100000000002
 50
325.77099999999939
 51
0.0
  0
LINE
  5
D3C
  8
0
 10
184.06465649399371
 20
144.9688450412533
 30
0.0
 11
187.86365649399369
 21
144.9688450412533
 31
0.0
  0
LINE
  5
D3D
  8
0
 10
187.86365649399369
 20
152.76384504125321
 30
0.0
 11
189.06465649399371
 21
150.6848450412532
 31
0.0
  0
LINE
  5
D3E
  8
0
 10
175.9146564939939
 20
147.07484504125321
 30
0.0
 11
179.04565649399399
 21
147.07484504125321
 31
0.0
  0
LINE
  5
D3F
  8
3
 10
176.9146564939939
 20
147.07484504125321
 30
0.0
 11
178.2566564939938
 21
146.29984504125329
 31
0.0
  0
LINE
  5
D40
  8
0
 10
175.9146564939939
 20
138.9748450412533
 30
0.0
 11
179.04565649399399
 21
138.9748450412533
 31
0.0
  0
LINE
  5
D41
  8
0
 10
176.9146564939939
 20
135.3748450412532
 30
0.0
 11
176.9146564939939
 21
127.2748450412532
 31
0.0
  0
CIRCLE
  5
D42
  8
0
 10
167.4146564939939
 20
137.17484504125321
 30
0.0
 40
1.0
  0
ARC
  5
D43
  8
0
 10
167.4146564939939
 20
137.17484504125321
 30
0.0
 40
2.5
 50
0.0
 51
90.0
  0
ARC
  5
D44
  8
0
 10
165.2146564939938
 20
121.2748450412532
 30
0.0
 40
0.3
 50
180.0
 51
270.0
  0
ARC
  5
D45
  8
0
 10
165.4146564939939
 20
117.67484504125321
 30
0.0
 40
0.5
 50
180.0
 51
270.0
  0
ARC
  5
D46
  8
0
 10
169.61465649399369
 20
121.2748450412532
 30
0.0
 40
0.3
 50
270.0
 51
0.0
  0
ARC
  5
D47
  8
0
 10
170.2146564939938
 20
122.4748450412532
 30
0.0
 40
0.3
 50
180.0
 51
270.0
  0
LINE
  5
D48
  8
0
 10
174.61465649399389
 20
123.17484504125321
 30
0.0
 11
175.9146564939939
 21
123.17484504125321
 31
0.0
  0
LINE
  5
D49
  8
0
 10
174.61465649399389
 20
122.17484504125321
 30
0.0
 11
170.2146564939938
 21
122.17484504125321
 31
0.0
  0
ARC
  5
D4A
  8
0
 10
169.4146564939939
 20
117.67484504125321
 30
0.0
 40
0.5
 50
270.0
 51
0.0
  0
LINE
  5
D4B
  8
0
 10
165.4146564939939
 20
117.17484504125311
 30
0.0
 11
169.4146564939939
 21
117.17484504125311
 31
0.0
  0
LINE
  5
D4C
  8
0
 10
169.61465649399369
 20
120.9748450412533
 30
0.0
 11
165.2146564939938
 21
120.9748450412533
 31
0.0
  0
LINE
  5
D4D
  8
0
 10
180.04565649399399
 20
135.3748450412532
 30
0.0
 11
183.56465649399371
 21
135.3748450412532
 31
0.0
  0
LINE
  5
D4E
  8
3
 10
178.2566564939938
 20
128.04984504125321
 30
0.0
 11
179.04565649399399
 21
128.04984504125321
 31
0.0
  0
ARC
  5
D4F
  8
0
 10
208.77665649399381
 20
137.17484504125321
 30
0.0
 40
25.912500000000001
 50
193.3480000000028
 51
197.5049999999994
  0
ARC
  5
D50
  8
0
 10
189.7926564939938
 20
125.4838450412533
 30
0.0
 40
6.9281100000000002
 50
145.77059999999989
 51
154.02199999999749
  0
LINE
  5
D51
  8
0
 10
183.56465649399371
 20
127.2748450412532
 30
0.0
 11
180.04565649399399
 21
127.2748450412532
 31
0.0
  0
LINE
  5
D52
  8
3
 10
180.04565649399399
 20
128.04984504125321
 30
0.0
 11
183.56465649399371
 21
128.04984504125321
 31
0.0
  0
LINE
  5
D53
  8
0
 10
189.06465649399371
 20
135.3748450412532
 30
0.0
 11
192.4146564939941
 21
135.3748450412532
 31
0.0
  0
LINE
  5
D54
  8
3
 10
191.63965649399401
 20
128.04984504125321
 30
0.0
 11
192.4146564939939
 21
127.2748450412532
 31
0.0
  0
LINE
  5
D55
  8
0
 10
194.9146564939939
 20
127.2748450412532
 30
0.0
 11
189.06465649399371
 21
127.2748450412532
 31
0.0
  0
LINE
  5
D56
  8
3
 10
189.06465649399371
 20
128.04984504125321
 30
0.0
 11
191.63965649399401
 21
128.04984504125321
 31
0.0
  0
LINE
  5
D57
  8
0
 10
192.4146564939941
 20
147.07484504125321
 30
0.0
 11
192.4146564939939
 21
127.2748450412532
 31
0.0
  0
LINE
  5
D58
  8
0
 10
184.06465649399371
 20
129.3808450412532
 30
0.0
 11
187.86365649399369
 21
129.3808450412532
 31
0.0
  0
LINE
  5
D59
  8
0
 10
179.04565649399399
 20
124.17484504125321
 30
0.0
 11
180.04565649399399
 21
124.17484504125321
 31
0.0
  0
LINE
  5
D5A
  8
0
 10
184.06465649399371
 20
121.5868450412532
 30
0.0
 11
183.56465649399371
 21
122.4528450412532
 31
0.0
  0
LINE
  5
D5B
  8
0
 10
187.86365649399369
 20
121.5868450412532
 30
0.0
 11
189.06465649399371
 21
123.6648450412532
 31
0.0
  0
LINE
  5
D5C
  8
0
 10
184.06465649399371
 20
121.5868450412532
 30
0.0
 11
187.86365649399369
 21
121.5868450412532
 31
0.0
  0
ARC
  5
D5D
  8
0
 10
182.13565649399391
 20
125.4838450412533
 30
0.0
 40
6.9281100000000002
 50
0.0
 51
34.229000000000617
  0
LINE
  5
D5E
  8
0
 10
179.04565649399399
 20
127.2748450412532
 30
0.0
 11
175.9146564939939
 21
127.2748450412532
 31
0.0
  0
LINE
  5
D5F
  8
3
 10
176.9146564939939
 20
127.2748450412532
 30
0.0
 11
178.2566564939938
 21
128.04984504125321
 31
0.0
  0
LINE
  5
D60
  8
0
 10
175.9146564939939
 20
135.3748450412532
 30
0.0
 11
179.04565649399399
 21
135.3748450412532
 31
0.0
  0
LINE
  5
D61
  8
0
 10
164.9146564939939
 20
151.87484504125311
 30
0.0
 11
164.9146564939939
 21
117.67484504125321
 31
0.0
  0
ARC
  5
D62
  8
0
 10
163.1516564939937
 20
137.17484504125321
 30
0.0
 40
25.912500000000001
 50
342.49500000000057
 51
17.504999999999441
  0
LINE
  5
D63
  8
0
 10
189.06465649399371
 20
123.6648450412532
 30
0.0
 11
189.06465649399371
 21
150.6848450412532
 31
0.0
  0
LINE
  5
D64
  8
0
 10
183.56465649399371
 20
151.90084504125321
 30
0.0
 11
183.56465649399371
 21
122.44884504125331
 31
0.0
  0
LINE
  5
D65
  8
0
 10
175.9146564939939
 20
123.17484504125321
 30
0.0
 11
175.9146564939939
 21
151.17484504125321
 31
0.0
  0
LINE
  5
D66
  8
0
 10
174.61465649399369
 20
152.17484504125309
 30
0.0
 11
174.61465649399389
 21
122.17484504125321
 31
0.0
  0
LINE
  5
D67
  8
0
 10
194.9146564939939
 20
147.07484504125321
 30
0.0
 11
194.9146564939939
 21
127.2748450412532
 31
0.0
  0
LINE
  5
D68
  8
0
 10
179.04565649399399
 20
150.17484504125321
 30
0.0
 11
179.04565649399399
 21
124.17484504125321
 31
0.0
  0
LINE
  5
D69
  8
0
 10
180.04565649399399
 20
124.17484504125321
 30
0.0
 11
180.04565649399399
 21
150.17484504125321
 31
0.0
  0
LINE
  5
D6A
  8
1
 10
142.4146564939939
 20
137.17484504125321
 30
0.0
 11
222.4145564939941
 21
137.17484504125329
 31
0.0
  0
LINE
  5
D6B
  8
0
 10
194.9146564939939
 20
147.07484504125321
 30
0.0
 11
195.9146564939939
 21
146.07484504125321
 31
0.0
  0
LINE
  5
D6C
  8
0
 10
194.9146564939939
 20
127.2748450412532
 30
0.0
 11
195.9146564939939
 21
128.2748450412532
 31
0.0
  0
ARC
  5
D6D
  8
0
 10
208.4146564939939
 20
168.67484504125321
 30
0.0
 40
0.5
 50
90.0
 51
179.99999195649951
  0
ARC
  5
D6E
  8
0
 10
211.380656493994
 20
168.67484504125321
 30
0.0
 40
0.5
 50
0.0
 51
90.0
  0
LINE
  5
D6F
  8
0
 10
211.380656493994
 20
169.17484504125321
 30
0.0
 11
208.4146564939939
 21
169.17484504125321
 31
0.0
  0
LINE
  5
D70
  8
0
 10
196.4146564939939
 20
147.17484504125321
 30
0.0
 11
207.9146564939939
 21
147.17484504125321
 31
0.0
  0
ARC
  5
D71
  8
0
 10
196.4146564939939
 20
146.67484504125321
 30
0.0
 40
0.5
 50
90.0
 51
180.0
  0
ARC
  5
D72
  8
0
 10
216.9146564939939
 20
144.9658450412532
 30
0.0
 40
0.5
 50
0.0
 51
59.999999999999858
  0
LINE
  5
D73
  8
0
 10
213.9146564939939
 20
147.2748450412532
 30
0.0
 11
217.1646564939939
 21
145.3988450412532
 31
0.0
  0
LINE
  5
D74
  8
0
 10
213.9146564939939
 20
151.1618450412532
 30
0.0
 11
217.3476564939939
 21
145.2158450412532
 31
0.0
  0
LINE
  5
D75
  8
0
 10
207.9146564939939
 20
146.48384504125329
 30
0.0
 11
207.9146564939939
 21
168.67484504125321
 31
0.0
  0
LINE
  5
D76
  8
0
 10
211.87265649399379
 20
168.7618450412532
 30
0.0
 11
213.9146564939939
 21
157.1828450412531
 31
0.0
  0
ARC
  5
D77
  8
0
 10
210.9146564939939
 20
138.14084504125319
 30
0.0
 40
0.965926
 50
193.52199999999991
 51
346.47800000000018
  0
ARC
  5
D78
  8
0
 10
216.9146564939939
 20
129.38384504125329
 30
0.0
 40
0.5
 50
300.00000000000011
 51
0.0
  0
ARC
  5
D79
  8
0
 10
213.8196564939939
 20
128.17484504125321
 30
0.0
 40
1.0
 50
270.0
 51
300.00000000000011
  0
LINE
  5
D7A
  8
0
 10
214.3196564939939
 20
127.30884504125321
 30
0.0
 11
217.1646564939939
 21
128.9508450412531
 31
0.0
  0
LINE
  5
D7B
  8
0
 10
196.380656493994
 20
127.17484504125321
 30
0.0
 11
213.8196564939939
 21
127.17484504125321
 31
0.0
  0
LINE
  5
D7C
  8
0
 10
217.4146564939939
 20
129.38384504125329
 30
0.0
 11
217.4146564939939
 21
144.9658450412532
 31
0.0
  0
LINE
  5
D7D
  8
0
 10
213.9146564939939
 20
157.1828450412531
 30
0.0
 11
213.9146564939939
 21
147.274845041253
 31
0.0
  0
LINE
  5
D7E
  8
0
 10
211.880656493994
 20
138.14084504125319
 30
0.0
 11
211.880656493994
 21
168.7188450412533
 31
0.0
  0
LINE
  5
D7F
  8
0
 10
209.94865649399381
 20
138.14084504125319
 30
0.0
 11
209.94865649399381
 21
169.17484504125321
 31
0.0
  0
LINE
  5
D80
  8
0
 10
211.85365649399401
 20
137.9148450412533
 30
0.0
 11
213.9146564939939
 21
146.48384504125329
 31
0.0
  0
LINE
  5
D81
  8
0
 10
209.9756564939938
 20
137.9148450412533
 30
0.0
 11
207.9146564939939
 21
146.48384504125329
 31
0.0
  0
LINE
  5
D82
  8
0
 10
195.9146564939939
 20
146.67484504125321
 30
0.0
 11
195.9146564939939
 21
127.85684504125329
 31
0.0
  0
LINE
  5
D83
  8
0
 10
195.9146564939939
 20
146.07484504125321
 30
0.0
 11
195.9146564939939
 21
128.2748450412532
 31
0.0
  0
ARC
  5
D84
  8
0
 10
196.380656493994
 20
127.67484504125321
 30
0.0
 40
0.5
 50
158.72499999999789
 51
270.0
  0
LINE
  5
D85
  8
3
 10
213.9146564939939
 20
147.274845041253
 30
0.0
 11
213.9146564939939
 21
127.1793677687854
 31
0.0
  0
ARC
  5
D86
  8
0
 10
211.48687800336239
 20
216.67484504125261
 30
0.0
 40
0.5
 50
13.696692943345541
 51
89.999999999993491
  0
ARC
  5
D87
  8
0
 10
211.48687800336239
 20
197.6748450412538
 30
0.0
 40
0.5
 50
270.00000000000648
 51
346.30330705665438
  0
LINE
  5
D88
  8
0
 10
207.9146564939939
 20
205.52443452011241
 30
0.0
 11
207.9146564939939
 21
208.82525556239381
 31
0.0
  0
LINE
  5
D89
  8
0
 10
207.9146564939939
 20
208.82525556239381
 30
0.0
 11
209.85558591446321
 21
216.79318115773231
 31
0.0
  0
LINE
  5
D8A
  8
0
 10
207.9146564939939
 20
205.52443452011241
 30
0.0
 11
209.85558591446321
 21
197.55650892477391
 31
0.0
  0
TEXT
  5
EB4
  8
0
 62
     3
 10
0.0
 20
0.0
 30
0.0
 40
10.0
  1
EL1-32
  7
STANDARD1
  0
ENDSEC
  0
EOF
