  0
SECTION
  2
HEADER
  9
$ACADVER
  1
AC1009
  9
$INSBASE
 10
0.0
 20
0.0
 30
0.0
  9
$EXTMIN
 10
0.0
 20
-2.960436562073669
 30
0.0
  9
$EXTMAX
 10
192.41577450104941
 20
153.01580488020281
 30
0.0
  9
$LIMMIN
 10
0.0
 20
0.0
  9
$LIMMAX
 10
375.0
 20
270.0
  9
$ORTHOMODE
 70
     0
  9
$REGENMODE
 70
     1
  9
$FILLMODE
 70
     1
  9
$QTEXTMODE
 70
     0
  9
$MIRRTEXT
 70
     0
  9
$DRAGMODE
 70
     2
  9
$LTSCALE
 40
5.0
  9
$OSMODE
 70
  3071
  9
$ATTMODE
 70
     1
  9
$TEXTSIZE
 40
0.2
  9
$TRACEWID
 40
0.05
  9
$TEXTSTYLE
  7
STANDARD
  9
$CLAYER
  8
0
  9
$CELTYPE
  6
BYLAYER
  9
$CECOLOR
 62
   256
  9
$DIMSCALE
 40
1.0
  9
$DIMASZ
 40
3.0
  9
$DIMEXO
 40
0.0625
  9
$DIMDLI
 40
0.38
  9
$DIMRND
 40
0.0
  9
$DIMDLE
 40
0.0
  9
$DIMEXE
 40
0.18
  9
$DIMTP
 40
0.0
  9
$DIMTM
 40
0.0
  9
$DIMTXT
 40
3.0
  9
$DIMCEN
 40
0.09
  9
$DIMTSZ
 40
0.0
  9
$DIMTOL
 70
     0
  9
$DIMLIM
 70
     0
  9
$DIMTIH
 70
     1
  9
$DIMTOH
 70
     1
  9
$DIMSE1
 70
     0
  9
$DIMSE2
 70
     0
  9
$DIMTAD
 70
     0
  9
$DIMZIN
 70
     0
  9
$DIMBLK
  1

  9
$DIMASO
 70
     1
  9
$DIMSHO
 70
     1
  9
$DIMPOST
  1

  9
$DIMAPOST
  1

  9
$DIMALT
 70
     0
  9
$DIMALTD
 70
     2
  9
$DIMALTF
 40
25.399999999999999
  9
$DIMLFAC
 40
1.0
  9
$DIMTOFL
 70
     0
  9
$DIMTVP
 40
0.0
  9
$DIMTIX
 70
     0
  9
$DIMSOXD
 70
     0
  9
$DIMSAH
 70
     0
  9
$DIMBLK1
  1

  9
$DIMBLK2
  1

  9
$DIMSTYLE
  2
STANDARD
  9
$DIMCLRD
 70
     0
  9
$DIMCLRE
 70
     0
  9
$DIMCLRT
 70
     0
  9
$DIMTFAC
 40
1.0
  9
$DIMGAP
 40
0.09
  9
$LUNITS
 70
     2
  9
$LUPREC
 70
     4
  9
$SKETCHINC
 40
0.1
  9
$FILLETRAD
 40
8.0
  9
$AUNITS
 70
     0
  9
$AUPREC
 70
     0
  9
$MENU
  1
E:\r13\win\SUPPORT\ACAD
  9
$ELEVATION
 40
0.0
  9
$PELEVATION
 40
0.0
  9
$THICKNESS
 40
0.0
  9
$LIMCHECK
 70
     0
  9
$BLIPMODE
 70
     0
  9
$CHAMFERA
 40
0.0
  9
$CHAMFERB
 40
0.0
  9
$SKPOLY
 70
     0
  9
$TDCREATE
 40
2450372.5377547452
  9
$TDUPDATE
 40
2456598.6783203012
  9
$TDINDWG
 40
0.2575173032
  9
$TDUSRTIMER
 40
0.2575173032
  9
$USRTIMER
 70
     1
  9
$ANGBASE
 50
0.0
  9
$ANGDIR
 70
     0
  9
$PDMODE
 70
     0
  9
$PDSIZE
 40
0.0
  9
$PLINEWID
 40
0.0
  9
$COORDS
 70
     1
  9
$SPLFRAME
 70
     0
  9
$SPLINETYPE
 70
     6
  9
$SPLINESEGS
 70
     8
  9
$ATTDIA
 70
     0
  9
$ATTREQ
 70
     1
  9
$HANDLING
 70
     1
  9
$HANDSEED
  5
65F
  9
$SURFTAB1
 70
     6
  9
$SURFTAB2
 70
     6
  9
$SURFTYPE
 70
     6
  9
$SURFU
 70
     6
  9
$SURFV
 70
     6
  9
$UCSNAME
  2

  9
$UCSORG
 10
0.0
 20
0.0
 30
0.0
  9
$UCSXDIR
 10
1.0
 20
0.0
 30
0.0
  9
$UCSYDIR
 10
0.0
 20
1.0
 30
0.0
  9
$PUCSNAME
  2

  9
$PUCSORG
 10
0.0
 20
0.0
 30
0.0
  9
$PUCSXDIR
 10
1.0
 20
0.0
 30
0.0
  9
$PUCSYDIR
 10
0.0
 20
1.0
 30
0.0
  9
$USERI1
 70
     3
  9
$USERI2
 70
     1
  9
$USERI3
 70
     1
  9
$USERI4
 70
     0
  9
$USERI5
 70
     0
  9
$USERR1
 40
1.0
  9
$USERR2
 40
3.0
  9
$USERR3
 40
3.0
  9
$USERR4
 40
3.0
  9
$USERR5
 40
10.0
  9
$WORLDVIEW
 70
     1
  9
$SHADEDGE
 70
     3
  9
$SHADEDIF
 70
    70
  9
$TILEMODE
 70
     1
  9
$MAXACTVP
 70
    16
  9
$PLIMCHECK
 70
     0
  9
$PEXTMIN
 10
1.0000000000000000E+020
 20
1.0000000000000000E+020
 30
1.0000000000000000E+020
  9
$PEXTMAX
 10
-1.0000000000000000E+020
 20
-1.0000000000000000E+020
 30
-1.0000000000000000E+020
  9
$PLIMMIN
 10
0.0
 20
0.0
  9
$PLIMMAX
 10
12.0
 20
9.0
  9
$UNITMODE
 70
     0
  9
$VISRETAIN
 70
     0
  9
$PLINEGEN
 70
     0
  9
$PSLTSCALE
 70
     0
  0
ENDSEC
  0
SECTION
  2
TABLES
  0
TABLE
  2
VPORT
 70
     1
  0
VPORT
  2
*ACTIVE
 70
     0
 10
0.0
 20
0.0
 11
1.0
 21
1.0
 12
187.49427839065231
 22
169.9063198933564
 13
0.0
 23
0.0
 14
10.0
 24
10.0
 15
10.0
 25
10.0
 16
0.0
 26
0.0
 36
1.0
 17
0.0
 27
0.0
 37
0.0
 40
348.89937369551939
 41
1.831871345029239
 42
50.0
 43
0.0
 44
0.0
 50
0.0
 51
0.0
 71
     0
 72
   100
 73
     1
 74
     0
 75
     0
 76
     0
 77
     0
 78
     0
  0
ENDTAB
  0
TABLE
  2
LTYPE
 70
     4
  0
LTYPE
  2
CONTINUOUS
 70
     0
  3
Solid Line
 72
    65
 73
     0
 40
0.0
  0
LTYPE
  2
CENTER
 70
     0
  3
____ _ ____ _ ____ _ ____ _ ____ _ ____ _ ____
 72
    65
 73
     4
 40
2.0
 49
1.25
 49
-0.25
 49
0.25
 49
-0.25
  0
LTYPE
  2
HIDDEN
 70
     0
  3
_ _ _ _ _ _ _ _ _ _ _ _ _ _ _ _ _ _ _ _ _ _ _
 72
    65
 73
     2
 40
0.375
 49
0.25
 49
-0.125
  0
LTYPE
  2
PHANTOM2
 70
     0
  3
___ _ _ ___ _ _ ___ _ _ ___ _ _
 72
    65
 73
     6
 40
1.25
 49
0.625
 49
-0.125
 49
0.125
 49
-0.125
 49
0.125
 49
-0.125
  0
ENDTAB
  0
TABLE
  2
LAYER
 70
     4
  0
LAYER
  2
0
 70
     0
 62
     7
  6
CONTINUOUS
  0
LAYER
  2
1
 70
     0
 62
     1
  6
CENTER
  0
LAYER
  2
2
 70
     0
 62
     2
  6
HIDDEN
  0
LAYER
  2
3
 70
     0
 62
     3
  6
CONTINUOUS
  0
ENDTAB
  0
TABLE
  2
STYLE
 70
     2
  0
STYLE
  2
STANDARD
 70
     0
 40
0.0
 41
1.0
 50
0.0
 71
     0
 42
0.2
  3
SIMPLEX
  4
BIGFONT
  0
STYLE
  2
STANDARD1
 70
     0
 40
0.0
 41
1.0
 50
0.0
 71
     0
 42
3.0
  3
txt
  4

  0
ENDTAB
  0
TABLE
  2
VIEW
 70
     0
  0
ENDTAB
  0
TABLE
  2
UCS
 70
     0
  0
ENDTAB
  0
TABLE
  2
APPID
 70
     7
  0
APPID
  2
ACAD
 70
     0
  0
APPID
  2
GENIUS_GENODEF_13
 70
     0
  0
APPID
  2
GENIUS_GENFIL_13
 70
     0
  0
APPID
  2
GENIUS_GENOBJ-N-CHA_13
 70
     0
  0
APPID
  2
GENIUS_GENOREF_13
 70
     0
  0
APPID
  2
ACAD_MLEADERVER
 70
     0
  0
APPID
  2
ACAD_NAV_VCDISPLAY
 70
     0
  0
ENDTAB
  0
TABLE
  2
DIMSTYLE
 70
     1
  0
DIMSTYLE
  2
STANDARD
 70
     0
  3

  4

  5

  6

  7

 40
1.0
 41
0.18
 42
0.0625
 43
0.38
 44
0.18
 45
0.0
 46
0.0
 47
0.0
 48
0.0
140
0.18
141
0.09
142
0.0
143
25.399999999999999
144
1.0
145
0.0
146
1.0
147
0.09
 71
     0
 72
     0
 73
     1
 74
     1
 75
     0
 76
     0
 77
     0
 78
     0
170
     0
171
     2
172
     0
173
     0
174
     0
175
     0
176
     0
177
     0
178
     0
  0
ENDTAB
  0
ENDSEC
  0
SECTION
  2
BLOCKS
  0
BLOCK
  8
0
  2
$MODEL_SPACE
 70
     0
 10
0.0
 20
0.0
 30
0.0
  3
$MODEL_SPACE
  1

  0
ENDBLK
  5
1FE
  8
0
  0
BLOCK
 67
     1
  8
0
  2
$PAPER_SPACE
 70
     0
 10
0.0
 20
0.0
 30
0.0
  3
$PAPER_SPACE
  1

  0
ENDBLK
  5
1FC
 67
     1
  8
0
  0
ENDSEC
  0
SECTION
  2
ENTITIES
  0
ARC
  5
41E
  8
3
 10
99.209118743958754
 20
138.51580488020289
 30
0.0
 40
31.935543275418951
 50
349.7555822463454
 51
10.244417753654179
  0
ARC
  5
424
  8
0
 10
124.22377450104921
 20
92.423615924045635
 30
0.0
 40
8.5850000000000009
 50
270.0
 51
321.33175222930311
  0
ARC
  5
426
  8
0
 10
134.09290707009319
 20
157.89080488020281
 30
0.0
 40
12.625
 50
240.35126699478431
 51
270.0
  0
CIRCLE
  5
428
  8
3
 10
123.4157745010494
 20
138.51580488020281
 30
0.0
 40
5.75
  0
LINE
  5
429
  8
2
 10
117.9157745010494
 20
59.338615924045598
 30
0.0
 11
117.9157745010494
 21
76.63861592404561
 31
0.0
  0
LINE
  5
42E
  8
2
 10
128.91577450104941
 20
59.338615924045598
 30
0.0
 11
128.91577450104941
 21
76.63861592404561
 31
0.0
  0
LINE
  5
42F
  8
1
 10
123.4157745010492
 20
88.838615924045598
 30
0.0
 11
123.4157745010494
 21
54.338615924045598
 31
0.0
  0
LINE
  5
430
  8
0
 10
114.05241246382791
 20
59.338615924045598
 30
0.0
 11
113.9157745010493
 21
81.806276522976418
 31
0.0
  0
LINE
  5
431
  8
0
 10
128.91577450104941
 20
59.138615924045688
 30
0.0
 11
117.9157745010494
 21
59.138615924045553
 31
0.0
  0
LINE
  5
433
  8
0
 10
117.9157745010494
 20
59.138615924045553
 30
0.0
 11
117.9157745010494
 21
59.338615924045598
 31
0.0
  0
LINE
  5
434
  8
0
 10
114.05241246382791
 20
59.338615924045598
 30
0.0
 11
132.77913653827059
 21
59.338615924045598
 31
0.0
  0
LINE
  5
439
  8
0
 10
128.91577450104941
 20
59.138615924045553
 30
0.0
 11
128.91577450104941
 21
59.338615924045598
 31
0.0
  0
LINE
  5
43A
  8
2
 10
118.4157745010494
 20
77.13861592404561
 30
0.0
 11
117.9157745010494
 21
76.63861592404561
 31
0.0
1001
GENIUS_GENFIL_13
1070
     0
1040
0.5
1040
0.5
1040
20.0
1040
0.0
1002
{
1002
}
1001
GENIUS_GENOBJ-N-CHA_13
1002
{
1000
OWNER
1000
GEN
1002
}
1001
GENIUS_GENODEF_13
1002
{
1000
HIER
1070
     0
1002
}
1002
{
1000
MANEDIT
1070
     0
1002
}
1002
{
1000
NOSEL
1070
     0
1002
}
1002
{
1000
BEHIND
1070
     0
1002
}
1002
{
1000
OTHER
1070
     0
1002
}
1002
{
1000
REACTOR
1002
}
  0
ARC
  5
43E
  8
0
 10
115.93573681237621
 20
81.818615924045616
 30
0.0
 40
2.02
 50
90.0
 51
180.3499999999986
  0
LINE
  5
443
  8
2
 10
118.4157745010494
 20
77.13861592404561
 30
0.0
 11
128.41577450104941
 21
77.13861592404561
 31
0.0
  0
LINE
  5
447
  8
2
 10
128.41577450104941
 20
77.13861592404561
 30
0.0
 11
128.91577450104941
 21
76.63861592404561
 31
0.0
1001
GENIUS_GENFIL_13
1070
     0
1040
0.5
1040
0.5
1040
20.0
1040
0.0
1002
{
1002
}
1001
GENIUS_GENOBJ-N-CHA_13
1002
{
1000
OWNER
1000
GEN
1002
}
1001
GENIUS_GENODEF_13
1002
{
1000
HIER
1070
     0
1002
}
1002
{
1000
MANEDIT
1070
     0
1002
}
1002
{
1000
NOSEL
1070
     0
1002
}
1002
{
1000
BEHIND
1070
     0
1002
}
1002
{
1000
OTHER
1070
     0
1002
}
1002
{
1000
REACTOR
1002
}
  0
LINE
  5
448
  8
0
 10
115.93573681237621
 20
83.838615924045598
 30
0.0
 11
124.22377450104921
 21
83.838615924045598
 31
0.0
  0
CIRCLE
  5
44E
  8
0
 10
142.82539314876209
 20
138.51580488020281
 30
0.0
 40
0.9
  0
CIRCLE
  5
44F
  8
0
 10
137.5677440842118
 20
138.51580488020289
 30
0.0
 40
0.9
  0
CIRCLE
  5
450
  8
0
 10
134.960613450746
 20
138.51580488020289
 30
0.0
 40
0.9
  0
CIRCLE
  5
451
  8
0
 10
140.1966972242144
 20
138.51580488020289
 30
0.0
 40
0.9
  0
CIRCLE
  5
452
  8
0
 10
145.48204366096789
 20
138.51580488020281
 30
0.0
 40
0.9
  0
ARC
  5
453
  8
0
 10
183.09258873804961
 20
88.616615924045576
 30
0.0
 40
2.778
 50
229.1546652999981
 51
315.26356537728662
  0
LINE
  5
454
  8
0
 10
184.91795114495349
 20
94.338615924045584
 30
0.0
 11
179.6412694202202
 21
94.338615924045584
 31
0.0
  0
ARC
  5
455
  8
0
 10
179.6412694202202
 20
-72.311384075954365
 30
0.0
 40
166.65000000000001
 50
90.0
 51
106.9966858557158
  0
ARC
  5
456
  8
0
 10
188.97034057821841
 20
-11.633925238104069
 30
0.0
 40
101.0
 50
97.989843194302779
 51
119.4133831322488
  0
ARC
  5
458
  8
0
 10
145.8549142802527
 20
65.033744540958509
 30
0.0
 40
13.040902725321709
 50
119.8274235804669
 51
179.67703989549781
  0
ARC
  5
45B
  8
0
 10
184.91795114495349
 20
91.838615924045484
 30
0.0
 40
2.5
 50
2.3910729895668861
 51
90.0
  0
ARC
  5
45C
  8
0
 10
179.89633245445779
 20
92.124864049507636
 30
0.0
 40
7.5216430270795342
 50
311.3801647792157
 51
358.61388278215952
  0
LINE
  5
45D
  8
0
 10
187.4182694202203
 20
91.838615924045484
 30
0.0
 11
187.4182694202203
 21
91.838615924045484
 31
0.0
  0
LINE
  5
45E
  8
0
 10
184.69126942022029
 20
94.338615924045584
 30
0.0
 11
184.91795114495409
 21
94.338615924045584
 31
0.0
  0
LINE
  5
461
  8
0
 10
132.77913653827059
 20
59.338615924045598
 30
0.0
 11
132.81428926934819
 21
65.118851628062714
 31
0.0
  0
ARC
  5
462
  8
0
 10
123.4157745010494
 20
138.51580488020281
 30
0.0
 40
9.5
 50
60.091192450695623
 51
299.90880754930441
  0
ARC
  5
466
  8
0
 10
180.66577450104941
 20
138.51580488020281
 30
0.0
 40
6.75
 50
270.0
 51
90.0
  0
LINE
  5
467
  8
0
 10
180.66577450104941
 20
145.26580488020269
 30
0.0
 11
134.09290707009319
 21
145.26580488020269
 31
0.0
  0
LINE
  5
46A
  8
0
 10
180.66577450104941
 20
131.76580488020269
 30
0.0
 11
134.09290707009319
 21
131.76580488020269
 31
0.0
  0
ARC
  5
46B
  8
0
 10
134.09290707009319
 20
119.14080488020269
 30
0.0
 40
12.625
 50
90.000000000000028
 51
119.6487330052157
  0
LINE
  5
46C
  8
3
 10
180.66577450104941
 20
143.76580488020281
 30
0.0
 11
134.09290707009319
 21
143.76580488020281
 31
0.0
  0
ARC
  5
46D
  8
3
 10
180.66577450104941
 20
138.51580488020281
 30
0.0
 40
5.25
 50
270.0
 51
90.0
  0
LINE
  5
46E
  8
3
 10
180.66577450104941
 20
133.26580488020281
 30
0.0
 11
134.09290707009319
 21
133.26580488020281
 31
0.0
  0
ARC
  5
470
  8
3
 10
123.4157745010494
 20
138.51580488020281
 30
0.0
 40
8.0
 50
60.091192450695623
 51
299.90880754930441
  0
ARC
  5
471
  8
3
 10
134.09290707009319
 20
119.14080488020269
 30
0.0
 40
14.125
 50
90.000000000000028
 51
119.6487330052157
  0
ARC
  5
472
  8
3
 10
134.09290707009319
 20
157.89080488020281
 30
0.0
 40
14.125
 50
240.35126699478431
 51
270.0
  0
LINE
  5
473
  8
1
 10
123.4157745010494
 20
153.01580488020281
 30
0.0
 11
123.4157745010494
 21
124.01580488020279
 31
0.0
  0
LINE
  5
474
  8
1
 10
192.41577450104941
 20
138.51580488020281
 30
0.0
 11
108.9157745010494
 21
138.51580488020281
 31
0.0
  0
ARC
  5
47E
  8
0
 10
176.0435680329777
 20
80.463298127009438
 30
0.0
 40
8.0
 50
49.154665299998108
 51
97.989843194302779
  0
LINE
  5
4A5
  8
2
 10
126.7907745010494
 20
60.338615924046593
 30
0.0
 11
120.0407745010492
 21
60.338615924046557
 31
0.0
  0
LINE
  5
4A6
  8
2
 10
126.7907745010494
 20
60.338615924046557
 30
0.0
 11
127.9907745010489
 21
59.13861592404561
 31
0.0
  0
LINE
  5
4A7
  8
2
 10
126.7907745010495
 20
73.221147678776134
 30
0.0
 11
127.4157745010494
 21
72.13861592404561
 31
0.0
  0
LINE
  5
4A8
  8
2
 10
127.4157745010494
 20
59.713615924045833
 30
0.0
 11
127.4157745010494
 21
72.13861592404561
 31
0.0
  0
LINE
  5
4A9
  8
2
 10
126.7907745010494
 20
60.338615924046557
 30
0.0
 11
126.7907745010495
 21
74.181242963066083
 31
0.0
  0
LINE
  5
4AA
  8
2
 10
120.0407745010492
 20
73.221147678776134
 30
0.0
 11
119.4157745010492
 21
72.13861592404561
 31
0.0
  0
LINE
  5
4AB
  8
2
 10
123.4157745010493
 20
76.129800121581155
 30
0.0
 11
126.7907745010495
 21
74.181242963066083
 31
0.0
  0
LINE
  5
4AC
  8
2
 10
123.4157745010493
 20
76.129800121581155
 30
0.0
 11
120.0407745010492
 21
74.181242963066083
 31
0.0
  0
LINE
  5
4AD
  8
2
 10
120.0407745010492
 20
60.338615924046557
 30
0.0
 11
118.84077450104969
 21
59.13861592404561
 31
0.0
  0
LINE
  5
4AE
  8
2
 10
120.0407745010492
 20
74.181242963066097
 30
0.0
 11
126.7907745010494
 21
74.181242963066097
 31
0.0
  0
LINE
  5
4AF
  8
2
 10
119.4157745010492
 20
72.13861592404561
 30
0.0
 11
127.4157745010494
 21
72.13861592404561
 31
0.0
  0
LINE
  5
4B1
  8
2
 10
120.0407745010492
 20
60.338615924046557
 30
0.0
 11
120.0407745010492
 21
74.181242963066083
 31
0.0
  0
LINE
  5
4B2
  8
2
 10
119.4157745010492
 20
59.713615924045833
 30
0.0
 11
119.4157745010492
 21
72.13861592404561
 31
0.0
  0
TEXT
  5
5C9
  8
0
 62
     3
 10
0.0
 20
0.0
 30
0.0
 40
10.0
  1
ELH63
  7
STANDARD1
  0
ENDSEC
  0
EOF
