  0
SECTION
  2
HEADER
  9
$ACADVER
  1
AC1009
  9
$INSBASE
 10
0.0
 20
0.0
 30
0.0
  9
$EXTMIN
 10
0.0
 20
-2.960436562073669
 30
0.0
  9
$EXTMAX
 10
279.93050234419428
 20
231.59801000942929
 30
0.0
  9
$LIMMIN
 10
0.0
 20
0.0
  9
$LIMMAX
 10
375.0
 20
270.0
  9
$ORTHOMODE
 70
     1
  9
$REGENMODE
 70
     1
  9
$FILLMODE
 70
     1
  9
$QTEXTMODE
 70
     0
  9
$MIRRTEXT
 70
     0
  9
$DRAGMODE
 70
     2
  9
$LTSCALE
 40
5.0
  9
$OSMODE
 70
  3071
  9
$ATTMODE
 70
     1
  9
$TEXTSIZE
 40
0.2
  9
$TRACEWID
 40
0.05
  9
$TEXTSTYLE
  7
STANDARD
  9
$CLAYER
  8
0
  9
$CELTYPE
  6
BYLAYER
  9
$CECOLOR
 62
   256
  9
$DIMSCALE
 40
1.0
  9
$DIMASZ
 40
3.0
  9
$DIMEXO
 40
0.0625
  9
$DIMDLI
 40
0.38
  9
$DIMRND
 40
0.0
  9
$DIMDLE
 40
0.0
  9
$DIMEXE
 40
0.18
  9
$DIMTP
 40
0.0
  9
$DIMTM
 40
0.0
  9
$DIMTXT
 40
3.0
  9
$DIMCEN
 40
0.09
  9
$DIMTSZ
 40
0.0
  9
$DIMTOL
 70
     0
  9
$DIMLIM
 70
     0
  9
$DIMTIH
 70
     1
  9
$DIMTOH
 70
     1
  9
$DIMSE1
 70
     0
  9
$DIMSE2
 70
     0
  9
$DIMTAD
 70
     0
  9
$DIMZIN
 70
     0
  9
$DIMBLK
  1

  9
$DIMASO
 70
     1
  9
$DIMSHO
 70
     1
  9
$DIMPOST
  1

  9
$DIMAPOST
  1

  9
$DIMALT
 70
     0
  9
$DIMALTD
 70
     2
  9
$DIMALTF
 40
25.399999999999999
  9
$DIMLFAC
 40
1.0
  9
$DIMTOFL
 70
     0
  9
$DIMTVP
 40
0.0
  9
$DIMTIX
 70
     0
  9
$DIMSOXD
 70
     0
  9
$DIMSAH
 70
     0
  9
$DIMBLK1
  1

  9
$DIMBLK2
  1

  9
$DIMSTYLE
  2
STANDARD
  9
$DIMCLRD
 70
     0
  9
$DIMCLRE
 70
     0
  9
$DIMCLRT
 70
     0
  9
$DIMTFAC
 40
1.0
  9
$DIMGAP
 40
0.09
  9
$LUNITS
 70
     2
  9
$LUPREC
 70
     4
  9
$SKETCHINC
 40
0.1
  9
$FILLETRAD
 40
10.0
  9
$AUNITS
 70
     0
  9
$AUPREC
 70
     0
  9
$MENU
  1
E:\r13\win\SUPPORT\ACAD
  9
$ELEVATION
 40
0.0
  9
$PELEVATION
 40
0.0
  9
$THICKNESS
 40
0.0
  9
$LIMCHECK
 70
     0
  9
$BLIPMODE
 70
     0
  9
$CHAMFERA
 40
0.0
  9
$CHAMFERB
 40
0.0
  9
$SKPOLY
 70
     0
  9
$TDCREATE
 40
2450372.5377547452
  9
$TDUPDATE
 40
2456598.678675463
  9
$TDINDWG
 40
0.3076325116
  9
$TDUSRTIMER
 40
0.3076325116
  9
$USRTIMER
 70
     1
  9
$ANGBASE
 50
0.0
  9
$ANGDIR
 70
     0
  9
$PDMODE
 70
     0
  9
$PDSIZE
 40
0.0
  9
$PLINEWID
 40
0.0
  9
$COORDS
 70
     1
  9
$SPLFRAME
 70
     0
  9
$SPLINETYPE
 70
     6
  9
$SPLINESEGS
 70
     8
  9
$ATTDIA
 70
     0
  9
$ATTREQ
 70
     1
  9
$HANDLING
 70
     1
  9
$HANDSEED
  5
A5F
  9
$SURFTAB1
 70
     6
  9
$SURFTAB2
 70
     6
  9
$SURFTYPE
 70
     6
  9
$SURFU
 70
     6
  9
$SURFV
 70
     6
  9
$UCSNAME
  2

  9
$UCSORG
 10
0.0
 20
0.0
 30
0.0
  9
$UCSXDIR
 10
1.0
 20
0.0
 30
0.0
  9
$UCSYDIR
 10
0.0
 20
1.0
 30
0.0
  9
$PUCSNAME
  2

  9
$PUCSORG
 10
0.0
 20
0.0
 30
0.0
  9
$PUCSXDIR
 10
1.0
 20
0.0
 30
0.0
  9
$PUCSYDIR
 10
0.0
 20
1.0
 30
0.0
  9
$USERI1
 70
     3
  9
$USERI2
 70
     1
  9
$USERI3
 70
     1
  9
$USERI4
 70
     0
  9
$USERI5
 70
     0
  9
$USERR1
 40
1.0
  9
$USERR2
 40
3.0
  9
$USERR3
 40
3.0
  9
$USERR4
 40
3.0
  9
$USERR5
 40
10.0
  9
$WORLDVIEW
 70
     1
  9
$SHADEDGE
 70
     3
  9
$SHADEDIF
 70
    70
  9
$TILEMODE
 70
     1
  9
$MAXACTVP
 70
    16
  9
$PLIMCHECK
 70
     0
  9
$PEXTMIN
 10
1.0000000000000000E+020
 20
1.0000000000000000E+020
 30
1.0000000000000000E+020
  9
$PEXTMAX
 10
-1.0000000000000000E+020
 20
-1.0000000000000000E+020
 30
-1.0000000000000000E+020
  9
$PLIMMIN
 10
0.0
 20
0.0
  9
$PLIMMAX
 10
12.0
 20
9.0
  9
$UNITMODE
 70
     0
  9
$VISRETAIN
 70
     0
  9
$PLINEGEN
 70
     0
  9
$PSLTSCALE
 70
     0
  0
ENDSEC
  0
SECTION
  2
TABLES
  0
TABLE
  2
VPORT
 70
     1
  0
VPORT
  2
*ACTIVE
 70
     0
 10
0.0
 20
0.0
 11
1.0
 21
1.0
 12
187.49427839065231
 22
169.9063198933564
 13
0.0
 23
0.0
 14
10.0
 24
10.0
 15
10.0
 25
10.0
 16
0.0
 26
0.0
 36
1.0
 17
0.0
 27
0.0
 37
0.0
 40
348.89937369551939
 41
1.831871345029239
 42
50.0
 43
0.0
 44
0.0
 50
0.0
 51
0.0
 71
     0
 72
   100
 73
     1
 74
     0
 75
     0
 76
     0
 77
     0
 78
     0
  0
ENDTAB
  0
TABLE
  2
LTYPE
 70
     4
  0
LTYPE
  2
CONTINUOUS
 70
     0
  3
Solid Line
 72
    65
 73
     0
 40
0.0
  0
LTYPE
  2
CENTER
 70
     0
  3
____ _ ____ _ ____ _ ____ _ ____ _ ____ _ ____
 72
    65
 73
     4
 40
2.0
 49
1.25
 49
-0.25
 49
0.25
 49
-0.25
  0
LTYPE
  2
HIDDEN
 70
     0
  3
_ _ _ _ _ _ _ _ _ _ _ _ _ _ _ _ _ _ _ _ _ _ _
 72
    65
 73
     2
 40
0.375
 49
0.25
 49
-0.125
  0
LTYPE
  2
PHANTOM2
 70
     0
  3
___ _ _ ___ _ _ ___ _ _ ___ _ _
 72
    65
 73
     6
 40
1.25
 49
0.625
 49
-0.125
 49
0.125
 49
-0.125
 49
0.125
 49
-0.125
  0
ENDTAB
  0
TABLE
  2
LAYER
 70
     4
  0
LAYER
  2
0
 70
     0
 62
     7
  6
CONTINUOUS
  0
LAYER
  2
1
 70
     0
 62
     1
  6
CENTER
  0
LAYER
  2
2
 70
     0
 62
     2
  6
HIDDEN
  0
LAYER
  2
3
 70
     0
 62
     3
  6
CONTINUOUS
  0
ENDTAB
  0
TABLE
  2
STYLE
 70
     2
  0
STYLE
  2
STANDARD
 70
     0
 40
0.0
 41
1.0
 50
0.0
 71
     0
 42
0.2
  3
SIMPLEX
  4
BIGFONT
  0
STYLE
  2
STANDARD1
 70
     0
 40
0.0
 41
1.0
 50
0.0
 71
     0
 42
3.0
  3
txt
  4

  0
ENDTAB
  0
TABLE
  2
VIEW
 70
     0
  0
ENDTAB
  0
TABLE
  2
UCS
 70
     0
  0
ENDTAB
  0
TABLE
  2
APPID
 70
     9
  0
APPID
  2
ACAD
 70
     0
  0
APPID
  2
GENIUS_GENODEF_13
 70
     0
  0
APPID
  2
GENIUS_GENFIL_13
 70
     0
  0
APPID
  2
GENIUS_GENOBJ-N-CHA_13
 70
     0
  0
APPID
  2
GENIUS_GENOREF_13
 70
     0
  0
APPID
  2
GENIUS_GENREC_14
 70
     0
  0
APPID
  2
GENIUS_GENOBJ-N-REC_13
 70
     0
  0
APPID
  2
ACAD_MLEADERVER
 70
     0
  0
APPID
  2
ACAD_NAV_VCDISPLAY
 70
     0
  0
ENDTAB
  0
TABLE
  2
DIMSTYLE
 70
     1
  0
DIMSTYLE
  2
STANDARD
 70
     0
  3

  4

  5

  6

  7

 40
1.0
 41
0.18
 42
0.0625
 43
0.38
 44
0.18
 45
0.0
 46
0.0
 47
0.0
 48
0.0
140
0.18
141
0.09
142
0.0
143
25.399999999999999
144
1.0
145
0.0
146
1.0
147
0.09
 71
     0
 72
     0
 73
     1
 74
     1
 75
     0
 76
     0
 77
     0
 78
     0
170
     0
171
     2
172
     0
173
     0
174
     0
175
     0
176
     0
177
     0
178
     0
  0
ENDTAB
  0
ENDSEC
  0
SECTION
  2
BLOCKS
  0
BLOCK
  8
0
  2
$MODEL_SPACE
 70
     0
 10
0.0
 20
0.0
 30
0.0
  3
$MODEL_SPACE
  1

  0
ENDBLK
  5
1FE
  8
0
  0
BLOCK
 67
     1
  8
0
  2
$PAPER_SPACE
 70
     0
 10
0.0
 20
0.0
 30
0.0
  3
$PAPER_SPACE
  1

  0
ENDBLK
  5
1FC
 67
     1
  8
0
  0
ENDSEC
  0
SECTION
  2
ENTITIES
  0
CIRCLE
  5
5E0
  8
3
 10
179.18050234419431
 20
213.3480100094292
 30
0.0
 40
8.0
  0
ARC
  5
5FC
  8
3
 10
159.07218751558449
 20
213.32371923420681
 30
0.0
 40
31.675434209421791
 50
346.03467063035561
 51
14.06230025499065
  0
ARC
  5
60C
  8
0
 10
194.96310444985539
 20
240.52801000942921
 30
0.0
 40
18.18
 50
239.92665235502429
 51
270.0
  0
CIRCLE
  5
60D
  8
0
 10
199.62948471337009
 20
213.3480100094292
 30
0.0
 40
1.3634999999999999
  0
CIRCLE
  5
60E
  8
0
 10
195.62922255713011
 20
213.3480100094292
 30
0.0
 40
1.3634999999999999
  0
CIRCLE
  5
60F
  8
0
 10
207.6762806769394
 20
213.3480100094292
 30
0.0
 40
1.3634999999999999
  0
CIRCLE
  5
610
  8
0
 10
203.64529425765369
 20
213.3480100094292
 30
0.0
 40
1.3634999999999999
  0
CIRCLE
  5
611
  8
0
 10
211.72150088516111
 20
213.3480100094292
 30
0.0
 40
1.3634999999999999
  0
ARC
  5
630
  8
0
 10
179.18050234419431
 20
213.3480100094292
 30
0.0
 40
13.25
 50
59.762768430295267
 51
300.23723156970482
  0
ARC
  5
634
  8
0
 10
265.93050234419428
 20
213.3480100094292
 30
0.0
 40
9.0
 50
270.0
 51
90.0
  0
LINE
  5
635
  8
0
 10
265.93050234419428
 20
222.3480100094292
 30
0.0
 11
194.96310444985539
 21
222.3480100094292
 31
0.0
  0
LINE
  5
638
  8
0
 10
265.93050234419428
 20
204.3480100094292
 30
0.0
 11
194.96310444985539
 21
204.34801000942929
 31
0.0
  0
ARC
  5
639
  8
0
 10
194.96310444985539
 20
186.1680100094292
 30
0.0
 40
18.18
 50
90.000000000000028
 51
120.0733476449757
  0
LINE
  5
63A
  8
3
 10
265.93050234419428
 20
220.3480100094292
 30
0.0
 11
194.96310444985539
 21
220.3480100094292
 31
0.0
  0
ARC
  5
63B
  8
3
 10
265.93050234419428
 20
213.3480100094292
 30
0.0
 40
7.0
 50
270.0
 51
90.0
  0
LINE
  5
63C
  8
3
 10
265.93050234419428
 20
206.3480100094292
 30
0.0
 11
194.96310444985539
 21
206.34801000942929
 31
0.0
  0
ARC
  5
63D
  8
3
 10
194.96310444985539
 20
240.52801000942921
 30
0.0
 40
20.18
 50
239.92665235502429
 51
270.0
  0
ARC
  5
63E
  8
3
 10
179.18050234419431
 20
213.3480100094292
 30
0.0
 40
11.25
 50
59.762768430295267
 51
300.23723156970482
  0
ARC
  5
63F
  8
3
 10
194.96310444985539
 20
186.1680100094292
 30
0.0
 40
20.18
 50
90.000000000000028
 51
120.0733476449757
  0
LINE
  5
647
  8
1
 10
179.18050234419431
 20
231.59801000942929
 30
0.0
 11
179.18050234419431
 21
195.0980100094292
 31
0.0
  0
LINE
  5
648
  8
1
 10
279.93050234419428
 20
213.3480100094292
 30
0.0
 11
160.93050234419431
 21
213.3480100094292
 31
0.0
  0
LINE
  5
6C1
  8
0
 10
166.41380251867139
 20
96.026200241235188
 30
0.0
 11
191.9472021697172
 21
96.026200241235188
 31
0.0
  0
ARC
  5
6C2
  8
0
 10
179.18050234419451
 20
143.15620024123521
 30
0.0
 40
13.130000000000001
 50
270.0
 51
325.65302495965238
  0
LINE
  5
6C8
  8
1
 10
179.18050234419431
 20
91.090433337828301
 30
0.0
 11
179.18050234419431
 21
134.65157406646281
 31
0.0
  0
LINE
  5
6C9
  8
0
 10
165.9305023441942
 20
127.48634755702339
 30
0.0
 11
166.1138077088481
 21
96.324435565883263
 31
0.0
  0
ARC
  5
6CA
  8
0
 10
166.41380251867139
 20
96.326200241235199
 30
0.0
 40
0.3
 50
180.3370301098561
 51
270.0
  0
ARC
  5
6CE
  8
0
 10
168.4554586602068
 20
127.5012002412352
 30
0.0
 40
2.524999999999999
 50
90.0
 51
180.3370301098561
  0
LINE
  5
6D2
  8
0
 10
168.45545866020689
 20
130.0262002412353
 30
0.0
 11
179.18050234419451
 21
130.02620024123519
 31
0.0
  0
ARC
  5
6DC
  8
0
 10
268.4894403700556
 20
-117.6163347914694
 30
0.0
 40
265.23739173044578
 50
91.532382559759625
 51
107.2080290166344
  0
ARC
  5
6DD
  8
0
 10
281.54642252237329
 20
-14.19553738399639
 30
0.0
 40
155.9278171385271
 50
98.775962307478324
 51
121.00887326444099
  0
ARC
  5
6E2
  8
0
 10
209.96819295588179
 20
104.0917666994654
 30
0.0
 40
17.675000000000001
 50
119.67760860274529
 51
179.66296989014049
  0
ARC
  5
6F5
  8
0
 10
265.84147988792893
 20
144.20763545153409
 30
0.0
 40
9.0899999999999999
 50
303.23371287585309
 51
359.15971293358768
  0
ARC
  5
6F6
  8
0
 10
268.88592808694511
 20
139.5612002412351
 30
0.0
 40
3.5350000000000001
 50
224.80089268018099
 51
303.23371287585309
  0
ARC
  5
6F7
  8
0
 10
271.39647988792882
 20
143.99120024123511
 30
0.0
 40
3.5350000000000001
 50
1.3474759667738381
 51
90.0
  0
LINE
  5
6F9
  8
0
 10
261.39647988792882
 20
147.52620024123519
 30
0.0
 11
271.39647988792882
 21
147.52620024123519
 31
0.0
  0
LINE
  5
6FE
  8
0
 10
192.2934987437938
 20
104.1957354889484
 30
0.0
 11
192.24719697954049
 21
96.324435565883263
 31
0.0
  0
ARC
  5
6FF
  8
0
 10
191.9472021697172
 20
96.326200241235199
 30
0.0
 40
0.3
 50
270.0
 51
359.66296989014393
  0
ARC
  5
707
  8
0
 10
259.28203676102618
 20
130.0238265775927
 30
0.0
 40
10.0
 50
44.800892680181121
 51
98.775962307478153
  0
LINE
  5
89D
  8
2
 10
181.68050234419431
 20
226.36002368910229
 30
0.0
 11
181.6805023441942
 21
218.80236606674711
 31
0.0
  0
LINE
  5
89E
  8
2
 10
176.68050234419431
 20
226.36002368910229
 30
0.0
 11
176.68050234419431
 21
218.80236606674711
 31
0.0
  0
CIRCLE
  5
89F
  8
2
 10
179.18050234419431
 20
213.3480100094292
 30
0.0
 40
6.0
  0
LINE
  5
8A0
  8
1
 10
184.18050234419431
 20
106.0262002412352
 30
0.0
 11
174.18050234419431
 21
106.0262002412352
 31
0.0
  0
LINE
  5
8A1
  8
2
 10
172.18050234419431
 20
126.0262002412352
 30
0.0
 11
186.18050234419431
 21
126.0262002412352
 31
0.0
  0
LINE
  5
8A2
  8
2
 10
173.18050234419431
 20
96.026200241235188
 30
0.0
 11
173.18050234419431
 21
126.0262002412352
 31
0.0
  0
LINE
  5
8A3
  8
2
 10
171.21056929938439
 20
99.026200241235244
 30
0.0
 11
171.21056929938439
 21
116.0262002412352
 31
0.0
  0
LINE
  5
8A4
  8
2
 10
172.18050234419431
 20
96.026200241235188
 30
0.0
 11
172.18050234419431
 21
99.026200241235188
 31
0.0
  0
LINE
  5
8A5
  8
2
 10
172.18050234419431
 20
99.026200241235188
 30
0.0
 11
171.21056929938439
 21
99.026200241235188
 31
0.0
  0
LINE
  5
8A6
  8
2
 10
171.21056929938439
 20
117.5262002412352
 30
0.0
 11
171.21056929938439
 21
125.46620913671831
 31
0.0
  0
CIRCLE
  5
8A7
  8
0
 10
179.18050234419431
 20
106.0262002412352
 30
0.0
 40
2.5
  0
LINE
  5
8A8
  8
2
 10
172.18050234419431
 20
117.5262002412352
 30
0.0
 11
171.21056929938439
 21
117.5262002412352
 31
0.0
  0
LINE
  5
8A9
  8
2
 10
172.18050234419431
 20
116.0262002412352
 30
0.0
 11
171.21056929938439
 21
116.0262002412352
 31
0.0
  0
LINE
  5
8AA
  8
2
 10
172.18050234419431
 20
116.0262002412352
 30
0.0
 11
172.18050234419431
 21
117.5262002412352
 31
0.0
  0
LINE
  5
8AB
  8
2
 10
172.18050234419431
 20
126.0262002412352
 30
0.0
 11
171.21056929938439
 21
125.46620913671831
 31
0.0
  0
LINE
  5
8AC
  8
2
 10
187.1504353890042
 20
99.026200241235244
 30
0.0
 11
187.1504353890042
 21
116.0262002412352
 31
0.0
  0
LINE
  5
8AD
  8
2
 10
185.1805023441942
 20
96.026200241235188
 30
0.0
 11
185.18050234419431
 21
126.0262002412352
 31
0.0
  0
LINE
  5
8AE
  8
2
 10
186.18050234419431
 20
96.026200241235188
 30
0.0
 11
186.18050234419431
 21
99.026200241235188
 31
0.0
  0
LINE
  5
8AF
  8
2
 10
186.18050234419431
 20
99.026200241235188
 30
0.0
 11
187.1504353890042
 21
99.026200241235188
 31
0.0
  0
LINE
  5
8B0
  8
2
 10
187.1504353890042
 20
117.5262002412352
 30
0.0
 11
187.1504353890042
 21
125.46620913671831
 31
0.0
  0
LINE
  5
8B1
  8
2
 10
186.18050234419431
 20
116.0262002412352
 30
0.0
 11
187.1504353890042
 21
116.0262002412352
 31
0.0
  0
LINE
  5
8B2
  8
2
 10
186.18050234419431
 20
117.5262002412352
 30
0.0
 11
187.1504353890042
 21
117.5262002412352
 31
0.0
  0
LINE
  5
8B3
  8
2
 10
186.18050234419431
 20
116.0262002412352
 30
0.0
 11
186.18050234419431
 21
117.5262002412352
 31
0.0
  0
LINE
  5
8B4
  8
2
 10
186.18050234419431
 20
126.0262002412352
 30
0.0
 11
187.1504353890042
 21
125.46620913671831
 31
0.0
  0
TEXT
  5
9C9
  8
0
 62
     3
 10
0.0
 20
0.0
 30
0.0
 40
10.0
  1
ELH95-12R
  7
STANDARD1
  0
ENDSEC
  0
EOF
