  0
SECTION
  2
HEADER
  9
$ACADVER
  1
AC1009
  9
$INSBASE
 10
0.0
 20
0.0
 30
0.0
  9
$EXTMIN
 10
0.0
 20
-2.960436562073669
 30
0.0
  9
$EXTMAX
 10
158.55399761255231
 20
208.8468958464332
 30
0.0
  9
$LIMMIN
 10
0.0
 20
0.0
  9
$LIMMAX
 10
385.0
 20
270.0
  9
$ORTHOMODE
 70
     1
  9
$REGENMODE
 70
     1
  9
$FILLMODE
 70
     1
  9
$QTEXTMODE
 70
     0
  9
$MIRRTEXT
 70
     0
  9
$DRAGMODE
 70
     2
  9
$LTSCALE
 40
10.0
  9
$OSMODE
 70
  3071
  9
$ATTMODE
 70
     1
  9
$TEXTSIZE
 40
0.2
  9
$TRACEWID
 40
0.05
  9
$TEXTSTYLE
  7
STANDARD
  9
$CLAYER
  8
0
  9
$CELTYPE
  6
BYLAYER
  9
$CECOLOR
 62
   256
  9
$DIMSCALE
 40
1.0
  9
$DIMASZ
 40
3.0
  9
$DIMEXO
 40
0.0625
  9
$DIMDLI
 40
0.38
  9
$DIMRND
 40
0.0
  9
$DIMDLE
 40
0.0
  9
$DIMEXE
 40
0.18
  9
$DIMTP
 40
0.0
  9
$DIMTM
 40
0.0
  9
$DIMTXT
 40
3.0
  9
$DIMCEN
 40
0.09
  9
$DIMTSZ
 40
0.0
  9
$DIMTOL
 70
     0
  9
$DIMLIM
 70
     0
  9
$DIMTIH
 70
     1
  9
$DIMTOH
 70
     1
  9
$DIMSE1
 70
     0
  9
$DIMSE2
 70
     0
  9
$DIMTAD
 70
     0
  9
$DIMZIN
 70
     0
  9
$DIMBLK
  1

  9
$DIMASO
 70
     1
  9
$DIMSHO
 70
     1
  9
$DIMPOST
  1

  9
$DIMAPOST
  1

  9
$DIMALT
 70
     0
  9
$DIMALTD
 70
     2
  9
$DIMALTF
 40
25.399999999999999
  9
$DIMLFAC
 40
1.0
  9
$DIMTOFL
 70
     0
  9
$DIMTVP
 40
0.0
  9
$DIMTIX
 70
     0
  9
$DIMSOXD
 70
     0
  9
$DIMSAH
 70
     0
  9
$DIMBLK1
  1

  9
$DIMBLK2
  1

  9
$DIMSTYLE
  2
STANDARD
  9
$DIMCLRD
 70
     0
  9
$DIMCLRE
 70
     0
  9
$DIMCLRT
 70
     0
  9
$DIMTFAC
 40
1.0
  9
$DIMGAP
 40
0.09
  9
$LUNITS
 70
     2
  9
$LUPREC
 70
     4
  9
$SKETCHINC
 40
0.1
  9
$FILLETRAD
 40
0.0
  9
$AUNITS
 70
     0
  9
$AUPREC
 70
     0
  9
$MENU
  1
E:\r13\win\SUPPORT\ACAD
  9
$ELEVATION
 40
0.0
  9
$PELEVATION
 40
0.0
  9
$THICKNESS
 40
0.0
  9
$LIMCHECK
 70
     0
  9
$BLIPMODE
 70
     0
  9
$CHAMFERA
 40
0.0
  9
$CHAMFERB
 40
0.0
  9
$SKPOLY
 70
     0
  9
$TDCREATE
 40
2450361.7095834492
  9
$TDUPDATE
 40
2456598.6791347922
  9
$TDINDWG
 40
0.0019955671
  9
$TDUSRTIMER
 40
0.0019955671
  9
$USRTIMER
 70
     1
  9
$ANGBASE
 50
0.0
  9
$ANGDIR
 70
     0
  9
$PDMODE
 70
     0
  9
$PDSIZE
 40
0.0
  9
$PLINEWID
 40
0.0
  9
$COORDS
 70
     1
  9
$SPLFRAME
 70
     0
  9
$SPLINETYPE
 70
     6
  9
$SPLINESEGS
 70
     8
  9
$ATTDIA
 70
     0
  9
$ATTREQ
 70
     1
  9
$HANDLING
 70
     1
  9
$HANDSEED
  5
276
  9
$SURFTAB1
 70
     6
  9
$SURFTAB2
 70
     6
  9
$SURFTYPE
 70
     6
  9
$SURFU
 70
     6
  9
$SURFV
 70
     6
  9
$UCSNAME
  2

  9
$UCSORG
 10
0.0
 20
0.0
 30
0.0
  9
$UCSXDIR
 10
1.0
 20
0.0
 30
0.0
  9
$UCSYDIR
 10
0.0
 20
1.0
 30
0.0
  9
$PUCSNAME
  2

  9
$PUCSORG
 10
0.0
 20
0.0
 30
0.0
  9
$PUCSXDIR
 10
1.0
 20
0.0
 30
0.0
  9
$PUCSYDIR
 10
0.0
 20
1.0
 30
0.0
  9
$USERI1
 70
     3
  9
$USERI2
 70
     1
  9
$USERI3
 70
     1
  9
$USERI4
 70
     0
  9
$USERI5
 70
     0
  9
$USERR1
 40
1.0
  9
$USERR2
 40
3.0
  9
$USERR3
 40
3.0
  9
$USERR4
 40
3.0
  9
$USERR5
 40
10.0
  9
$WORLDVIEW
 70
     1
  9
$SHADEDGE
 70
     3
  9
$SHADEDIF
 70
    70
  9
$TILEMODE
 70
     1
  9
$MAXACTVP
 70
    16
  9
$PLIMCHECK
 70
     0
  9
$PEXTMIN
 10
1.0000000000000000E+020
 20
1.0000000000000000E+020
 30
1.0000000000000000E+020
  9
$PEXTMAX
 10
-1.0000000000000000E+020
 20
-1.0000000000000000E+020
 30
-1.0000000000000000E+020
  9
$PLIMMIN
 10
0.0
 20
0.0
  9
$PLIMMAX
 10
12.0
 20
9.0
  9
$UNITMODE
 70
     0
  9
$VISRETAIN
 70
     0
  9
$PLINEGEN
 70
     0
  9
$PSLTSCALE
 70
     0
  0
ENDSEC
  0
SECTION
  2
TABLES
  0
TABLE
  2
VPORT
 70
     1
  0
VPORT
  2
*ACTIVE
 70
     0
 10
0.0
 20
0.0
 11
1.0
 21
1.0
 12
192.49412581440311
 22
169.9063198933564
 13
0.0
 23
0.0
 14
5.0
 24
5.0
 15
0.0
 25
0.0
 16
0.0
 26
0.0
 36
1.0
 17
0.0
 27
0.0
 37
0.0
 40
348.89937369551939
 41
1.831871345029239
 42
50.0
 43
0.0
 44
0.0
 50
0.0
 51
0.0
 71
     0
 72
   100
 73
     1
 74
     0
 75
     0
 76
     0
 77
     0
 78
     1
  0
ENDTAB
  0
TABLE
  2
LTYPE
 70
     4
  0
LTYPE
  2
CONTINUOUS
 70
     0
  3
Solid Line
 72
    65
 73
     0
 40
0.0
  0
LTYPE
  2
CENTER
 70
     0
  3
____ _ ____ _ ____ _ ____ _ ____ _ ____ _ ____
 72
    65
 73
     4
 40
2.0
 49
1.25
 49
-0.25
 49
0.25
 49
-0.25
  0
LTYPE
  2
HIDDEN
 70
     0
  3
_ _ _ _ _ _ _ _ _ _ _ _ _ _ _ _ _ _ _ _ _ _ _
 72
    65
 73
     2
 40
0.375
 49
0.25
 49
-0.125
  0
LTYPE
  2
PHANTOM2
 70
     0
  3
___ _ _ ___ _ _ ___ _ _ ___ _ _
 72
    65
 73
     6
 40
1.25
 49
0.625
 49
-0.125
 49
0.125
 49
-0.125
 49
0.125
 49
-0.125
  0
ENDTAB
  0
TABLE
  2
LAYER
 70
     4
  0
LAYER
  2
0
 70
     0
 62
     7
  6
CONTINUOUS
  0
LAYER
  2
1
 70
     0
 62
     1
  6
CENTER
  0
LAYER
  2
2
 70
     0
 62
     2
  6
HIDDEN
  0
LAYER
  2
3
 70
     0
 62
     3
  6
CONTINUOUS
  0
ENDTAB
  0
TABLE
  2
STYLE
 70
     2
  0
STYLE
  2
STANDARD
 70
     0
 40
0.0
 41
1.0
 50
0.0
 71
     0
 42
0.2
  3
SIMPLEX
  4
BIGFONT
  0
STYLE
  2
STANDARD1
 70
     0
 40
0.0
 41
1.0
 50
0.0
 71
     0
 42
3.0
  3
txt
  4

  0
ENDTAB
  0
TABLE
  2
VIEW
 70
     0
  0
ENDTAB
  0
TABLE
  2
UCS
 70
     0
  0
ENDTAB
  0
TABLE
  2
APPID
 70
     4
  0
APPID
  2
ACAD
 70
     0
  0
APPID
  2
ACAD_EXEMPT_FROM_CAD_STANDARDS
 70
     0
  0
APPID
  2
ACAD_MLEADERVER
 70
     0
  0
APPID
  2
ACAD_NAV_VCDISPLAY
 70
     0
  0
ENDTAB
  0
TABLE
  2
DIMSTYLE
 70
     1
  0
DIMSTYLE
  2
STANDARD
 70
     0
  3

  4

  5

  6

  7

 40
1.0
 41
0.18
 42
0.0625
 43
0.38
 44
0.18
 45
0.0
 46
0.0
 47
0.0
 48
0.0
140
0.18
141
0.09
142
0.0
143
25.399999999999999
144
1.0
145
0.0
146
1.0
147
0.09
 71
     0
 72
     0
 73
     1
 74
     1
 75
     0
 76
     0
 77
     0
 78
     0
170
     0
171
     2
172
     0
173
     0
174
     0
175
     0
176
     0
177
     0
178
     0
  0
ENDTAB
  0
ENDSEC
  0
SECTION
  2
BLOCKS
  0
BLOCK
  8
0
  2
$MODEL_SPACE
 70
     0
 10
0.0
 20
0.0
 30
0.0
  3
$MODEL_SPACE
  1

  0
ENDBLK
  5
D9
  8
0
  0
BLOCK
 67
     1
  8
0
  2
$PAPER_SPACE
 70
     0
 10
0.0
 20
0.0
 30
0.0
  3
$PAPER_SPACE
  1

  0
ENDBLK
  5
D7
 67
     1
  8
0
  0
ENDSEC
  0
SECTION
  2
ENTITIES
  0
LINE
  5
2A
  8
3
 10
125.555827256074
 20
55.895705146841749
 30
0.0
 11
126.602806912961
 21
56.942684803728582
 31
0.0
  0
LINE
  5
2B
  8
0
 10
126.602806912961
 20
55.895705146841763
 30
0.0
 11
118.6028069129609
 21
55.895705146841749
 31
0.0
  0
LINE
  5
2D
  8
3
 10
119.402806912961
 20
55.895705146841749
 30
0.0
 11
118.6028069129609
 21
56.695705146841711
 31
0.0
  0
LINE
  5
30
  8
0
 10
126.602806912961
 20
40.060768656302791
 30
0.0
 11
125.352806912961
 21
37.895705146841749
 31
0.0
  0
LINE
  5
31
  8
0
 10
125.352806912961
 20
37.895705146841749
 30
0.0
 11
119.8528069129609
 21
37.895705146841749
 31
0.0
  0
LINE
  5
32
  8
0
 10
118.602806912961
 20
40.060768656302791
 30
0.0
 11
126.602806912961
 21
40.060768656302791
 31
0.0
  0
LINE
  5
33
  8
0
 10
119.8528069129609
 20
37.895705146841749
 30
0.0
 11
118.602806912961
 21
40.060768656302791
 31
0.0
  0
LINE
  5
36
  8
0
 10
118.6028069129609
 20
57.895705146841749
 30
0.0
 11
118.602806912961
 21
40.060768656302791
 31
0.0
  0
LINE
  5
37
  8
3
 10
119.6497865698479
 20
55.895705146841749
 30
0.0
 11
119.6497865698479
 21
38.24734669608381
 31
0.0
  0
LINE
  5
38
  8
3
 10
125.555827256074
 20
55.895705146841749
 30
0.0
 11
125.555827256074
 21
38.24734669608381
 31
0.0
  0
LINE
  5
39
  8
0
 10
126.602806912961
 20
57.895705146841749
 30
0.0
 11
126.602806912961
 21
40.060768656302791
 31
0.0
  0
ARC
  5
3A
  8
2
 10
147.60280691296089
 20
83.895700146841705
 30
0.0
 40
3.0
 50
90.0
 51
103.6855468252618
  0
LINE
  5
3B
  8
0
 10
149.84868985175359
 20
83.895700146841705
 30
0.0
 11
149.84868985175359
 21
83.015700146841766
 31
0.0
  0
ARC
  5
3C
  8
0
 10
147.60280691296089
 20
83.895700146841705
 30
0.0
 40
3.0
 50
0.0
 51
90.0
  0
ARC
  5
40
  8
0
 10
147.07663518554219
 20
71.395705146841863
 30
0.0
 40
2.5
 50
270.0
 51
354.99997934194278
  0
ARC
  5
41
  8
0
 10
129.77341357133841
 20
72.108846266625392
 30
0.0
 40
19.851759844983789
 50
359.1570339973868
 51
22.946053022555919
  0
ARC
  5
42
  8
0
 10
138.53520437591811
 20
70.395705146841749
 30
0.0
 40
1.5
 50
148.0705567561412
 51
270.0
  0
ARC
  5
43
  8
0
 10
320.70233001336823
 20
-43.123266983357041
 30
0.0
 40
216.14253701563291
 50
145.16391393025711
 51
148.0705567561414
  0
ARC
  5
44
  8
0
 10
145.53781521186119
 20
78.782927342183541
 30
0.0
 40
2.7327728046581981
 50
22.946053022556299
 51
145.16391393025691
  0
LINE
  5
45
  8
0
 10
135.8528069129608
 20
58.895705146841692
 30
0.0
 11
134.85280691296089
 21
57.895705146841749
 31
0.0
  0
LINE
  5
46
  8
0
 10
135.8528069129608
 20
68.895705146841692
 30
0.0
 11
135.8528069129608
 21
58.895705146841692
 31
0.0
  0
ARC
  5
47
  8
0
 10
130.0798051653629
 20
70.395705146841749
 30
0.0
 40
1.5
 50
270.0
 51
27.115699400448779
  0
ARC
  5
48
  8
0
 10
67.227960108155941
 20
38.211056488544607
 30
0.0
 40
72.113072701541341
 50
27.115699400448602
 51
34.851207063691163
  0
ARC
  5
49
  8
0
 10
115.1258086605591
 20
70.395705146841749
 30
0.0
 40
1.5
 50
152.88430059955121
 51
270.0
  0
ARC
  5
4A
  8
0
 10
177.97765371776589
 20
38.211056488544607
 30
0.0
 40
72.113072701541341
 50
145.14879293630881
 51
152.88430059955141
  0
LINE
  5
4B
  8
0
 10
109.3528069129609
 20
58.895705146841692
 30
0.0
 11
110.352806912961
 21
57.895705146841749
 31
0.0
  0
LINE
  5
4C
  8
0
 10
109.3528069129609
 20
58.895705146841692
 30
0.0
 11
135.8528069129608
 21
58.895705146841692
 31
0.0
  0
LINE
  5
4D
  8
0
 10
110.352806912961
 20
57.895705146841749
 30
0.0
 11
134.85280691296089
 21
57.895705146841749
 31
0.0
  0
LINE
  5
4E
  8
0
 10
109.3528069129609
 20
68.895705146841692
 30
0.0
 11
109.3528069129609
 21
58.895705146841692
 31
0.0
  0
LINE
  5
4F
  8
3
 10
131.36444032670511
 20
71.177814892024912
 30
0.0
 11
137.25524174111601
 21
71.177814892024912
 31
0.0
  0
ARC
  5
53
  8
0
 10
122.6028069129609
 20
77.015700146841709
 30
0.0
 40
4.5
 50
32.293766822667777
 51
90.0
  0
ARC
  5
54
  8
0
 10
122.6028069129609
 20
77.015700146841709
 30
0.0
 40
4.5
 50
90.0
 51
147.70623317733219
  0
LINE
  5
55
  8
1
 10
122.6028069129609
 20
92.63214478665094
 30
0.0
 11
122.6028069129609
 21
33.118397026529983
 31
0.0
  0
LINE
  5
56
  8
0
 10
150.602806912961
 20
83.015700146841766
 30
0.0
 11
149.5671218522111
 21
71.177814892024912
 31
0.0
  0
ARC
  5
57
  8
2
 10
97.60280691296083
 20
83.895700146841705
 30
0.0
 40
3.0
 50
76.314453174738105
 51
90.0
  0
LINE
  5
58
  8
0
 10
95.356923974168296
 20
83.895700146841705
 30
0.0
 11
95.356923974168296
 21
83.015700146841766
 31
0.0
  0
ARC
  5
59
  8
0
 10
97.60280691296083
 20
83.895700146841705
 30
0.0
 40
3.0
 50
90.0
 51
180.0
  0
ARC
  5
5A
  8
0
 10
99.667798614060757
 20
78.782927342183541
 30
0.0
 40
2.7327728046581981
 50
34.836086069743089
 51
157.0539469774433
  0
ARC
  5
5B
  8
0
 10
-75.496716187446282
 20
-43.123266983357041
 30
0.0
 40
216.14253701563291
 50
31.929443243858579
 51
34.836086069742919
  0
ARC
  5
5C
  8
0
 10
98.128978640379572
 20
71.395705146841863
 30
0.0
 40
2.5
 50
185.0000206580572
 51
270.0
  0
ARC
  5
5D
  8
0
 10
115.43220025458329
 20
72.108846266625392
 30
0.0
 40
19.851759844983789
 50
157.0539469774435
 51
180.84296600261291
  0
LINE
  5
5E
  8
0
 10
94.602806912961
 20
83.015700146841766
 30
0.0
 11
95.638491973710643
 21
71.177814892024912
 31
0.0
  0
LINE
  5
5F
  8
3
 10
113.84117349921669
 20
71.177814892024912
 30
0.0
 11
107.95037208480581
 21
71.177814892024912
 31
0.0
  0
LINE
  5
60
  8
0
 10
147.07663518554219
 20
68.895705146841863
 30
0.0
 11
98.128978640379572
 21
68.895705146841863
 31
0.0
  0
ARC
  5
61
  8
0
 10
106.6704094500037
 20
70.395705146841749
 30
0.0
 40
1.5
 50
270.0
 51
31.92944324385876
  0
LINE
  5
62
  8
0
 10
150.602806912961
 20
83.895700146841719
 30
0.0
 11
94.602806912960816
 21
83.895700146841705
 31
0.0
  0
LINE
  5
63
  8
0
 10
97.60280691296083
 20
86.895700146841705
 30
0.0
 11
147.60280691296089
 21
86.895700146841705
 31
0.0
  0
LINE
  5
64
  8
0
 10
150.60280691296089
 20
83.015700146841525
 30
0.0
 11
94.602806912961
 21
83.015700146841766
 31
0.0
  0
ARC
  5
65
  8
2
 10
122.6028069129609
 20
186.562366813507
 30
0.0
 40
102.66666666666519
 50
256.31445317473811
 51
283.68554682526189
  0
CIRCLE
  5
66
  8
0
 10
130.60280691296089
 20
172.89570514684169
 30
0.0
 40
1.25
  0
CIRCLE
  5
67
  8
0
 10
126.602806912961
 20
172.89570514684169
 30
0.0
 40
1.25
  0
CIRCLE
  5
68
  8
0
 10
114.602806912961
 20
172.89570514684169
 30
0.0
 40
1.25
  0
CIRCLE
  5
69
  8
0
 10
118.6028069129609
 20
172.89570514684169
 30
0.0
 40
1.25
  0
CIRCLE
  5
6A
  8
0
 10
122.6028069129609
 20
172.89570514684169
 30
0.0
 40
1.25
  0
CIRCLE
  5
6B
  8
3
 10
122.6028069129609
 20
172.89570514684169
 30
0.0
 40
23.924302672887158
  0
CIRCLE
  5
6C
  8
0
 10
122.6028069129609
 20
172.89570514684169
 30
0.0
 40
28.000000000000011
  0
LINE
  5
6D
  8
1
 10
122.6028069129609
 20
208.8468958464332
 30
0.0
 11
122.6028069129609
 21
136.9445144472503
 31
0.0
  0
LINE
  5
6F
  8
1
 10
86.651616213369536
 20
172.89570514684169
 30
0.0
 11
158.55399761255231
 21
172.89570514684169
 31
0.0
  0
TEXT
  5
213
  8
0
 62
     3
 10
0.0
 20
0.0
 30
0.0
 40
10.0
  1
ELK56X20
  7
STANDARD1
  0
ENDSEC
  0
EOF
