  0
SECTION
  2
HEADER
  9
$ACADVER
  1
AC1009
  9
$INSBASE
 10
0.0
 20
0.0
 30
0.0
  9
$EXTMIN
 10
0.0
 20
-2.960436562073669
 30
0.0
  9
$EXTMAX
 10
199.27588782527181
 20
227.7688943994323
 30
0.0
  9
$LIMMIN
 10
0.0
 20
0.0
  9
$LIMMAX
 10
385.0
 20
270.0
  9
$ORTHOMODE
 70
     1
  9
$REGENMODE
 70
     1
  9
$FILLMODE
 70
     1
  9
$QTEXTMODE
 70
     0
  9
$MIRRTEXT
 70
     0
  9
$DRAGMODE
 70
     2
  9
$LTSCALE
 40
10.0
  9
$OSMODE
 70
  3071
  9
$ATTMODE
 70
     1
  9
$TEXTSIZE
 40
0.2
  9
$TRACEWID
 40
0.05
  9
$TEXTSTYLE
  7
STANDARD
  9
$CLAYER
  8
0
  9
$CELTYPE
  6
BYLAYER
  9
$CECOLOR
 62
   256
  9
$DIMSCALE
 40
1.0
  9
$DIMASZ
 40
3.0
  9
$DIMEXO
 40
0.0625
  9
$DIMDLI
 40
0.38
  9
$DIMRND
 40
0.0
  9
$DIMDLE
 40
0.0
  9
$DIMEXE
 40
0.18
  9
$DIMTP
 40
0.0
  9
$DIMTM
 40
0.0
  9
$DIMTXT
 40
3.0
  9
$DIMCEN
 40
0.09
  9
$DIMTSZ
 40
0.0
  9
$DIMTOL
 70
     0
  9
$DIMLIM
 70
     0
  9
$DIMTIH
 70
     1
  9
$DIMTOH
 70
     1
  9
$DIMSE1
 70
     0
  9
$DIMSE2
 70
     0
  9
$DIMTAD
 70
     0
  9
$DIMZIN
 70
     0
  9
$DIMBLK
  1

  9
$DIMASO
 70
     1
  9
$DIMSHO
 70
     1
  9
$DIMPOST
  1

  9
$DIMAPOST
  1

  9
$DIMALT
 70
     0
  9
$DIMALTD
 70
     2
  9
$DIMALTF
 40
25.399999999999999
  9
$DIMLFAC
 40
1.0
  9
$DIMTOFL
 70
     0
  9
$DIMTVP
 40
0.0
  9
$DIMTIX
 70
     0
  9
$DIMSOXD
 70
     0
  9
$DIMSAH
 70
     0
  9
$DIMBLK1
  1

  9
$DIMBLK2
  1

  9
$DIMSTYLE
  2
STANDARD
  9
$DIMCLRD
 70
     0
  9
$DIMCLRE
 70
     0
  9
$DIMCLRT
 70
     0
  9
$DIMTFAC
 40
1.0
  9
$DIMGAP
 40
0.09
  9
$LUNITS
 70
     2
  9
$LUPREC
 70
     4
  9
$SKETCHINC
 40
0.1
  9
$FILLETRAD
 40
0.0
  9
$AUNITS
 70
     0
  9
$AUPREC
 70
     0
  9
$MENU
  1
E:\r13\win\SUPPORT\ACAD
  9
$ELEVATION
 40
0.0
  9
$PELEVATION
 40
0.0
  9
$THICKNESS
 40
0.0
  9
$LIMCHECK
 70
     0
  9
$BLIPMODE
 70
     0
  9
$CHAMFERA
 40
0.0
  9
$CHAMFERB
 40
0.0
  9
$SKPOLY
 70
     0
  9
$TDCREATE
 40
2450361.7073843749
  9
$TDUPDATE
 40
2456598.679237349
  9
$TDINDWG
 40
0.0035500694
  9
$TDUSRTIMER
 40
0.0035500694
  9
$USRTIMER
 70
     1
  9
$ANGBASE
 50
0.0
  9
$ANGDIR
 70
     0
  9
$PDMODE
 70
     0
  9
$PDSIZE
 40
0.0
  9
$PLINEWID
 40
0.0
  9
$COORDS
 70
     1
  9
$SPLFRAME
 70
     0
  9
$SPLINETYPE
 70
     6
  9
$SPLINESEGS
 70
     8
  9
$ATTDIA
 70
     0
  9
$ATTREQ
 70
     1
  9
$HANDLING
 70
     1
  9
$HANDSEED
  5
27E
  9
$SURFTAB1
 70
     6
  9
$SURFTAB2
 70
     6
  9
$SURFTYPE
 70
     6
  9
$SURFU
 70
     6
  9
$SURFV
 70
     6
  9
$UCSNAME
  2

  9
$UCSORG
 10
0.0
 20
0.0
 30
0.0
  9
$UCSXDIR
 10
1.0
 20
0.0
 30
0.0
  9
$UCSYDIR
 10
0.0
 20
1.0
 30
0.0
  9
$PUCSNAME
  2

  9
$PUCSORG
 10
0.0
 20
0.0
 30
0.0
  9
$PUCSXDIR
 10
1.0
 20
0.0
 30
0.0
  9
$PUCSYDIR
 10
0.0
 20
1.0
 30
0.0
  9
$USERI1
 70
     3
  9
$USERI2
 70
     1
  9
$USERI3
 70
     1
  9
$USERI4
 70
     0
  9
$USERI5
 70
     0
  9
$USERR1
 40
1.0
  9
$USERR2
 40
3.0
  9
$USERR3
 40
3.0
  9
$USERR4
 40
3.0
  9
$USERR5
 40
10.0
  9
$WORLDVIEW
 70
     1
  9
$SHADEDGE
 70
     3
  9
$SHADEDIF
 70
    70
  9
$TILEMODE
 70
     1
  9
$MAXACTVP
 70
    16
  9
$PLIMCHECK
 70
     0
  9
$PEXTMIN
 10
1.0000000000000000E+020
 20
1.0000000000000000E+020
 30
1.0000000000000000E+020
  9
$PEXTMAX
 10
-1.0000000000000000E+020
 20
-1.0000000000000000E+020
 30
-1.0000000000000000E+020
  9
$PLIMMIN
 10
0.0
 20
0.0
  9
$PLIMMAX
 10
12.0
 20
9.0
  9
$UNITMODE
 70
     0
  9
$VISRETAIN
 70
     0
  9
$PLINEGEN
 70
     0
  9
$PSLTSCALE
 70
     0
  0
ENDSEC
  0
SECTION
  2
TABLES
  0
TABLE
  2
VPORT
 70
     1
  0
VPORT
  2
*ACTIVE
 70
     0
 10
0.0
 20
0.0
 11
1.0
 21
1.0
 12
192.49412581440311
 22
169.9063198933564
 13
0.0
 23
0.0
 14
5.0
 24
5.0
 15
0.0
 25
0.0
 16
0.0
 26
0.0
 36
1.0
 17
0.0
 27
0.0
 37
0.0
 40
348.89937369551939
 41
1.831871345029239
 42
50.0
 43
0.0
 44
0.0
 50
0.0
 51
0.0
 71
     0
 72
   100
 73
     1
 74
     0
 75
     0
 76
     0
 77
     0
 78
     1
  0
ENDTAB
  0
TABLE
  2
LTYPE
 70
     4
  0
LTYPE
  2
CONTINUOUS
 70
     0
  3
Solid Line
 72
    65
 73
     0
 40
0.0
  0
LTYPE
  2
CENTER
 70
     0
  3
____ _ ____ _ ____ _ ____ _ ____ _ ____ _ ____
 72
    65
 73
     4
 40
2.0
 49
1.25
 49
-0.25
 49
0.25
 49
-0.25
  0
LTYPE
  2
HIDDEN
 70
     0
  3
_ _ _ _ _ _ _ _ _ _ _ _ _ _ _ _ _ _ _ _ _ _ _
 72
    65
 73
     2
 40
0.375
 49
0.25
 49
-0.125
  0
LTYPE
  2
PHANTOM2
 70
     0
  3
___ _ _ ___ _ _ ___ _ _ ___ _ _
 72
    65
 73
     6
 40
1.25
 49
0.625
 49
-0.125
 49
0.125
 49
-0.125
 49
0.125
 49
-0.125
  0
ENDTAB
  0
TABLE
  2
LAYER
 70
     4
  0
LAYER
  2
0
 70
     0
 62
     7
  6
CONTINUOUS
  0
LAYER
  2
1
 70
     0
 62
     1
  6
CENTER
  0
LAYER
  2
2
 70
     0
 62
     2
  6
HIDDEN
  0
LAYER
  2
3
 70
     0
 62
     3
  6
CONTINUOUS
  0
ENDTAB
  0
TABLE
  2
STYLE
 70
     2
  0
STYLE
  2
STANDARD
 70
     0
 40
0.0
 41
1.0
 50
0.0
 71
     0
 42
0.2
  3
SIMPLEX
  4
BIGFONT
  0
STYLE
  2
STANDARD1
 70
     0
 40
0.0
 41
1.0
 50
0.0
 71
     0
 42
3.0
  3
txt
  4

  0
ENDTAB
  0
TABLE
  2
VIEW
 70
     0
  0
ENDTAB
  0
TABLE
  2
UCS
 70
     0
  0
ENDTAB
  0
TABLE
  2
APPID
 70
     4
  0
APPID
  2
ACAD
 70
     0
  0
APPID
  2
ACAD_EXEMPT_FROM_CAD_STANDARDS
 70
     0
  0
APPID
  2
ACAD_MLEADERVER
 70
     0
  0
APPID
  2
ACAD_NAV_VCDISPLAY
 70
     0
  0
ENDTAB
  0
TABLE
  2
DIMSTYLE
 70
     1
  0
DIMSTYLE
  2
STANDARD
 70
     0
  3

  4

  5

  6

  7

 40
1.0
 41
0.18
 42
0.0625
 43
0.38
 44
0.18
 45
0.0
 46
0.0
 47
0.0
 48
0.0
140
0.18
141
0.09
142
0.0
143
25.399999999999999
144
1.0
145
0.0
146
1.0
147
0.09
 71
     0
 72
     0
 73
     1
 74
     1
 75
     0
 76
     0
 77
     0
 78
     0
170
     0
171
     2
172
     0
173
     0
174
     0
175
     0
176
     0
177
     0
178
     0
  0
ENDTAB
  0
ENDSEC
  0
SECTION
  2
BLOCKS
  0
BLOCK
  8
0
  2
$MODEL_SPACE
 70
     0
 10
0.0
 20
0.0
 30
0.0
  3
$MODEL_SPACE
  1

  0
ENDBLK
  5
E0
  8
0
  0
BLOCK
 67
     1
  8
0
  2
$PAPER_SPACE
 70
     0
 10
0.0
 20
0.0
 30
0.0
  3
$PAPER_SPACE
  1

  0
ENDBLK
  5
DE
 67
     1
  8
0
  0
ENDSEC
  0
SECTION
  2
ENTITIES
  0
LINE
  5
37
  8
2
 10
150.57131127857221
 20
78.064317852732756
 30
0.0
 11
148.07131127857221
 21
75.564317852732756
 31
0.0
  0
LINE
  5
38
  8
2
 10
150.57131127857221
 20
78.064317852732756
 30
0.0
 11
154.5713112785723
 21
78.064317852732756
 31
0.0
  0
LINE
  5
39
  8
2
 10
150.37131127857219
 20
73.813233263514334
 30
0.0
 11
154.5713112785723
 21
76.238104394110735
 31
0.0
  0
LINE
  5
3A
  8
2
 10
150.37131127857219
 20
73.813233263514334
 30
0.0
 11
154.5713112785723
 21
73.813233263514334
 31
0.0
  0
LINE
  5
3B
  8
2
 10
150.37131127857219
 20
71.064317852732756
 30
0.0
 11
150.37131127857219
 21
73.813233263514334
 31
0.0
  0
LINE
  5
3C
  8
2
 10
148.07131127857221
 20
53.064317852732749
 30
0.0
 11
148.07131127857221
 21
75.564317852732756
 31
0.0
  0
LINE
  5
3D
  8
2
 10
149.5713112785723
 20
71.064317852732756
 30
0.0
 11
149.5713112785723
 21
53.064317852732749
 31
0.0
  0
LINE
  5
3E
  8
2
 10
150.37131127857219
 20
71.064317852732756
 30
0.0
 11
150.37131127857219
 21
53.064317852732749
 31
0.0
  0
LINE
  5
3F
  8
2
 10
154.5713112785723
 20
71.064317852732756
 30
0.0
 11
149.5713112785723
 21
71.064317852732756
 31
0.0
  0
LINE
  5
40
  8
2
 10
158.77131127857231
 20
73.813233263514334
 30
0.0
 11
154.5713112785723
 21
73.813233263514334
 31
0.0
  0
LINE
  5
41
  8
2
 10
158.77131127857231
 20
73.813233263514334
 30
0.0
 11
154.5713112785723
 21
76.238104394110735
 31
0.0
  0
LINE
  5
42
  8
2
 10
158.77131127857231
 20
71.064317852732756
 30
0.0
 11
158.77131127857231
 21
73.813233263514334
 31
0.0
  0
LINE
  5
43
  8
2
 10
158.77131127857231
 20
71.064317852732756
 30
0.0
 11
158.77131127857231
 21
53.064317852732749
 31
0.0
  0
LINE
  5
44
  8
2
 10
159.5713112785723
 20
71.064317852732756
 30
0.0
 11
159.5713112785723
 21
53.064317852732749
 31
0.0
  0
LINE
  5
45
  8
2
 10
154.5713112785723
 20
71.064317852732756
 30
0.0
 11
159.5713112785723
 21
71.064317852732756
 31
0.0
  0
LINE
  5
46
  8
2
 10
158.5713112785723
 20
78.064317852732756
 30
0.0
 11
161.0713112785723
 21
75.564317852732756
 31
0.0
  0
LINE
  5
47
  8
2
 10
158.5713112785723
 20
78.064317852732756
 30
0.0
 11
154.5713112785723
 21
78.064317852732756
 31
0.0
  0
LINE
  5
48
  8
2
 10
161.0713112785723
 20
53.064317852732749
 30
0.0
 11
161.0713112785723
 21
75.564317852732756
 31
0.0
  0
ARC
  5
49
  8
2
 10
154.5713112785723
 20
204.68643642355451
 30
0.0
 40
120.6221185708218
 50
255.41466870242101
 51
284.58533129757819
  0
ARC
  5
4A
  8
0
 10
134.44901393928089
 20
68.064317852732756
 30
0.0
 40
2.0
 50
270.0
 51
24.894299134118661
  0
ARC
  5
4B
  8
0
 10
125.04923663814991
 20
79.000930433478231
 30
0.0
 40
2.963387419254556
 50
34.159836840925202
 51
146.2262451586974
  0
ARC
  5
4C
  8
0
 10
142.29867628352969
 20
71.687201264467035
 30
0.0
 40
21.653940625653139
 50
155.5541384261204
 51
186.25110179654169
  0
ARC
  5
4D
  8
0
 10
53.132824613069438
 20
16.106423324731509
 30
0.0
 40
98.480832178373106
 50
32.421444146700452
 51
40.960866176975358
  0
CIRCLE
  5
4E
  8
0
 10
149.0713112785723
 20
183.06431785273281
 30
0.0
 40
1.5
  0
CIRCLE
  5
4F
  8
0
 10
143.5713112785723
 20
183.06431785273281
 30
0.0
 40
1.5
  0
CIRCLE
  5
50
  8
0
 10
165.57131127857221
 20
183.06431785273281
 30
0.0
 40
1.5
  0
CIRCLE
  5
51
  8
0
 10
160.07131127857221
 20
183.06431785273281
 30
0.0
 40
1.5
  0
CIRCLE
  5
52
  8
0
 10
154.5713112785723
 20
183.06431785273281
 30
0.0
 40
1.5
  0
CIRCLE
  5
53
  8
3
 10
154.5713112785723
 20
183.06431785273281
 30
0.0
 40
30.117003796232272
  0
ARC
  5
54
  8
2
 10
123.3146808049179
 20
84.5643178527327
 30
0.0
 40
3.5
 50
75.414668702420983
 51
90.0
  0
ARC
  5
55
  8
2
 10
185.82794175222659
 20
84.5643178527327
 30
0.0
 40
3.5
 50
90.0
 51
104.585331297579
  0
ARC
  5
56
  8
2
 10
185.82794175222659
 20
84.5643178527327
 30
0.0
 40
3.5
 50
105.0633136702065
 51
109.00239164713609
  0
CIRCLE
  5
57
  8
0
 10
154.5713112785723
 20
183.06431785273281
 30
0.0
 40
35.0
  0
ARC
  5
58
  8
0
 10
154.5713112785723
 20
76.96431785273279
 30
0.0
 40
5.0
 50
90.0
 51
149.99999999999969
  0
ARC
  5
59
  8
0
 10
123.3146808049179
 20
84.5643178527327
 30
0.0
 40
3.5
 50
90.0
 51
183.848706911915
  0
LINE
  5
5A
  8
0
 10
120.5138605315293
 20
84.329390490939772
 30
0.0
 11
120.5138605315293
 21
83.464317852732847
 31
0.0
  0
ARC
  5
5B
  8
0
 10
124.26559138382549
 20
69.5643178527327
 30
0.0
 40
3.5
 50
183.8487069119152
 51
270.0
  0
LINE
  5
5C
  8
0
 10
139.32131127857221
 20
53.064317852732749
 30
0.0
 11
138.3213112785723
 21
54.064317852732692
 31
0.0
  0
LINE
  5
5D
  8
0
 10
138.3213112785723
 20
54.064317852732692
 30
0.0
 11
138.3213112785723
 21
66.064317852732756
 31
0.0
  0
LINE
  5
5E
  8
0
 10
119.8225741148694
 20
83.464317852732961
 30
0.0
 11
120.77348469377711
 21
69.329390490939772
 31
0.0
  0
ARC
  5
5F
  8
0
 10
145.9687922676469
 20
68.064317852732756
 30
0.0
 40
2.0
 50
150.0
 51
270.0
  0
LINE
  5
60
  8
0
 10
150.24118425965
 20
79.46431785273279
 30
0.0
 11
144.23674146007801
 21
69.064317852732685
 31
0.0
  0
LINE
  5
61
  8
0
 10
185.82794175222659
 20
88.064317852732771
 30
0.0
 11
123.3146808049179
 21
88.064317852732756
 31
0.0
  0
LINE
  5
62
  8
0
 10
119.8225741148696
 20
84.329390490939772
 30
0.0
 11
189.32004844227509
 21
84.329390490939772
 31
0.0
  0
LINE
  5
63
  8
0
 10
119.8225741148694
 20
83.464317852732847
 30
0.0
 11
189.32004844227501
 21
83.464317852732876
 31
0.0
  0
LINE
  5
64
  8
0
 10
124.26559138382549
 20
66.064317852732756
 30
0.0
 11
184.8770311733191
 21
66.064317852732756
 31
0.0
  0
LINE
  5
65
  8
0
 10
169.8213112785723
 20
53.064317852732749
 30
0.0
 11
139.32131127857221
 21
53.064317852732749
 31
0.0
  0
LINE
  5
66
  8
0
 10
138.3213112785723
 20
54.064317852732692
 30
0.0
 11
170.82131127857221
 21
54.064317852732692
 31
0.0
  0
LINE
  5
67
  8
3
 10
136.06536478073551
 20
69.329390490939772
 30
0.0
 11
144.38978121910151
 21
69.329390490939772
 31
0.0
  0
ARC
  5
68
  8
0
 10
163.17383028949769
 20
68.064317852732756
 30
0.0
 40
2.0
 50
270.0
 51
30.000000000000242
  0
ARC
  5
69
  8
0
 10
174.69360861786359
 20
68.064317852732756
 30
0.0
 40
2.0
 50
155.1057008658785
 51
270.0
  0
LINE
  5
6A
  8
3
 10
173.077257776409
 20
69.329390490939772
 30
0.0
 11
164.75284133804291
 21
69.329390490939772
 31
0.0
  0
ARC
  5
6B
  8
0
 10
184.09338591899461
 20
79.000930433478231
 30
0.0
 40
2.963387419254556
 50
33.773754841302548
 51
145.84016315907479
  0
ARC
  5
6C
  8
0
 10
166.84394627361499
 20
71.687201264467035
 30
0.0
 40
21.653940625653139
 50
353.7488982034584
 51
24.445861573881508
  0
ARC
  5
6D
  8
0
 10
256.0097979440751
 20
16.106423324731509
 30
0.0
 40
98.480832178373106
 50
139.0391338230246
 51
147.57855585329949
  0
LINE
  5
6E
  8
0
 10
158.90143829749451
 20
79.46431785273279
 30
0.0
 11
164.9058810970667
 21
69.064317852732685
 31
0.0
  0
ARC
  5
6F
  8
0
 10
154.5713112785723
 20
76.96431785273279
 30
0.0
 40
5.0
 50
30.000000000000242
 51
90.0
  0
LINE
  5
71
  8
0
 10
169.8213112785723
 20
53.064317852732749
 30
0.0
 11
170.8213112785723
 21
54.064317852732692
 31
0.0
  0
LINE
  5
72
  8
0
 10
188.62876202561529
 20
84.329390490939772
 30
0.0
 11
188.62876202561529
 21
83.464317852732847
 31
0.0
  0
ARC
  5
73
  8
0
 10
184.8770311733191
 20
69.5643178527327
 30
0.0
 40
3.5
 50
270.0
 51
356.15129308808463
  0
ARC
  5
76
  8
0
 10
185.82794175222659
 20
84.5643178527327
 30
0.0
 40
3.5
 50
356.15129308808469
 51
90.0
  0
LINE
  5
77
  8
0
 10
189.32004844227509
 20
83.464317852732961
 30
0.0
 11
188.3691378633674
 21
69.329390490939772
 31
0.0
  0
LINE
  5
7A
  8
0
 10
170.8213112785723
 20
54.064317852732692
 30
0.0
 11
170.8213112785723
 21
66.064317852732756
 31
0.0
  0
LINE
  5
7C
  8
1
 10
154.5713112785723
 20
227.7688943994323
 30
0.0
 11
154.5713112785723
 21
138.3597413060333
 31
0.0
  0
LINE
  5
7D
  8
1
 10
154.5713112785723
 20
92.507948365636025
 30
0.0
 11
154.5713112785723
 21
45.712371149143102
 31
0.0
  0
LINE
  5
7E
  8
1
 10
199.27588782527181
 20
183.06431785273281
 30
0.0
 11
109.8667347318728
 21
183.06431785273281
 31
0.0
  0
TEXT
  5
21B
  8
0
 62
     3
 10
0.0
 20
0.0
 30
0.0
 40
10.0
  1
ELK70
  7
STANDARD1
  0
ENDSEC
  0
EOF
