  0
SECTION
  2
HEADER
  9
$ACADVER
  1
AC1009
  9
$INSBASE
 10
0.0
 20
0.0
 30
0.0
  9
$EXTMIN
 10
0.0
 20
-2.960436562073669
 30
0.0
  9
$EXTMAX
 10
199.48363900791779
 20
227.97437649259939
 30
0.0
  9
$LIMMIN
 10
0.0
 20
0.0
  9
$LIMMAX
 10
385.0
 20
270.0
  9
$ORTHOMODE
 70
     1
  9
$REGENMODE
 70
     1
  9
$FILLMODE
 70
     1
  9
$QTEXTMODE
 70
     0
  9
$MIRRTEXT
 70
     0
  9
$DRAGMODE
 70
     2
  9
$LTSCALE
 40
10.0
  9
$OSMODE
 70
  3071
  9
$ATTMODE
 70
     1
  9
$TEXTSIZE
 40
0.2
  9
$TRACEWID
 40
0.05
  9
$TEXTSTYLE
  7
STANDARD
  9
$CLAYER
  8
0
  9
$CELTYPE
  6
BYLAYER
  9
$CECOLOR
 62
   256
  9
$DIMSCALE
 40
1.0
  9
$DIMASZ
 40
3.0
  9
$DIMEXO
 40
0.0625
  9
$DIMDLI
 40
0.38
  9
$DIMRND
 40
0.0
  9
$DIMDLE
 40
0.0
  9
$DIMEXE
 40
0.18
  9
$DIMTP
 40
0.0
  9
$DIMTM
 40
0.0
  9
$DIMTXT
 40
3.0
  9
$DIMCEN
 40
0.09
  9
$DIMTSZ
 40
0.0
  9
$DIMTOL
 70
     0
  9
$DIMLIM
 70
     0
  9
$DIMTIH
 70
     1
  9
$DIMTOH
 70
     1
  9
$DIMSE1
 70
     0
  9
$DIMSE2
 70
     0
  9
$DIMTAD
 70
     0
  9
$DIMZIN
 70
     0
  9
$DIMBLK
  1

  9
$DIMASO
 70
     1
  9
$DIMSHO
 70
     1
  9
$DIMPOST
  1

  9
$DIMAPOST
  1

  9
$DIMALT
 70
     0
  9
$DIMALTD
 70
     2
  9
$DIMALTF
 40
25.399999999999999
  9
$DIMLFAC
 40
1.0
  9
$DIMTOFL
 70
     0
  9
$DIMTVP
 40
0.0
  9
$DIMTIX
 70
     0
  9
$DIMSOXD
 70
     0
  9
$DIMSAH
 70
     0
  9
$DIMBLK1
  1

  9
$DIMBLK2
  1

  9
$DIMSTYLE
  2
STANDARD
  9
$DIMCLRD
 70
     0
  9
$DIMCLRE
 70
     0
  9
$DIMCLRT
 70
     0
  9
$DIMTFAC
 40
1.0
  9
$DIMGAP
 40
0.09
  9
$LUNITS
 70
     2
  9
$LUPREC
 70
     4
  9
$SKETCHINC
 40
0.1
  9
$FILLETRAD
 40
0.0
  9
$AUNITS
 70
     0
  9
$AUPREC
 70
     0
  9
$MENU
  1
E:\r13\win\SUPPORT\ACAD
  9
$ELEVATION
 40
0.0
  9
$PELEVATION
 40
0.0
  9
$THICKNESS
 40
0.0
  9
$LIMCHECK
 70
     0
  9
$BLIPMODE
 70
     0
  9
$CHAMFERA
 40
0.0
  9
$CHAMFERB
 40
0.0
  9
$SKPOLY
 70
     0
  9
$TDCREATE
 40
2450361.7169677089
  9
$TDUPDATE
 40
2456598.6793074082
  9
$TDINDWG
 40
0.002374213
  9
$TDUSRTIMER
 40
0.002374213
  9
$USRTIMER
 70
     1
  9
$ANGBASE
 50
0.0
  9
$ANGDIR
 70
     0
  9
$PDMODE
 70
     0
  9
$PDSIZE
 40
0.0
  9
$PLINEWID
 40
0.0
  9
$COORDS
 70
     1
  9
$SPLFRAME
 70
     0
  9
$SPLINETYPE
 70
     6
  9
$SPLINESEGS
 70
     8
  9
$ATTDIA
 70
     0
  9
$ATTREQ
 70
     1
  9
$HANDLING
 70
     1
  9
$HANDSEED
  5
274
  9
$SURFTAB1
 70
     6
  9
$SURFTAB2
 70
     6
  9
$SURFTYPE
 70
     6
  9
$SURFU
 70
     6
  9
$SURFV
 70
     6
  9
$UCSNAME
  2

  9
$UCSORG
 10
0.0
 20
0.0
 30
0.0
  9
$UCSXDIR
 10
1.0
 20
0.0
 30
0.0
  9
$UCSYDIR
 10
0.0
 20
1.0
 30
0.0
  9
$PUCSNAME
  2

  9
$PUCSORG
 10
0.0
 20
0.0
 30
0.0
  9
$PUCSXDIR
 10
1.0
 20
0.0
 30
0.0
  9
$PUCSYDIR
 10
0.0
 20
1.0
 30
0.0
  9
$USERI1
 70
     3
  9
$USERI2
 70
     1
  9
$USERI3
 70
     1
  9
$USERI4
 70
     0
  9
$USERI5
 70
     0
  9
$USERR1
 40
1.0
  9
$USERR2
 40
3.0
  9
$USERR3
 40
3.0
  9
$USERR4
 40
3.0
  9
$USERR5
 40
10.0
  9
$WORLDVIEW
 70
     1
  9
$SHADEDGE
 70
     3
  9
$SHADEDIF
 70
    70
  9
$TILEMODE
 70
     1
  9
$MAXACTVP
 70
    16
  9
$PLIMCHECK
 70
     0
  9
$PEXTMIN
 10
1.0000000000000000E+020
 20
1.0000000000000000E+020
 30
1.0000000000000000E+020
  9
$PEXTMAX
 10
-1.0000000000000000E+020
 20
-1.0000000000000000E+020
 30
-1.0000000000000000E+020
  9
$PLIMMIN
 10
0.0
 20
0.0
  9
$PLIMMAX
 10
12.0
 20
9.0
  9
$UNITMODE
 70
     0
  9
$VISRETAIN
 70
     0
  9
$PLINEGEN
 70
     0
  9
$PSLTSCALE
 70
     0
  0
ENDSEC
  0
SECTION
  2
TABLES
  0
TABLE
  2
VPORT
 70
     1
  0
VPORT
  2
*ACTIVE
 70
     0
 10
0.0
 20
0.0
 11
1.0
 21
1.0
 12
192.49412581440311
 22
169.9063198933564
 13
0.0
 23
0.0
 14
5.0
 24
5.0
 15
0.0
 25
0.0
 16
0.0
 26
0.0
 36
1.0
 17
0.0
 27
0.0
 37
0.0
 40
348.89937369551939
 41
1.831871345029239
 42
50.0
 43
0.0
 44
0.0
 50
0.0
 51
0.0
 71
     0
 72
   100
 73
     1
 74
     0
 75
     0
 76
     0
 77
     0
 78
     1
  0
ENDTAB
  0
TABLE
  2
LTYPE
 70
     4
  0
LTYPE
  2
CONTINUOUS
 70
     0
  3
Solid Line
 72
    65
 73
     0
 40
0.0
  0
LTYPE
  2
CENTER
 70
     0
  3
____ _ ____ _ ____ _ ____ _ ____ _ ____ _ ____
 72
    65
 73
     4
 40
2.0
 49
1.25
 49
-0.25
 49
0.25
 49
-0.25
  0
LTYPE
  2
HIDDEN
 70
     0
  3
_ _ _ _ _ _ _ _ _ _ _ _ _ _ _ _ _ _ _ _ _ _ _
 72
    65
 73
     2
 40
0.375
 49
0.25
 49
-0.125
  0
LTYPE
  2
PHANTOM2
 70
     0
  3
___ _ _ ___ _ _ ___ _ _ ___ _ _
 72
    65
 73
     6
 40
1.25
 49
0.625
 49
-0.125
 49
0.125
 49
-0.125
 49
0.125
 49
-0.125
  0
ENDTAB
  0
TABLE
  2
LAYER
 70
     4
  0
LAYER
  2
0
 70
     0
 62
     7
  6
CONTINUOUS
  0
LAYER
  2
1
 70
     0
 62
     1
  6
CENTER
  0
LAYER
  2
2
 70
     0
 62
     2
  6
HIDDEN
  0
LAYER
  2
3
 70
     0
 62
     3
  6
CONTINUOUS
  0
ENDTAB
  0
TABLE
  2
STYLE
 70
     2
  0
STYLE
  2
STANDARD
 70
     0
 40
0.0
 41
1.0
 50
0.0
 71
     0
 42
0.2
  3
SIMPLEX
  4
BIGFONT
  0
STYLE
  2
STANDARD1
 70
     0
 40
0.0
 41
1.0
 50
0.0
 71
     0
 42
3.0
  3
txt
  4

  0
ENDTAB
  0
TABLE
  2
VIEW
 70
     0
  0
ENDTAB
  0
TABLE
  2
UCS
 70
     0
  0
ENDTAB
  0
TABLE
  2
APPID
 70
     3
  0
APPID
  2
ACAD
 70
     0
  0
APPID
  2
ACAD_MLEADERVER
 70
     0
  0
APPID
  2
ACAD_NAV_VCDISPLAY
 70
     0
  0
ENDTAB
  0
TABLE
  2
DIMSTYLE
 70
     1
  0
DIMSTYLE
  2
STANDARD
 70
     0
  3

  4

  5

  6

  7

 40
1.0
 41
0.18
 42
0.0625
 43
0.38
 44
0.18
 45
0.0
 46
0.0
 47
0.0
 48
0.0
140
0.18
141
0.09
142
0.0
143
25.399999999999999
144
1.0
145
0.0
146
1.0
147
0.09
 71
     0
 72
     0
 73
     1
 74
     1
 75
     0
 76
     0
 77
     0
 78
     0
170
     0
171
     2
172
     0
173
     0
174
     0
175
     0
176
     0
177
     0
178
     0
  0
ENDTAB
  0
ENDSEC
  0
SECTION
  2
BLOCKS
  0
BLOCK
  8
0
  2
$MODEL_SPACE
 70
     0
 10
0.0
 20
0.0
 30
0.0
  3
$MODEL_SPACE
  1

  0
ENDBLK
  5
DE
  8
0
  0
BLOCK
 67
     1
  8
0
  2
$PAPER_SPACE
 70
     0
 10
0.0
 20
0.0
 30
0.0
  3
$PAPER_SPACE
  1

  0
ENDBLK
  5
DC
 67
     1
  8
0
  0
ENDSEC
  0
SECTION
  2
ENTITIES
  0
LINE
  5
2B
  8
3
 10
159.61390952850539
 20
76.064317852732756
 30
0.0
 11
160.57131127857221
 21
77.021719602799578
 31
0.0
  0
LINE
  5
2D
  8
3
 10
149.52871302863889
 20
76.064317852732756
 30
0.0
 11
148.57131127857201
 21
77.021719602799578
 31
0.0
  0
POINT
  5
2E
  8
0
 10
148.57131127857201
 20
76.064317852732756
 30
0.0
  0
LINE
  5
2F
  8
0
 10
160.57131127857221
 20
76.064317852732742
 30
0.0
 11
148.57131127857201
 21
76.064317852732756
 31
0.0
  0
POINT
  5
30
  8
0
 10
160.57131127857221
 20
30.66239406408619
 30
0.0
  0
POINT
  5
31
  8
0
 10
159.07131127857221
 20
28.06431785273281
 30
0.0
  0
LINE
  5
32
  8
0
 10
159.07131127857221
 20
28.06431785273281
 30
0.0
 11
160.57131127857221
 21
30.66239406408619
 31
0.0
  0
LINE
  5
35
  8
0
 10
150.0713112785721
 20
28.06431785273281
 30
0.0
 11
148.57131127857201
 21
30.66239406408619
 31
0.0
  0
POINT
  5
36
  8
0
 10
148.57131127857201
 20
30.66239406408619
 30
0.0
  0
POINT
  5
37
  8
0
 10
150.0713112785721
 20
28.06431785273281
 30
0.0
  0
LINE
  5
38
  8
0
 10
148.57131127857201
 20
30.66239406408619
 30
0.0
 11
160.57131127857221
 21
30.66239406408619
 31
0.0
  0
LINE
  5
39
  8
0
 10
159.07131127857221
 20
28.06431785273281
 30
0.0
 11
150.0713112785721
 21
28.06431785273281
 31
0.0
  0
LINE
  5
3A
  8
0
 10
160.57131127857221
 20
30.66239406408619
 30
0.0
 11
160.57131127857221
 21
78.064317852732813
 31
0.0
  0
LINE
  5
3B
  8
3
 10
159.61390952850539
 20
29.004125589715269
 30
0.0
 11
159.61390952850539
 21
76.064317852732756
 31
0.0
  0
LINE
  5
3C
  8
3
 10
149.52871302863889
 20
29.004125589715269
 30
0.0
 11
149.52871302863889
 21
76.064317852732756
 31
0.0
  0
LINE
  5
3D
  8
0
 10
148.57131127857201
 20
30.66239406408619
 30
0.0
 11
148.57131127857201
 21
78.064317852732813
 31
0.0
  0
ARC
  5
3E
  8
2
 10
154.5713112785723
 20
229.68643642355451
 30
0.0
 40
120.6221185708218
 50
255.41466870242141
 51
284.58533129757859
  0
ARC
  5
3F
  8
0
 10
134.44901393928089
 20
93.064317852732799
 30
0.0
 40
2.0
 50
270.0
 51
24.894299134118661
  0
ARC
  5
40
  8
0
 10
125.04923663814991
 20
104.0009304334783
 30
0.0
 40
2.963387419254556
 50
34.159836840925202
 51
146.22624515869731
  0
ARC
  5
41
  8
0
 10
142.2986762835294
 20
96.687201264467035
 30
0.0
 40
21.653940625653139
 50
155.55413842612029
 51
186.25110179654169
  0
ARC
  5
42
  8
0
 10
53.132824613069317
 20
41.106423324731502
 30
0.0
 40
98.480832178373106
 50
32.42144414670031
 51
40.960866176975308
  0
CIRCLE
  5
43
  8
0
 10
149.07131127857221
 20
183.06431785273281
 30
0.0
 40
1.5
  0
CIRCLE
  5
44
  8
0
 10
143.5713112785721
 20
183.06431785273281
 30
0.0
 40
1.5
  0
CIRCLE
  5
45
  8
0
 10
165.57131127857221
 20
183.06431785273281
 30
0.0
 40
1.5
  0
CIRCLE
  5
46
  8
0
 10
160.0713112785721
 20
183.06431785273281
 30
0.0
 40
1.5
  0
CIRCLE
  5
47
  8
0
 10
154.5713112785723
 20
183.06431785273281
 30
0.0
 40
1.5
  0
CIRCLE
  5
48
  8
3
 10
154.5713112785723
 20
183.06431785273281
 30
0.0
 40
30.117003796232272
  0
ARC
  5
49
  8
2
 10
123.3146808049179
 20
109.5643178527328
 30
0.0
 40
3.5
 50
75.414668702421395
 51
90.0
  0
ARC
  5
4A
  8
2
 10
185.82794175222631
 20
109.5643178527328
 30
0.0
 40
3.5
 50
90.0
 51
104.58533129757861
  0
ARC
  5
4B
  8
2
 10
185.82794175222631
 20
109.5643178527328
 30
0.0
 40
3.5
 50
105.0633136702061
 51
109.0023916471357
  0
CIRCLE
  5
4C
  8
0
 10
154.5713112785723
 20
183.06431785273281
 30
0.0
 40
35.0
  0
ARC
  5
4D
  8
0
 10
154.5713112785723
 20
101.9643178527328
 30
0.0
 40
5.0
 50
90.0
 51
150.0
  0
ARC
  5
4E
  8
0
 10
123.3146808049179
 20
109.5643178527328
 30
0.0
 40
3.5
 50
90.0
 51
183.848706911915
  0
LINE
  5
4F
  8
0
 10
120.51386053152901
 20
109.3293904909399
 30
0.0
 11
120.51386053152901
 21
108.4643178527328
 31
0.0
  0
ARC
  5
50
  8
0
 10
124.26559138382549
 20
94.564317852732856
 30
0.0
 40
3.5
 50
183.8487069119152
 51
270.0
  0
LINE
  5
51
  8
0
 10
139.32131127857221
 20
78.064317852732813
 30
0.0
 11
138.32131127857201
 21
79.06431785273287
 31
0.0
  0
LINE
  5
52
  8
0
 10
138.32131127857201
 20
79.06431785273287
 30
0.0
 11
138.32131127857201
 21
91.064317852732756
 31
0.0
  0
LINE
  5
53
  8
0
 10
119.8225741148693
 20
108.464317852733
 30
0.0
 11
120.77348469377689
 21
94.329390490939772
 31
0.0
  0
ARC
  5
54
  8
0
 10
145.96879226764659
 20
93.064317852732799
 30
0.0
 40
2.0
 50
150.00000000000011
 51
270.0
  0
LINE
  5
55
  8
0
 10
150.24118425964991
 20
104.4643178527328
 30
0.0
 11
144.23674146007789
 21
94.06431785273287
 31
0.0
  0
LINE
  5
56
  8
0
 10
185.82794175222631
 20
113.0643178527328
 30
0.0
 11
123.3146808049179
 21
113.0643178527328
 31
0.0
  0
LINE
  5
57
  8
0
 10
119.8225741148693
 20
109.3293904909399
 30
0.0
 11
189.32004844227481
 21
109.3293904909399
 31
0.0
  0
LINE
  5
58
  8
0
 10
119.8225741148693
 20
108.4643178527328
 30
0.0
 11
189.32004844227501
 21
108.4643178527328
 31
0.0
  0
LINE
  5
59
  8
0
 10
124.26559138382549
 20
91.064317852732756
 30
0.0
 11
184.87703117331881
 21
91.064317852732756
 31
0.0
  0
LINE
  5
5A
  8
0
 10
169.8213112785721
 20
78.064317852732842
 30
0.0
 11
139.32131127857221
 21
78.064317852732813
 31
0.0
  0
LINE
  5
5B
  8
0
 10
138.32131127857201
 20
79.06431785273287
 30
0.0
 11
170.8213112785723
 21
79.06431785273287
 31
0.0
  0
LINE
  5
5C
  8
3
 10
136.06536478073539
 20
94.329390490939772
 30
0.0
 11
144.38978121910139
 21
94.329390490939772
 31
0.0
  0
ARC
  5
5D
  8
0
 10
163.17383028949769
 20
93.064317852732799
 30
0.0
 40
2.0
 50
270.0
 51
29.999999999999929
  0
ARC
  5
5E
  8
0
 10
174.69360861786359
 20
93.064317852732799
 30
0.0
 40
2.0
 50
155.10570086587839
 51
270.0
  0
LINE
  5
5F
  8
3
 10
173.07725777640891
 20
94.329390490939772
 30
0.0
 11
164.7528413380428
 21
94.329390490939772
 31
0.0
  0
ARC
  5
60
  8
0
 10
184.0933859189943
 20
104.0009304334783
 30
0.0
 40
2.963387419254556
 50
33.77375484130269
 51
145.84016315907479
  0
ARC
  5
61
  8
0
 10
166.8439462736149
 20
96.687201264467035
 30
0.0
 40
21.653940625653139
 50
353.7488982034584
 51
24.445861573881629
  0
ARC
  5
62
  8
0
 10
256.00979794407499
 20
41.106423324731502
 30
0.0
 40
98.480832178373106
 50
139.03913382302471
 51
147.57855585329969
  0
LINE
  5
63
  8
0
 10
158.90143829749439
 20
104.4643178527328
 30
0.0
 11
164.90588109706641
 21
94.06431785273287
 31
0.0
  0
ARC
  5
64
  8
0
 10
154.5713112785723
 20
101.9643178527328
 30
0.0
 40
5.0
 50
29.999999999999929
 51
90.0
  0
LINE
  5
66
  8
0
 10
169.8213112785721
 20
78.064317852732813
 30
0.0
 11
170.8213112785723
 21
79.06431785273287
 31
0.0
  0
LINE
  5
67
  8
0
 10
188.62876202561529
 20
109.3293904909399
 30
0.0
 11
188.62876202561529
 21
108.4643178527328
 31
0.0
  0
ARC
  5
68
  8
0
 10
184.87703117331881
 20
94.564317852732856
 30
0.0
 40
3.5
 50
270.0
 51
356.15129308808463
  0
ARC
  5
6B
  8
0
 10
185.82794175222631
 20
109.5643178527328
 30
0.0
 40
3.5
 50
356.1512930880848
 51
90.0
  0
LINE
  5
6C
  8
0
 10
189.32004844227501
 20
108.464317852733
 30
0.0
 11
188.3691378633674
 21
94.329390490939772
 31
0.0
  0
LINE
  5
6F
  8
0
 10
170.8213112785723
 20
79.06431785273287
 30
0.0
 11
170.8213112785723
 21
91.064317852732756
 31
0.0
  0
LINE
  5
71
  8
1
 10
154.5713112785723
 20
227.97437649259939
 30
0.0
 11
154.5713112785723
 21
138.15425921286621
 31
0.0
  0
LINE
  5
72
  8
1
 10
154.5713112785723
 20
117.5079483656362
 30
0.0
 11
154.5713112785723
 21
24.171213435110591
 31
0.0
  0
LINE
  5
73
  8
1
 10
199.48363900791779
 20
183.06431785273281
 30
0.0
 11
109.6589835492267
 21
183.06431785273281
 31
0.0
  0
TEXT
  5
211
  8
0
 62
     3
 10
0.0
 20
0.0
 30
0.0
 40
10.0
  1
ELK70AX50
  7
STANDARD1
  0
ENDSEC
  0
EOF
