  0
SECTION
  2
HEADER
  9
$ACADVER
  1
AC1009
  9
$INSBASE
 10
0.0
 20
0.0
 30
0.0
  9
$EXTMIN
 10
0.0
 20
-2.960436562073669
 30
0.0
  9
$EXTMAX
 10
199.03218022587771
 20
227.5251868000382
 30
0.0
  9
$LIMMIN
 10
0.0
 20
0.0
  9
$LIMMAX
 10
385.0
 20
270.0
  9
$ORTHOMODE
 70
     1
  9
$REGENMODE
 70
     1
  9
$FILLMODE
 70
     1
  9
$QTEXTMODE
 70
     0
  9
$MIRRTEXT
 70
     0
  9
$DRAGMODE
 70
     2
  9
$LTSCALE
 40
10.0
  9
$OSMODE
 70
  3071
  9
$ATTMODE
 70
     1
  9
$TEXTSIZE
 40
0.2
  9
$TRACEWID
 40
0.05
  9
$TEXTSTYLE
  7
STANDARD
  9
$CLAYER
  8
0
  9
$CELTYPE
  6
BYLAYER
  9
$CECOLOR
 62
   256
  9
$DIMSCALE
 40
1.0
  9
$DIMASZ
 40
3.0
  9
$DIMEXO
 40
0.0625
  9
$DIMDLI
 40
0.38
  9
$DIMRND
 40
0.0
  9
$DIMDLE
 40
0.0
  9
$DIMEXE
 40
0.18
  9
$DIMTP
 40
0.0
  9
$DIMTM
 40
0.0
  9
$DIMTXT
 40
3.0
  9
$DIMCEN
 40
0.09
  9
$DIMTSZ
 40
0.0
  9
$DIMTOL
 70
     0
  9
$DIMLIM
 70
     0
  9
$DIMTIH
 70
     1
  9
$DIMTOH
 70
     1
  9
$DIMSE1
 70
     0
  9
$DIMSE2
 70
     0
  9
$DIMTAD
 70
     0
  9
$DIMZIN
 70
     0
  9
$DIMBLK
  1

  9
$DIMASO
 70
     1
  9
$DIMSHO
 70
     1
  9
$DIMPOST
  1

  9
$DIMAPOST
  1

  9
$DIMALT
 70
     0
  9
$DIMALTD
 70
     2
  9
$DIMALTF
 40
25.399999999999999
  9
$DIMLFAC
 40
1.0
  9
$DIMTOFL
 70
     0
  9
$DIMTVP
 40
0.0
  9
$DIMTIX
 70
     0
  9
$DIMSOXD
 70
     0
  9
$DIMSAH
 70
     0
  9
$DIMBLK1
  1

  9
$DIMBLK2
  1

  9
$DIMSTYLE
  2
STANDARD
  9
$DIMCLRD
 70
     0
  9
$DIMCLRE
 70
     0
  9
$DIMCLRT
 70
     0
  9
$DIMTFAC
 40
1.0
  9
$DIMGAP
 40
0.09
  9
$LUNITS
 70
     2
  9
$LUPREC
 70
     4
  9
$SKETCHINC
 40
0.1
  9
$FILLETRAD
 40
0.0
  9
$AUNITS
 70
     0
  9
$AUPREC
 70
     0
  9
$MENU
  1
E:\r13\win\SUPPORT\ACAD
  9
$ELEVATION
 40
0.0
  9
$PELEVATION
 40
0.0
  9
$THICKNESS
 40
0.0
  9
$LIMCHECK
 70
     0
  9
$BLIPMODE
 70
     0
  9
$CHAMFERA
 40
0.0
  9
$CHAMFERB
 40
0.0
  9
$SKPOLY
 70
     0
  9
$TDCREATE
 40
2450361.716226968
  9
$TDUPDATE
 40
2456598.6794099659
  9
$TDINDWG
 40
0.0015330787
  9
$TDUSRTIMER
 40
0.0015330787
  9
$USRTIMER
 70
     1
  9
$ANGBASE
 50
0.0
  9
$ANGDIR
 70
     0
  9
$PDMODE
 70
     0
  9
$PDSIZE
 40
0.0
  9
$PLINEWID
 40
0.0
  9
$COORDS
 70
     1
  9
$SPLFRAME
 70
     0
  9
$SPLINETYPE
 70
     6
  9
$SPLINESEGS
 70
     8
  9
$ATTDIA
 70
     0
  9
$ATTREQ
 70
     1
  9
$HANDLING
 70
     1
  9
$HANDSEED
  5
27A
  9
$SURFTAB1
 70
     6
  9
$SURFTAB2
 70
     6
  9
$SURFTYPE
 70
     6
  9
$SURFU
 70
     6
  9
$SURFV
 70
     6
  9
$UCSNAME
  2

  9
$UCSORG
 10
0.0
 20
0.0
 30
0.0
  9
$UCSXDIR
 10
1.0
 20
0.0
 30
0.0
  9
$UCSYDIR
 10
0.0
 20
1.0
 30
0.0
  9
$PUCSNAME
  2

  9
$PUCSORG
 10
0.0
 20
0.0
 30
0.0
  9
$PUCSXDIR
 10
1.0
 20
0.0
 30
0.0
  9
$PUCSYDIR
 10
0.0
 20
1.0
 30
0.0
  9
$USERI1
 70
     3
  9
$USERI2
 70
     1
  9
$USERI3
 70
     1
  9
$USERI4
 70
     0
  9
$USERI5
 70
     0
  9
$USERR1
 40
1.0
  9
$USERR2
 40
3.0
  9
$USERR3
 40
3.0
  9
$USERR4
 40
3.0
  9
$USERR5
 40
10.0
  9
$WORLDVIEW
 70
     1
  9
$SHADEDGE
 70
     3
  9
$SHADEDIF
 70
    70
  9
$TILEMODE
 70
     1
  9
$MAXACTVP
 70
    16
  9
$PLIMCHECK
 70
     0
  9
$PEXTMIN
 10
1.0000000000000000E+020
 20
1.0000000000000000E+020
 30
1.0000000000000000E+020
  9
$PEXTMAX
 10
-1.0000000000000000E+020
 20
-1.0000000000000000E+020
 30
-1.0000000000000000E+020
  9
$PLIMMIN
 10
0.0
 20
0.0
  9
$PLIMMAX
 10
12.0
 20
9.0
  9
$UNITMODE
 70
     0
  9
$VISRETAIN
 70
     0
  9
$PLINEGEN
 70
     0
  9
$PSLTSCALE
 70
     0
  0
ENDSEC
  0
SECTION
  2
TABLES
  0
TABLE
  2
VPORT
 70
     1
  0
VPORT
  2
*ACTIVE
 70
     0
 10
0.0
 20
0.0
 11
1.0
 21
1.0
 12
192.49412581440311
 22
169.9063198933564
 13
0.0
 23
0.0
 14
5.0
 24
5.0
 15
0.0
 25
0.0
 16
0.0
 26
0.0
 36
1.0
 17
0.0
 27
0.0
 37
0.0
 40
348.89937369551939
 41
1.831871345029239
 42
50.0
 43
0.0
 44
0.0
 50
0.0
 51
0.0
 71
     0
 72
   100
 73
     1
 74
     0
 75
     0
 76
     0
 77
     0
 78
     1
  0
ENDTAB
  0
TABLE
  2
LTYPE
 70
     4
  0
LTYPE
  2
CONTINUOUS
 70
     0
  3
Solid Line
 72
    65
 73
     0
 40
0.0
  0
LTYPE
  2
CENTER
 70
     0
  3
____ _ ____ _ ____ _ ____ _ ____ _ ____ _ ____
 72
    65
 73
     4
 40
2.0
 49
1.25
 49
-0.25
 49
0.25
 49
-0.25
  0
LTYPE
  2
HIDDEN
 70
     0
  3
_ _ _ _ _ _ _ _ _ _ _ _ _ _ _ _ _ _ _ _ _ _ _
 72
    65
 73
     2
 40
0.375
 49
0.25
 49
-0.125
  0
LTYPE
  2
PHANTOM2
 70
     0
  3
___ _ _ ___ _ _ ___ _ _ ___ _ _
 72
    65
 73
     6
 40
1.25
 49
0.625
 49
-0.125
 49
0.125
 49
-0.125
 49
0.125
 49
-0.125
  0
ENDTAB
  0
TABLE
  2
LAYER
 70
     4
  0
LAYER
  2
0
 70
     0
 62
     7
  6
CONTINUOUS
  0
LAYER
  2
1
 70
     0
 62
     1
  6
CENTER
  0
LAYER
  2
2
 70
     0
 62
     2
  6
HIDDEN
  0
LAYER
  2
3
 70
     0
 62
     3
  6
CONTINUOUS
  0
ENDTAB
  0
TABLE
  2
STYLE
 70
     2
  0
STYLE
  2
STANDARD
 70
     0
 40
0.0
 41
1.0
 50
0.0
 71
     0
 42
0.2
  3
SIMPLEX
  4
BIGFONT
  0
STYLE
  2
STANDARD1
 70
     0
 40
0.0
 41
1.0
 50
0.0
 71
     0
 42
3.0
  3
txt
  4

  0
ENDTAB
  0
TABLE
  2
VIEW
 70
     0
  0
ENDTAB
  0
TABLE
  2
UCS
 70
     0
  0
ENDTAB
  0
TABLE
  2
APPID
 70
     4
  0
APPID
  2
ACAD
 70
     0
  0
APPID
  2
ACAD_EXEMPT_FROM_CAD_STANDARDS
 70
     0
  0
APPID
  2
ACAD_MLEADERVER
 70
     0
  0
APPID
  2
ACAD_NAV_VCDISPLAY
 70
     0
  0
ENDTAB
  0
TABLE
  2
DIMSTYLE
 70
     1
  0
DIMSTYLE
  2
STANDARD
 70
     0
  3

  4

  5

  6

  7

 40
1.0
 41
0.18
 42
0.0625
 43
0.38
 44
0.18
 45
0.0
 46
0.0
 47
0.0
 48
0.0
140
0.18
141
0.09
142
0.0
143
25.399999999999999
144
1.0
145
0.0
146
1.0
147
0.09
 71
     0
 72
     0
 73
     1
 74
     1
 75
     0
 76
     0
 77
     0
 78
     0
170
     0
171
     2
172
     0
173
     0
174
     0
175
     0
176
     0
177
     0
178
     0
  0
ENDTAB
  0
ENDSEC
  0
SECTION
  2
BLOCKS
  0
BLOCK
  8
0
  2
$MODEL_SPACE
 70
     0
 10
0.0
 20
0.0
 30
0.0
  3
$MODEL_SPACE
  1

  0
ENDBLK
  5
DD
  8
0
  0
BLOCK
 67
     1
  8
0
  2
$PAPER_SPACE
 70
     0
 10
0.0
 20
0.0
 30
0.0
  3
$PAPER_SPACE
  1

  0
ENDBLK
  5
DB
 67
     1
  8
0
  0
ENDSEC
  0
SECTION
  2
ENTITIES
  0
LINE
  5
37
  8
3
 10
158.43677388064029
 20
51.0643178527327
 30
0.0
 11
159.57131127857249
 21
52.198855250664849
 31
0.0
  0
POINT
  5
3B
  8
0
 10
158.0713112785723
 20
23.064317852732589
 30
0.0
  0
LINE
  5
3C
  8
0
 10
151.07131127857221
 20
23.064317852732589
 30
0.0
 11
158.07131127857249
 21
23.06431785273293
 31
0.0
  0
POINT
  5
3D
  8
0
 10
151.07131127857221
 20
23.064317852732589
 30
0.0
  0
LINE
  5
3F
  8
0
 10
158.0713112785723
 20
23.064317852732589
 30
0.0
 11
159.5713112785723
 21
25.662394064086129
 31
0.0
  0
LINE
  5
40
  8
0
 10
159.5713112785723
 20
53.064317852732749
 30
0.0
 11
159.5713112785723
 21
25.662394064086129
 31
0.0
  0
LINE
  5
41
  8
3
 10
158.4367738806402
 20
51.0643178527327
 30
0.0
 11
158.4367738806402
 21
23.697317647780839
 31
0.0
  0
POINT
  5
42
  8
0
 10
149.57131127857221
 20
51.0643178527327
 30
0.0
  0
LINE
  5
43
  8
3
 10
150.7058486765043
 20
51.0643178527327
 30
0.0
 11
149.57131127857221
 21
52.198855250664849
 31
0.0
  0
LINE
  5
45
  8
3
 10
150.7058486765043
 20
51.0643178527327
 30
0.0
 11
150.7058486765043
 21
23.697317647780839
 31
0.0
  0
LINE
  5
46
  8
0
 10
149.57131127857221
 20
53.064317852732749
 30
0.0
 11
149.57131127857221
 21
25.6623940640863
 31
0.0
  0
LINE
  5
47
  8
0
 10
159.5713112785723
 20
51.0643178527327
 30
0.0
 11
149.57131127857221
 21
51.0643178527327
 31
0.0
  0
LINE
  5
48
  8
0
 10
149.5713112785723
 20
25.662394064086129
 30
0.0
 11
159.5713112785723
 21
25.662394064086129
 31
0.0
  0
LINE
  5
49
  8
0
 10
151.07131127857241
 20
23.064317852732589
 30
0.0
 11
149.5713112785723
 21
25.662394064086129
 31
0.0
  0
ARC
  5
4A
  8
2
 10
154.5713112785723
 20
204.68643642355451
 30
0.0
 40
120.6221185708218
 50
255.41466870242141
 51
284.58533129757848
  0
ARC
  5
4B
  8
0
 10
134.449013939281
 20
68.064317852732756
 30
0.0
 40
2.0
 50
270.0
 51
24.89429913411864
  0
ARC
  5
4C
  8
0
 10
125.04923663815001
 20
79.000930433478231
 30
0.0
 40
2.963387419254556
 50
34.159836840925202
 51
146.2262451586972
  0
ARC
  5
4D
  8
0
 10
142.2986762835296
 20
71.687201264466964
 30
0.0
 40
21.653940625653139
 50
155.5541384261202
 51
186.25110179654169
  0
ARC
  5
4E
  8
0
 10
53.132824613069488
 20
16.106423324731448
 30
0.0
 40
98.480832178373106
 50
32.421444146700331
 51
40.960866176975337
  0
CIRCLE
  5
4F
  8
0
 10
149.0713112785723
 20
183.06431785273281
 30
0.0
 40
1.5
  0
CIRCLE
  5
50
  8
0
 10
143.5713112785723
 20
183.06431785273281
 30
0.0
 40
1.5
  0
CIRCLE
  5
51
  8
0
 10
165.57131127857221
 20
183.06431785273281
 30
0.0
 40
1.5
  0
CIRCLE
  5
52
  8
0
 10
160.07131127857221
 20
183.06431785273281
 30
0.0
 40
1.5
  0
CIRCLE
  5
53
  8
0
 10
154.5713112785723
 20
183.06431785273281
 30
0.0
 40
1.5
  0
CIRCLE
  5
54
  8
3
 10
154.5713112785723
 20
183.06431785273281
 30
0.0
 40
30.117003796232272
  0
ARC
  5
55
  8
2
 10
123.314680804918
 20
84.564317852732813
 30
0.0
 40
3.5
 50
75.414668702421423
 51
90.0
  0
ARC
  5
56
  8
2
 10
185.82794175222671
 20
84.564317852732813
 30
0.0
 40
3.5
 50
90.0
 51
104.58533129757861
  0
ARC
  5
57
  8
2
 10
185.82794175222671
 20
84.564317852732813
 30
0.0
 40
3.5
 50
105.0633136702061
 51
109.0023916471357
  0
CIRCLE
  5
58
  8
0
 10
154.5713112785723
 20
183.06431785273281
 30
0.0
 40
35.0
  0
ARC
  5
59
  8
0
 10
154.5713112785723
 20
76.96431785273279
 30
0.0
 40
5.0
 50
90.0
 51
150.0
  0
ARC
  5
5A
  8
0
 10
123.314680804918
 20
84.564317852732813
 30
0.0
 40
3.5
 50
90.0
 51
183.848706911915
  0
LINE
  5
5B
  8
0
 10
120.5138605315292
 20
84.329390490939744
 30
0.0
 11
120.5138605315292
 21
83.464317852732805
 31
0.0
  0
ARC
  5
5C
  8
0
 10
124.26559138382549
 20
69.564317852732813
 30
0.0
 40
3.5
 50
183.8487069119152
 51
270.0
  0
LINE
  5
5D
  8
0
 10
139.3213112785723
 20
53.064317852732749
 30
0.0
 11
138.3213112785723
 21
54.064317852732813
 31
0.0
  0
LINE
  5
5E
  8
0
 10
138.3213112785723
 20
54.064317852732813
 30
0.0
 11
138.3213112785723
 21
66.0643178527327
 31
0.0
  0
LINE
  5
5F
  8
0
 10
119.8225741148695
 20
83.464317852732961
 30
0.0
 11
120.77348469377721
 21
69.329390490939716
 31
0.0
  0
ARC
  5
60
  8
0
 10
145.96879226764679
 20
68.064317852732756
 30
0.0
 40
2.0
 50
150.00000000000011
 51
270.0
  0
LINE
  5
61
  8
0
 10
150.24118425965011
 20
79.46431785273279
 30
0.0
 11
144.23674146007809
 21
69.064317852732813
 31
0.0
  0
LINE
  5
62
  8
0
 10
185.82794175222671
 20
88.064317852732771
 30
0.0
 11
123.314680804918
 21
88.064317852732756
 31
0.0
  0
LINE
  5
63
  8
0
 10
119.8225741148695
 20
84.329390490939744
 30
0.0
 11
189.32004844227509
 21
84.329390490939858
 31
0.0
  0
LINE
  5
64
  8
0
 10
119.8225741148695
 20
83.464317852732805
 30
0.0
 11
189.32004844227521
 21
83.464317852732961
 31
0.0
  0
LINE
  5
65
  8
0
 10
124.26559138382549
 20
66.0643178527327
 30
0.0
 11
184.8770311733191
 21
66.064317852732813
 31
0.0
  0
LINE
  5
66
  8
0
 10
169.8213112785723
 20
53.064317852732763
 30
0.0
 11
139.3213112785723
 21
53.064317852732749
 31
0.0
  0
LINE
  5
67
  8
0
 10
138.3213112785723
 20
54.064317852732813
 30
0.0
 11
170.8213112785723
 21
54.064317852732813
 31
0.0
  0
LINE
  5
68
  8
3
 10
136.06536478073559
 20
69.329390490939716
 30
0.0
 11
144.38978121910159
 21
69.329390490939716
 31
0.0
  0
ARC
  5
69
  8
0
 10
163.17383028949769
 20
68.064317852732756
 30
0.0
 40
2.0
 50
270.0
 51
29.999999999999879
  0
ARC
  5
6A
  8
0
 10
174.69360861786359
 20
68.064317852732756
 30
0.0
 40
2.0
 50
155.10570086587839
 51
270.0
  0
LINE
  5
6B
  8
3
 10
173.077257776409
 20
69.329390490939716
 30
0.0
 11
164.752841338043
 21
69.329390490939716
 31
0.0
  0
ARC
  5
6C
  8
0
 10
184.09338591899461
 20
79.000930433478231
 30
0.0
 40
2.963387419254556
 50
33.773754841302662
 51
145.84016315907479
  0
ARC
  5
6D
  8
0
 10
166.8439462736151
 20
71.687201264466964
 30
0.0
 40
21.653940625653139
 50
353.7488982034584
 51
24.445861573881679
  0
ARC
  5
6E
  8
0
 10
256.00979794407527
 20
16.106423324731448
 30
0.0
 40
98.480832178373106
 50
139.0391338230246
 51
147.5785558532996
  0
LINE
  5
6F
  8
0
 10
158.90143829749459
 20
79.46431785273279
 30
0.0
 11
164.90588109706661
 21
69.064317852732813
 31
0.0
  0
ARC
  5
70
  8
0
 10
154.5713112785723
 20
76.96431785273279
 30
0.0
 40
5.0
 50
29.999999999999879
 51
90.0
  0
LINE
  5
72
  8
0
 10
169.82131127857221
 20
53.064317852732749
 30
0.0
 11
170.8213112785723
 21
54.064317852732813
 31
0.0
  0
LINE
  5
73
  8
0
 10
188.62876202561549
 20
84.329390490939744
 30
0.0
 11
188.62876202561549
 21
83.464317852732805
 31
0.0
  0
ARC
  5
74
  8
0
 10
184.8770311733191
 20
69.564317852732813
 30
0.0
 40
3.5
 50
270.0
 51
356.15129308808463
  0
ARC
  5
77
  8
0
 10
185.82794175222671
 20
84.564317852732813
 30
0.0
 40
3.5
 50
356.1512930880848
 51
90.0
  0
LINE
  5
78
  8
0
 10
189.32004844227521
 20
83.464317852732961
 30
0.0
 11
188.3691378633676
 21
69.329390490939716
 31
0.0
  0
LINE
  5
7B
  8
0
 10
170.8213112785723
 20
54.064317852732813
 30
0.0
 11
170.8213112785723
 21
66.0643178527327
 31
0.0
  0
LINE
  5
7D
  8
1
 10
154.5713112785723
 20
227.5251868000382
 30
0.0
 11
154.5713112785723
 21
138.6034489054274
 31
0.0
  0
LINE
  5
7E
  8
1
 10
154.5713112785723
 20
92.507948365636125
 30
0.0
 11
154.5713112785723
 21
18.746604929972989
 31
0.0
  0
LINE
  5
7F
  8
1
 10
199.03218022587771
 20
183.06431785273281
 30
0.0
 11
110.1104423312669
 21
183.06431785273281
 31
0.0
  0
TEXT
  5
217
  8
0
 62
     3
 10
0.0
 20
0.0
 30
0.0
 40
10.0
  1
ELK70X30
  7
STANDARD1
  0
ENDSEC
  0
EOF
