  0
SECTION
  2
HEADER
  9
$ACADVER
  1
AC1009
  9
$INSBASE
 10
0.0
 20
0.0
 30
0.0
  9
$EXTMIN
 10
0.0
 20
-2.960436562073669
 30
0.0
  9
$EXTMAX
 10
158.7500000000004
 20
135.75000000000011
 30
0.0
  9
$LIMMIN
 10
0.0
 20
0.0
  9
$LIMMAX
 10
187.5
 20
135.0
  9
$ORTHOMODE
 70
     1
  9
$REGENMODE
 70
     1
  9
$FILLMODE
 70
     1
  9
$QTEXTMODE
 70
     0
  9
$MIRRTEXT
 70
     0
  9
$DRAGMODE
 70
     2
  9
$LTSCALE
 40
5.0
  9
$OSMODE
 70
    37
  9
$ATTMODE
 70
     1
  9
$TEXTSIZE
 40
0.2
  9
$TRACEWID
 40
0.05
  9
$TEXTSTYLE
  7
STANDARD
  9
$CLAYER
  8
0
  9
$CELTYPE
  6
BYLAYER
  9
$CECOLOR
 62
     4
  9
$DIMSCALE
 40
1.0
  9
$DIMASZ
 40
3.0
  9
$DIMEXO
 40
2.0
  9
$DIMDLI
 40
0.3799999999999999
  9
$DIMRND
 40
0.0
  9
$DIMDLE
 40
0.0
  9
$DIMEXE
 40
2.0
  9
$DIMTP
 40
0.0
  9
$DIMTM
 40
0.0
  9
$DIMTXT
 40
3.2000000000000002
  9
$DIMCEN
 40
0.09
  9
$DIMTSZ
 40
0.0
  9
$DIMTOL
 70
     0
  9
$DIMLIM
 70
     0
  9
$DIMTIH
 70
     0
  9
$DIMTOH
 70
     0
  9
$DIMSE1
 70
     0
  9
$DIMSE2
 70
     0
  9
$DIMTAD
 70
     1
  9
$DIMZIN
 70
     8
  9
$DIMBLK
  1

  9
$DIMASO
 70
     0
  9
$DIMSHO
 70
     0
  9
$DIMPOST
  1

  9
$DIMAPOST
  1

  9
$DIMALT
 70
     0
  9
$DIMALTD
 70
     2
  9
$DIMALTF
 40
25.399999999999999
  9
$DIMLFAC
 40
1.0
  9
$DIMTOFL
 70
     0
  9
$DIMTVP
 40
1.6000000000000001
  9
$DIMTIX
 70
     1
  9
$DIMSOXD
 70
     0
  9
$DIMSAH
 70
     0
  9
$DIMBLK1
  1

  9
$DIMBLK2
  1

  9
$DIMSTYLE
  2
STANDARD
  9
$DIMCLRD
 70
     0
  9
$DIMCLRE
 70
     0
  9
$DIMCLRT
 70
     0
  9
$DIMTFAC
 40
1.0
  9
$DIMGAP
 40
1.0
  9
$LUNITS
 70
     2
  9
$LUPREC
 70
     1
  9
$SKETCHINC
 40
0.1
  9
$FILLETRAD
 40
0.4
  9
$AUNITS
 70
     0
  9
$AUPREC
 70
     1
  9
$MENU
  1
E:\r13\win\SUPPORT\ACAD
  9
$ELEVATION
 40
0.0
  9
$PELEVATION
 40
0.0
  9
$THICKNESS
 40
0.0
  9
$LIMCHECK
 70
     0
  9
$BLIPMODE
 70
     0
  9
$CHAMFERA
 40
0.0
  9
$CHAMFERB
 40
0.0
  9
$SKPOLY
 70
     0
  9
$TDCREATE
 40
2456129.6740617128
  9
$TDUPDATE
 40
2457892.4257672341
  9
$TDINDWG
 40
0.5521021644
  9
$TDUSRTIMER
 40
0.5521019907
  9
$USRTIMER
 70
     1
  9
$ANGBASE
 50
0.0
  9
$ANGDIR
 70
     0
  9
$PDMODE
 70
     0
  9
$PDSIZE
 40
0.0
  9
$PLINEWID
 40
0.0
  9
$COORDS
 70
     1
  9
$SPLFRAME
 70
     0
  9
$SPLINETYPE
 70
     6
  9
$SPLINESEGS
 70
     8
  9
$ATTDIA
 70
     0
  9
$ATTREQ
 70
     1
  9
$HANDLING
 70
     1
  9
$HANDSEED
  5
ADC5
  9
$SURFTAB1
 70
     6
  9
$SURFTAB2
 70
     6
  9
$SURFTYPE
 70
     6
  9
$SURFU
 70
     6
  9
$SURFV
 70
     6
  9
$UCSNAME
  2

  9
$UCSORG
 10
0.0
 20
0.0
 30
0.0
  9
$UCSXDIR
 10
1.0
 20
0.0
 30
0.0
  9
$UCSYDIR
 10
0.0
 20
1.0
 30
0.0
  9
$PUCSNAME
  2

  9
$PUCSORG
 10
0.0
 20
0.0
 30
0.0
  9
$PUCSXDIR
 10
1.0
 20
0.0
 30
0.0
  9
$PUCSYDIR
 10
0.0
 20
1.0
 30
0.0
  9
$USERI1
 70
     0
  9
$USERI2
 70
     1
  9
$USERI3
 70
     0
  9
$USERI4
 70
     0
  9
$USERI5
 70
     0
  9
$USERR1
 40
0.0
  9
$USERR2
 40
0.0
  9
$USERR3
 40
0.0
  9
$USERR4
 40
0.0
  9
$USERR5
 40
0.0
  9
$WORLDVIEW
 70
     1
  9
$SHADEDGE
 70
     3
  9
$SHADEDIF
 70
    70
  9
$TILEMODE
 70
     1
  9
$MAXACTVP
 70
    16
  9
$PLIMCHECK
 70
     0
  9
$PEXTMIN
 10
1.0000000000000000E+020
 20
1.0000000000000000E+020
 30
1.0000000000000000E+020
  9
$PEXTMAX
 10
-1.0000000000000000E+020
 20
-1.0000000000000000E+020
 30
-1.0000000000000000E+020
  9
$PLIMMIN
 10
0.0
 20
0.0
  9
$PLIMMAX
 10
12.0
 20
9.0
  9
$UNITMODE
 70
     0
  9
$VISRETAIN
 70
     0
  9
$PLINEGEN
 70
     0
  9
$PSLTSCALE
 70
     0
  0
ENDSEC
  0
SECTION
  2
TABLES
  0
TABLE
  2
VPORT
 70
     1
  0
VPORT
  2
*ACTIVE
 70
     0
 10
0.0
 20
0.0
 11
1.0
 21
1.0
 12
181.62393162393161
 22
100.0
 13
0.0
 23
0.0
 14
5.0
 24
5.0
 15
5.0
 25
5.0
 16
0.0
 26
0.0
 36
1.0
 17
0.0
 27
0.0
 37
0.0
 40
200.0
 41
1.816239316239316
 42
50.0
 43
0.0
 44
0.0
 50
0.0
 51
0.0
 71
     0
 72
   500
 73
     1
 74
     0
 75
     0
 76
     0
 77
     0
 78
     2
  0
ENDTAB
  0
TABLE
  2
LTYPE
 70
     4
  0
LTYPE
  2
CONTINUOUS
 70
     0
  3
Solid Line
 72
    65
 73
     0
 40
0.0
  0
LTYPE
  2
CENTER
 70
     0
  3
____ _ ____ _ ____ _ ____ _ ____ _ ____ _ ____
 72
    65
 73
     4
 40
2.0
 49
1.25
 49
-0.25
 49
0.25
 49
-0.25
  0
LTYPE
  2
HIDDEN
 70
     0
  3
__ __ __ __ __ __ __ __ __ __ __ __ __ __ __ __
 72
    65
 73
     2
 40
0.375
 49
0.25
 49
-0.125
  0
LTYPE
  2
PHANTOM2
 70
     0
  3
___ _ _ ___ _ _ ___ _ _ ___ _ _
 72
    65
 73
     6
 40
1.25
 49
0.625
 49
-0.125
 49
0.125
 49
-0.125
 49
0.125
 49
-0.125
  0
ENDTAB
  0
TABLE
  2
LAYER
 70
     5
  0
LAYER
  2
0
 70
     0
 62
     7
  6
CONTINUOUS
  0
LAYER
  2
1
 70
     0
 62
     1
  6
CENTER
  0
LAYER
  2
2
 70
     0
 62
     2
  6
HIDDEN
  0
LAYER
  2
3
 70
     0
 62
     3
  6
CONTINUOUS
  0
LAYER
  2
DEFPOINTS
 70
     0
 62
     7
  6
CONTINUOUS
  0
ENDTAB
  0
TABLE
  2
STYLE
 70
     2
  0
STYLE
  2
STANDARD
 70
     0
 40
0.0
 41
1.0
 50
0.0
 71
     0
 42
0.2
  3
TXT
  4
BIGFONT
  0
STYLE
  2
STANDARD1
 70
     0
 40
0.0
 41
1.0
 50
0.0
 71
     0
 42
3.0
  3
txt
  4

  0
ENDTAB
  0
TABLE
  2
VIEW
 70
     0
  0
ENDTAB
  0
TABLE
  2
UCS
 70
     0
  0
ENDTAB
  0
TABLE
  2
APPID
 70
     7
  0
APPID
  2
ACAD
 70
     0
  0
APPID
  2
ACAD_MLEADERVER
 70
     0
  0
APPID
  2
ACAD_PSEXT
 70
     0
  0
APPID
  2
ACAD_EXEMPT_FROM_CAD_STANDARDS
 70
     0
  0
APPID
  2
ACAD_DSTYLE_DIMJAG
 70
     0
  0
APPID
  2
ACAD_DSTYLE_DIMTALN
 70
     0
  0
APPID
  2
ACAD_NAV_VCDISPLAY
 70
     0
  0
ENDTAB
  0
TABLE
  2
DIMSTYLE
 70
     1
  0
DIMSTYLE
  2
STANDARD
 70
     0
  3

  4

  5

  6

  7

 40
1.0
 41
0.18
 42
0.0625
 43
0.38
 44
0.18
 45
0.0
 46
0.0
 47
0.0
 48
0.0
140
0.18
141
0.09
142
0.0
143
25.399999999999999
144
1.0
145
0.0
146
1.0
147
0.09
 71
     0
 72
     0
 73
     1
 74
     1
 75
     0
 76
     0
 77
     0
 78
     0
170
     0
171
     2
172
     0
173
     0
174
     0
175
     0
176
     0
177
     0
178
     0
  0
ENDTAB
  0
ENDSEC
  0
SECTION
  2
BLOCKS
  0
BLOCK
  8
0
  2
$MODEL_SPACE
 70
     0
 10
0.0
 20
0.0
 30
0.0
  3
$MODEL_SPACE
  1

  0
ENDBLK
  5
9
  8
0
  0
BLOCK
 67
     1
  8
0
  2
$PAPER_SPACE
 70
     0
 10
0.0
 20
0.0
 30
0.0
  3
$PAPER_SPACE
  1

  0
ENDBLK
  5
E
 67
     1
  8
0
  0
ENDSEC
  0
SECTION
  2
ENTITIES
  0
TEXT
  5
A62B
  8
0
 62
     3
 10
0.0
 20
0.0
 30
0.0
 40
10.0
  1
ENWN48A
  7
STANDARD1
  0
LINE
  5
A698
  8
2
 10
132.70850000000021
 20
50.541499999999992
 30
0.0
 11
132.70850000000021
 21
61.458500000000022
 31
0.0
  0
LINE
  5
A699
  8
2
 10
127.7915000000002
 20
61.458500000000022
 30
0.0
 11
127.7915000000002
 21
50.541499999999992
 31
0.0
  0
LINE
  5
A69A
  8
2
 10
127.7915000000002
 20
50.541499999999992
 30
0.0
 11
127.2500000000002
 21
50.0
 31
0.0
  0
LINE
  5
A69B
  8
2
 10
133.2500000000002
 20
50.0
 30
0.0
 11
132.70850000000021
 21
50.541499999999992
 31
0.0
  0
LINE
  5
A69C
  8
2
 10
127.7915000000002
 20
50.541499999999992
 30
0.0
 11
132.70850000000021
 21
50.541499999999992
 31
0.0
  0
LINE
  5
A69D
  8
2
 10
132.70850000000021
 20
61.458500000000022
 30
0.0
 11
133.2500000000002
 21
62.0
 31
0.0
  0
LINE
  5
A69E
  8
2
 10
127.2500000000002
 20
62.0
 30
0.0
 11
127.7915000000002
 21
61.458500000000022
 31
0.0
  0
LINE
  5
A69F
  8
2
 10
127.7915000000002
 20
61.458500000000022
 30
0.0
 11
132.70850000000021
 21
61.458500000000022
 31
0.0
  0
LINE
  5
A6A6
  8
2
 10
134.5000000000002
 20
62.0
 30
0.0
 11
134.5000000000002
 21
63.199999999999989
 31
0.0
  0
LINE
  5
A6A7
  8
2
 10
126.0000000000002
 20
63.199999999999989
 30
0.0
 11
126.0000000000002
 21
62.0
 31
0.0
  0
LINE
  5
A6A8
  8
2
 10
126.0000000000002
 20
62.0
 30
0.0
 11
134.5000000000002
 21
62.0
 31
0.0
  0
LINE
  5
A6A9
  8
2
 10
135.2500000000002
 20
63.199999999999989
 30
0.0
 11
135.2500000000002
 21
71.967780879788791
 31
0.0
  0
LINE
  5
A6AA
  8
2
 10
125.2500000000002
 20
71.967780879788833
 30
0.0
 11
125.2500000000002
 21
63.199999999999989
 31
0.0
  0
LINE
  5
A6AB
  8
2
 10
125.2500000000002
 20
63.199999999999989
 30
0.0
 11
135.2500000000002
 21
63.199999999999989
 31
0.0
  0
LINE
  5
A6B1
  8
2
 10
127.2500000000002
 20
62.0
 30
0.0
 11
127.2500000000002
 21
50.0
 31
0.0
  0
LINE
  5
A6B2
  8
2
 10
133.2500000000002
 20
62.0
 30
0.0
 11
133.2500000000002
 21
50.0
 31
0.0
  0
LINE
  5
A6B3
  8
1
 10
130.2500000000002
 20
45.0
 30
0.0
 11
130.2500000000002
 21
76.967780879788819
 31
0.0
  0
POLYLINE
  5
A6B4
  8
0
 10
114.2366439675891
 20
62.116251501201212
 30
0.0
 66
     1
 70
     8
  0
VERTEX
  8
0
  5
ABBD
 10
114.237
 20
62.1163
 30
0.000000
  70
    32
  0
VERTEX
  8
0
  5
ABBE
 10
114.466
 20
62.1219
 30
0.000000
  70
    32
  0
VERTEX
  8
0
  5
ABBF
 10
114.695
 20
62.1388
 30
0.000000
  70
    32
  0
VERTEX
  8
0
  5
ABC0
 10
114.922
 20
62.1669
 30
0.000000
  70
    32
  0
VERTEX
  8
0
  5
ABC1
 10
115.148
 20
62.2062
 30
0.000000
  70
    32
  0
VERTEX
  8
0
  5
ABC2
 10
115.372
 20
62.2566
 30
0.000000
  70
    32
  0
VERTEX
  8
0
  5
ABC3
 10
115.593
 20
62.3179
 30
0.000000
  70
    32
  0
VERTEX
  8
0
  5
ABC4
 10
115.811
 20
62.3900
 30
0.000000
  70
    32
  0
VERTEX
  8
0
  5
ABC5
 10
116.025
 20
62.4728
 30
0.000000
  70
    32
  0
VERTEX
  8
0
  5
ABC6
 10
116.235
 20
62.5659
 30
0.000000
  70
    32
  0
VERTEX
  8
0
  5
ABC7
 10
116.440
 20
62.6693
 30
0.000000
  70
    32
  0
VERTEX
  8
0
  5
ABC8
 10
116.639
 20
62.7826
 30
0.000000
  70
    32
  0
VERTEX
  8
0
  5
ABC9
 10
116.833
 20
62.9056
 30
0.000000
  70
    32
  0
VERTEX
  8
0
  5
ABCA
 10
117.021
 20
63.0380
 30
0.000000
  70
    32
  0
VERTEX
  8
0
  5
ABCB
 10
117.201
 20
63.1794
 30
0.000000
  70
    32
  0
VERTEX
  8
0
  5
ABCC
 10
117.375
 20
63.3296
 30
0.000000
  70
    32
  0
VERTEX
  8
0
  5
ABCD
 10
117.541
 20
63.4881
 30
0.000000
  70
    32
  0
VERTEX
  8
0
  5
ABCE
 10
117.699
 20
63.6546
 30
0.000000
  70
    32
  0
VERTEX
  8
0
  5
ABCF
 10
117.849
 20
63.8287
 30
0.000000
  70
    32
  0
VERTEX
  8
0
  5
ABD0
 10
117.990
 20
64.0099
 30
0.000000
  70
    32
  0
VERTEX
  8
0
  5
ABD1
 10
118.122
 20
64.1978
 30
0.000000
  70
    32
  0
VERTEX
  8
0
  5
ABD2
 10
118.245
 20
64.3921
 30
0.000000
  70
    32
  0
VERTEX
  8
0
  5
ABD3
 10
118.358
 20
64.5921
 30
0.000000
  70
    32
  0
VERTEX
  8
0
  5
ABD4
 10
118.461
 20
64.7974
 30
0.000000
  70
    32
  0
VERTEX
  8
0
  5
ABD5
 10
118.554
 20
65.0076
 30
0.000000
  70
    32
  0
VERTEX
  8
0
  5
ABD6
 10
118.637
 20
65.2221
 30
0.000000
  70
    32
  0
VERTEX
  8
0
  5
ABD7
 10
118.709
 20
65.4404
 30
0.000000
  70
    32
  0
VERTEX
  8
0
  5
ABD8
 10
118.770
 20
65.6619
 30
0.000000
  70
    32
  0
VERTEX
  8
0
  5
ABD9
 10
118.820
 20
65.8862
 30
0.000000
  70
    32
  0
VERTEX
  8
0
  5
ABDA
 10
118.859
 20
66.1128
 30
0.000000
  70
    32
  0
VERTEX
  8
0
  5
ABDB
 10
118.887
 20
66.3409
 30
0.000000
  70
    32
  0
VERTEX
  8
0
  5
ABDC
 10
118.904
 20
66.5702
 30
0.000000
  70
    32
  0
VERTEX
  8
0
  5
ABDD
 10
118.910
 20
66.8000
 30
0.000000
  70
    32
  0
VERTEX
  8
0
  5
ABDE
 10
118.904
 20
67.0298
 30
0.000000
  70
    32
  0
VERTEX
  8
0
  5
ABDF
 10
118.887
 20
67.2591
 30
0.000000
  70
    32
  0
VERTEX
  8
0
  5
ABE0
 10
118.859
 20
67.4872
 30
0.000000
  70
    32
  0
VERTEX
  8
0
  5
ABE1
 10
118.820
 20
67.7138
 30
0.000000
  70
    32
  0
VERTEX
  8
0
  5
ABE2
 10
118.770
 20
67.9381
 30
0.000000
  70
    32
  0
VERTEX
  8
0
  5
ABE3
 10
118.709
 20
68.1596
 30
0.000000
  70
    32
  0
VERTEX
  8
0
  5
ABE4
 10
118.637
 20
68.3779
 30
0.000000
  70
    32
  0
VERTEX
  8
0
  5
ABE5
 10
118.554
 20
68.5924
 30
0.000000
  70
    32
  0
VERTEX
  8
0
  5
ABE6
 10
118.461
 20
68.8026
 30
0.000000
  70
    32
  0
VERTEX
  8
0
  5
ABE7
 10
118.358
 20
69.0079
 30
0.000000
  70
    32
  0
VERTEX
  8
0
  5
ABE8
 10
118.245
 20
69.2079
 30
0.000000
  70
    32
  0
VERTEX
  8
0
  5
ABE9
 10
118.122
 20
69.4022
 30
0.000000
  70
    32
  0
VERTEX
  8
0
  5
ABEA
 10
117.990
 20
69.5901
 30
0.000000
  70
    32
  0
VERTEX
  8
0
  5
ABEB
 10
117.849
 20
69.7713
 30
0.000000
  70
    32
  0
VERTEX
  8
0
  5
ABEC
 10
117.699
 20
69.9454
 30
0.000000
  70
    32
  0
VERTEX
  8
0
  5
ABED
 10
117.541
 20
70.1119
 30
0.000000
  70
    32
  0
VERTEX
  8
0
  5
ABEE
 10
117.375
 20
70.2704
 30
0.000000
  70
    32
  0
VERTEX
  8
0
  5
ABEF
 10
117.201
 20
70.4206
 30
0.000000
  70
    32
  0
VERTEX
  8
0
  5
ABF0
 10
117.021
 20
70.5620
 30
0.000000
  70
    32
  0
VERTEX
  8
0
  5
ABF1
 10
116.833
 20
70.6944
 30
0.000000
  70
    32
  0
VERTEX
  8
0
  5
ABF2
 10
116.639
 20
70.8174
 30
0.000000
  70
    32
  0
VERTEX
  8
0
  5
ABF3
 10
116.440
 20
70.9307
 30
0.000000
  70
    32
  0
VERTEX
  8
0
  5
ABF4
 10
116.235
 20
71.0341
 30
0.000000
  70
    32
  0
VERTEX
  8
0
  5
ABF5
 10
116.025
 20
71.1272
 30
0.000000
  70
    32
  0
VERTEX
  8
0
  5
ABF6
 10
115.811
 20
71.2100
 30
0.000000
  70
    32
  0
VERTEX
  8
0
  5
ABF7
 10
115.593
 20
71.2821
 30
0.000000
  70
    32
  0
VERTEX
  8
0
  5
ABF8
 10
115.372
 20
71.3434
 30
0.000000
  70
    32
  0
VERTEX
  8
0
  5
ABF9
 10
115.148
 20
71.3938
 30
0.000000
  70
    32
  0
VERTEX
  8
0
  5
ABFA
 10
114.922
 20
71.4331
 30
0.000000
  70
    32
  0
VERTEX
  8
0
  5
ABFB
 10
114.695
 20
71.4612
 30
0.000000
  70
    32
  0
VERTEX
  8
0
  5
ABFC
 10
114.466
 20
71.4781
 30
0.000000
  70
    32
  0
VERTEX
  8
0
  5
ABFD
 10
114.237
 20
71.4837
 30
0.000000
  70
    32
  0
VERTEX
  8
0
  5
ABFE
 10
114.007
 20
71.4781
 30
0.000000
  70
    32
  0
VERTEX
  8
0
  5
ABFF
 10
113.779
 20
71.4612
 30
0.000000
  70
    32
  0
VERTEX
  8
0
  5
AC00
 10
113.551
 20
71.4331
 30
0.000000
  70
    32
  0
VERTEX
  8
0
  5
AC01
 10
113.325
 20
71.3938
 30
0.000000
  70
    32
  0
VERTEX
  8
0
  5
AC02
 10
113.101
 20
71.3434
 30
0.000000
  70
    32
  0
VERTEX
  8
0
  5
AC03
 10
112.880
 20
71.2821
 30
0.000000
  70
    32
  0
VERTEX
  8
0
  5
AC04
 10
112.662
 20
71.2100
 30
0.000000
  70
    32
  0
VERTEX
  8
0
  5
AC05
 10
112.448
 20
71.1272
 30
0.000000
  70
    32
  0
VERTEX
  8
0
  5
AC06
 10
112.239
 20
71.0341
 30
0.000000
  70
    32
  0
VERTEX
  8
0
  5
AC07
 10
112.034
 20
70.9307
 30
0.000000
  70
    32
  0
VERTEX
  8
0
  5
AC08
 10
111.834
 20
70.8174
 30
0.000000
  70
    32
  0
VERTEX
  8
0
  5
AC09
 10
111.640
 20
70.6944
 30
0.000000
  70
    32
  0
VERTEX
  8
0
  5
AC0A
 10
111.453
 20
70.5620
 30
0.000000
  70
    32
  0
VERTEX
  8
0
  5
AC0B
 10
111.272
 20
70.4206
 30
0.000000
  70
    32
  0
VERTEX
  8
0
  5
AC0C
 10
111.098
 20
70.2704
 30
0.000000
  70
    32
  0
VERTEX
  8
0
  5
AC0D
 10
110.932
 20
70.1119
 30
0.000000
  70
    32
  0
VERTEX
  8
0
  5
AC0E
 10
110.774
 20
69.9454
 30
0.000000
  70
    32
  0
VERTEX
  8
0
  5
AC0F
 10
110.624
 20
69.7713
 30
0.000000
  70
    32
  0
VERTEX
  8
0
  5
AC10
 10
110.483
 20
69.5901
 30
0.000000
  70
    32
  0
VERTEX
  8
0
  5
AC11
 10
110.351
 20
69.4022
 30
0.000000
  70
    32
  0
VERTEX
  8
0
  5
AC12
 10
110.228
 20
69.2079
 30
0.000000
  70
    32
  0
VERTEX
  8
0
  5
AC13
 10
110.115
 20
69.0079
 30
0.000000
  70
    32
  0
VERTEX
  8
0
  5
AC14
 10
110.012
 20
68.8026
 30
0.000000
  70
    32
  0
VERTEX
  8
0
  5
AC15
 10
109.919
 20
68.5924
 30
0.000000
  70
    32
  0
VERTEX
  8
0
  5
AC16
 10
109.837
 20
68.3779
 30
0.000000
  70
    32
  0
VERTEX
  8
0
  5
AC17
 10
109.765
 20
68.1596
 30
0.000000
  70
    32
  0
VERTEX
  8
0
  5
AC18
 10
109.703
 20
67.9381
 30
0.000000
  70
    32
  0
VERTEX
  8
0
  5
AC19
 10
109.653
 20
67.7138
 30
0.000000
  70
    32
  0
VERTEX
  8
0
  5
AC1A
 10
109.614
 20
67.4872
 30
0.000000
  70
    32
  0
VERTEX
  8
0
  5
AC1B
 10
109.586
 20
67.2591
 30
0.000000
  70
    32
  0
VERTEX
  8
0
  5
AC1C
 10
109.569
 20
67.0298
 30
0.000000
  70
    32
  0
VERTEX
  8
0
  5
AC1D
 10
109.563
 20
66.8000
 30
0.000000
  70
    32
  0
VERTEX
  8
0
  5
AC1E
 10
109.569
 20
66.5702
 30
0.000000
  70
    32
  0
VERTEX
  8
0
  5
AC1F
 10
109.586
 20
66.3409
 30
0.000000
  70
    32
  0
VERTEX
  8
0
  5
AC20
 10
109.614
 20
66.1128
 30
0.000000
  70
    32
  0
VERTEX
  8
0
  5
AC21
 10
109.653
 20
65.8862
 30
0.000000
  70
    32
  0
VERTEX
  8
0
  5
AC22
 10
109.703
 20
65.6619
 30
0.000000
  70
    32
  0
VERTEX
  8
0
  5
AC23
 10
109.765
 20
65.4404
 30
0.000000
  70
    32
  0
VERTEX
  8
0
  5
AC24
 10
109.837
 20
65.2221
 30
0.000000
  70
    32
  0
VERTEX
  8
0
  5
AC25
 10
109.919
 20
65.0076
 30
0.000000
  70
    32
  0
VERTEX
  8
0
  5
AC26
 10
110.012
 20
64.7974
 30
0.000000
  70
    32
  0
VERTEX
  8
0
  5
AC27
 10
110.115
 20
64.5921
 30
0.000000
  70
    32
  0
VERTEX
  8
0
  5
AC28
 10
110.228
 20
64.3921
 30
0.000000
  70
    32
  0
VERTEX
  8
0
  5
AC29
 10
110.351
 20
64.1978
 30
0.000000
  70
    32
  0
VERTEX
  8
0
  5
AC2A
 10
110.483
 20
64.0099
 30
0.000000
  70
    32
  0
VERTEX
  8
0
  5
AC2B
 10
110.624
 20
63.8287
 30
0.000000
  70
    32
  0
VERTEX
  8
0
  5
AC2C
 10
110.774
 20
63.6546
 30
0.000000
  70
    32
  0
VERTEX
  8
0
  5
AC2D
 10
110.932
 20
63.4881
 30
0.000000
  70
    32
  0
VERTEX
  8
0
  5
AC2E
 10
111.098
 20
63.3296
 30
0.000000
  70
    32
  0
VERTEX
  8
0
  5
AC2F
 10
111.272
 20
63.1794
 30
0.000000
  70
    32
  0
VERTEX
  8
0
  5
AC30
 10
111.453
 20
63.0380
 30
0.000000
  70
    32
  0
VERTEX
  8
0
  5
AC31
 10
111.640
 20
62.9056
 30
0.000000
  70
    32
  0
VERTEX
  8
0
  5
AC32
 10
111.834
 20
62.7826
 30
0.000000
  70
    32
  0
VERTEX
  8
0
  5
AC33
 10
112.034
 20
62.6693
 30
0.000000
  70
    32
  0
VERTEX
  8
0
  5
AC34
 10
112.239
 20
62.5659
 30
0.000000
  70
    32
  0
VERTEX
  8
0
  5
AC35
 10
112.448
 20
62.4728
 30
0.000000
  70
    32
  0
VERTEX
  8
0
  5
AC36
 10
112.662
 20
62.3900
 30
0.000000
  70
    32
  0
VERTEX
  8
0
  5
AC37
 10
112.880
 20
62.3179
 30
0.000000
  70
    32
  0
VERTEX
  8
0
  5
AC38
 10
113.101
 20
62.2566
 30
0.000000
  70
    32
  0
VERTEX
  8
0
  5
AC39
 10
113.325
 20
62.2062
 30
0.000000
  70
    32
  0
VERTEX
  8
0
  5
AC3A
 10
113.551
 20
62.1669
 30
0.000000
  70
    32
  0
VERTEX
  8
0
  5
AC3B
 10
113.779
 20
62.1388
 30
0.000000
  70
    32
  0
VERTEX
  8
0
  5
AC3C
 10
114.007
 20
62.1219
 30
0.000000
  70
    32
  0
VERTEX
  8
0
  5
AC3D
 10
114.237
 20
62.1163
 30
0.000000
  70
    32
  0
SEQEND
  8
0
  5
AC3E
  0
POLYLINE
  5
A6B6
  8
0
 10
146.26335603241139
 20
62.116251501201205
 30
0.0
 66
     1
 70
     8
  0
VERTEX
  8
0
  5
AC3F
 10
146.263
 20
62.1163
 30
0.000000
  70
    32
  0
VERTEX
  8
0
  5
AC40
 10
146.493
 20
62.1219
 30
0.000000
  70
    32
  0
VERTEX
  8
0
  5
AC41
 10
146.721
 20
62.1388
 30
0.000000
  70
    32
  0
VERTEX
  8
0
  5
AC42
 10
146.949
 20
62.1669
 30
0.000000
  70
    32
  0
VERTEX
  8
0
  5
AC43
 10
147.175
 20
62.2062
 30
0.000000
  70
    32
  0
VERTEX
  8
0
  5
AC44
 10
147.399
 20
62.2566
 30
0.000000
  70
    32
  0
VERTEX
  8
0
  5
AC45
 10
147.620
 20
62.3179
 30
0.000000
  70
    32
  0
VERTEX
  8
0
  5
AC46
 10
147.838
 20
62.3900
 30
0.000000
  70
    32
  0
VERTEX
  8
0
  5
AC47
 10
148.052
 20
62.4728
 30
0.000000
  70
    32
  0
VERTEX
  8
0
  5
AC48
 10
148.261
 20
62.5659
 30
0.000000
  70
    32
  0
VERTEX
  8
0
  5
AC49
 10
148.466
 20
62.6693
 30
0.000000
  70
    32
  0
VERTEX
  8
0
  5
AC4A
 10
148.666
 20
62.7826
 30
0.000000
  70
    32
  0
VERTEX
  8
0
  5
AC4B
 10
148.860
 20
62.9056
 30
0.000000
  70
    32
  0
VERTEX
  8
0
  5
AC4C
 10
149.047
 20
63.0380
 30
0.000000
  70
    32
  0
VERTEX
  8
0
  5
AC4D
 10
149.228
 20
63.1794
 30
0.000000
  70
    32
  0
VERTEX
  8
0
  5
AC4E
 10
149.402
 20
63.3296
 30
0.000000
  70
    32
  0
VERTEX
  8
0
  5
AC4F
 10
149.568
 20
63.4881
 30
0.000000
  70
    32
  0
VERTEX
  8
0
  5
AC50
 10
149.726
 20
63.6546
 30
0.000000
  70
    32
  0
VERTEX
  8
0
  5
AC51
 10
149.876
 20
63.8287
 30
0.000000
  70
    32
  0
VERTEX
  8
0
  5
AC52
 10
150.017
 20
64.0099
 30
0.000000
  70
    32
  0
VERTEX
  8
0
  5
AC53
 10
150.149
 20
64.1978
 30
0.000000
  70
    32
  0
VERTEX
  8
0
  5
AC54
 10
150.272
 20
64.3921
 30
0.000000
  70
    32
  0
VERTEX
  8
0
  5
AC55
 10
150.385
 20
64.5921
 30
0.000000
  70
    32
  0
VERTEX
  8
0
  5
AC56
 10
150.488
 20
64.7974
 30
0.000000
  70
    32
  0
VERTEX
  8
0
  5
AC57
 10
150.581
 20
65.0076
 30
0.000000
  70
    32
  0
VERTEX
  8
0
  5
AC58
 10
150.663
 20
65.2221
 30
0.000000
  70
    32
  0
VERTEX
  8
0
  5
AC59
 10
150.735
 20
65.4404
 30
0.000000
  70
    32
  0
VERTEX
  8
0
  5
AC5A
 10
150.797
 20
65.6619
 30
0.000000
  70
    32
  0
VERTEX
  8
0
  5
AC5B
 10
150.847
 20
65.8862
 30
0.000000
  70
    32
  0
VERTEX
  8
0
  5
AC5C
 10
150.886
 20
66.1128
 30
0.000000
  70
    32
  0
VERTEX
  8
0
  5
AC5D
 10
150.914
 20
66.3409
 30
0.000000
  70
    32
  0
VERTEX
  8
0
  5
AC5E
 10
150.931
 20
66.5702
 30
0.000000
  70
    32
  0
VERTEX
  8
0
  5
AC5F
 10
150.937
 20
66.8000
 30
0.000000
  70
    32
  0
VERTEX
  8
0
  5
AC60
 10
150.931
 20
67.0298
 30
0.000000
  70
    32
  0
VERTEX
  8
0
  5
AC61
 10
150.914
 20
67.2591
 30
0.000000
  70
    32
  0
VERTEX
  8
0
  5
AC62
 10
150.886
 20
67.4872
 30
0.000000
  70
    32
  0
VERTEX
  8
0
  5
AC63
 10
150.847
 20
67.7138
 30
0.000000
  70
    32
  0
VERTEX
  8
0
  5
AC64
 10
150.797
 20
67.9381
 30
0.000000
  70
    32
  0
VERTEX
  8
0
  5
AC65
 10
150.735
 20
68.1596
 30
0.000000
  70
    32
  0
VERTEX
  8
0
  5
AC66
 10
150.663
 20
68.3779
 30
0.000000
  70
    32
  0
VERTEX
  8
0
  5
AC67
 10
150.581
 20
68.5924
 30
0.000000
  70
    32
  0
VERTEX
  8
0
  5
AC68
 10
150.488
 20
68.8026
 30
0.000000
  70
    32
  0
VERTEX
  8
0
  5
AC69
 10
150.385
 20
69.0079
 30
0.000000
  70
    32
  0
VERTEX
  8
0
  5
AC6A
 10
150.272
 20
69.2079
 30
0.000000
  70
    32
  0
VERTEX
  8
0
  5
AC6B
 10
150.149
 20
69.4022
 30
0.000000
  70
    32
  0
VERTEX
  8
0
  5
AC6C
 10
150.017
 20
69.5901
 30
0.000000
  70
    32
  0
VERTEX
  8
0
  5
AC6D
 10
149.876
 20
69.7713
 30
0.000000
  70
    32
  0
VERTEX
  8
0
  5
AC6E
 10
149.726
 20
69.9454
 30
0.000000
  70
    32
  0
VERTEX
  8
0
  5
AC6F
 10
149.568
 20
70.1119
 30
0.000000
  70
    32
  0
VERTEX
  8
0
  5
AC70
 10
149.402
 20
70.2704
 30
0.000000
  70
    32
  0
VERTEX
  8
0
  5
AC71
 10
149.228
 20
70.4206
 30
0.000000
  70
    32
  0
VERTEX
  8
0
  5
AC72
 10
149.047
 20
70.5620
 30
0.000000
  70
    32
  0
VERTEX
  8
0
  5
AC73
 10
148.860
 20
70.6944
 30
0.000000
  70
    32
  0
VERTEX
  8
0
  5
AC74
 10
148.666
 20
70.8174
 30
0.000000
  70
    32
  0
VERTEX
  8
0
  5
AC75
 10
148.466
 20
70.9307
 30
0.000000
  70
    32
  0
VERTEX
  8
0
  5
AC76
 10
148.261
 20
71.0341
 30
0.000000
  70
    32
  0
VERTEX
  8
0
  5
AC77
 10
148.052
 20
71.1272
 30
0.000000
  70
    32
  0
VERTEX
  8
0
  5
AC78
 10
147.838
 20
71.2100
 30
0.000000
  70
    32
  0
VERTEX
  8
0
  5
AC79
 10
147.620
 20
71.2821
 30
0.000000
  70
    32
  0
VERTEX
  8
0
  5
AC7A
 10
147.399
 20
71.3434
 30
0.000000
  70
    32
  0
VERTEX
  8
0
  5
AC7B
 10
147.175
 20
71.3938
 30
0.000000
  70
    32
  0
VERTEX
  8
0
  5
AC7C
 10
146.949
 20
71.4331
 30
0.000000
  70
    32
  0
VERTEX
  8
0
  5
AC7D
 10
146.721
 20
71.4612
 30
0.000000
  70
    32
  0
VERTEX
  8
0
  5
AC7E
 10
146.493
 20
71.4781
 30
0.000000
  70
    32
  0
VERTEX
  8
0
  5
AC7F
 10
146.263
 20
71.4837
 30
0.000000
  70
    32
  0
VERTEX
  8
0
  5
AC80
 10
146.034
 20
71.4781
 30
0.000000
  70
    32
  0
VERTEX
  8
0
  5
AC81
 10
145.805
 20
71.4612
 30
0.000000
  70
    32
  0
VERTEX
  8
0
  5
AC82
 10
145.578
 20
71.4331
 30
0.000000
  70
    32
  0
VERTEX
  8
0
  5
AC83
 10
145.352
 20
71.3938
 30
0.000000
  70
    32
  0
VERTEX
  8
0
  5
AC84
 10
145.128
 20
71.3434
 30
0.000000
  70
    32
  0
VERTEX
  8
0
  5
AC85
 10
144.907
 20
71.2821
 30
0.000000
  70
    32
  0
VERTEX
  8
0
  5
AC86
 10
144.689
 20
71.2100
 30
0.000000
  70
    32
  0
VERTEX
  8
0
  5
AC87
 10
144.475
 20
71.1272
 30
0.000000
  70
    32
  0
VERTEX
  8
0
  5
AC88
 10
144.265
 20
71.0341
 30
0.000000
  70
    32
  0
VERTEX
  8
0
  5
AC89
 10
144.060
 20
70.9307
 30
0.000000
  70
    32
  0
VERTEX
  8
0
  5
AC8A
 10
143.861
 20
70.8174
 30
0.000000
  70
    32
  0
VERTEX
  8
0
  5
AC8B
 10
143.667
 20
70.6944
 30
0.000000
  70
    32
  0
VERTEX
  8
0
  5
AC8C
 10
143.479
 20
70.5620
 30
0.000000
  70
    32
  0
VERTEX
  8
0
  5
AC8D
 10
143.299
 20
70.4206
 30
0.000000
  70
    32
  0
VERTEX
  8
0
  5
AC8E
 10
143.125
 20
70.2704
 30
0.000000
  70
    32
  0
VERTEX
  8
0
  5
AC8F
 10
142.959
 20
70.1119
 30
0.000000
  70
    32
  0
VERTEX
  8
0
  5
AC90
 10
142.801
 20
69.9454
 30
0.000000
  70
    32
  0
VERTEX
  8
0
  5
AC91
 10
142.651
 20
69.7713
 30
0.000000
  70
    32
  0
VERTEX
  8
0
  5
AC92
 10
142.510
 20
69.5901
 30
0.000000
  70
    32
  0
VERTEX
  8
0
  5
AC93
 10
142.378
 20
69.4022
 30
0.000000
  70
    32
  0
VERTEX
  8
0
  5
AC94
 10
142.255
 20
69.2079
 30
0.000000
  70
    32
  0
VERTEX
  8
0
  5
AC95
 10
142.142
 20
69.0079
 30
0.000000
  70
    32
  0
VERTEX
  8
0
  5
AC96
 10
142.039
 20
68.8026
 30
0.000000
  70
    32
  0
VERTEX
  8
0
  5
AC97
 10
141.946
 20
68.5924
 30
0.000000
  70
    32
  0
VERTEX
  8
0
  5
AC98
 10
141.863
 20
68.3779
 30
0.000000
  70
    32
  0
VERTEX
  8
0
  5
AC99
 10
141.791
 20
68.1596
 30
0.000000
  70
    32
  0
VERTEX
  8
0
  5
AC9A
 10
141.730
 20
67.9381
 30
0.000000
  70
    32
  0
VERTEX
  8
0
  5
AC9B
 10
141.680
 20
67.7138
 30
0.000000
  70
    32
  0
VERTEX
  8
0
  5
AC9C
 10
141.641
 20
67.4872
 30
0.000000
  70
    32
  0
VERTEX
  8
0
  5
AC9D
 10
141.613
 20
67.2591
 30
0.000000
  70
    32
  0
VERTEX
  8
0
  5
AC9E
 10
141.596
 20
67.0298
 30
0.000000
  70
    32
  0
VERTEX
  8
0
  5
AC9F
 10
141.590
 20
66.8000
 30
0.000000
  70
    32
  0
VERTEX
  8
0
  5
ACA0
 10
141.596
 20
66.5702
 30
0.000000
  70
    32
  0
VERTEX
  8
0
  5
ACA1
 10
141.613
 20
66.3409
 30
0.000000
  70
    32
  0
VERTEX
  8
0
  5
ACA2
 10
141.641
 20
66.1128
 30
0.000000
  70
    32
  0
VERTEX
  8
0
  5
ACA3
 10
141.680
 20
65.8862
 30
0.000000
  70
    32
  0
VERTEX
  8
0
  5
ACA4
 10
141.730
 20
65.6619
 30
0.000000
  70
    32
  0
VERTEX
  8
0
  5
ACA5
 10
141.791
 20
65.4404
 30
0.000000
  70
    32
  0
VERTEX
  8
0
  5
ACA6
 10
141.863
 20
65.2221
 30
0.000000
  70
    32
  0
VERTEX
  8
0
  5
ACA7
 10
141.946
 20
65.0076
 30
0.000000
  70
    32
  0
VERTEX
  8
0
  5
ACA8
 10
142.039
 20
64.7974
 30
0.000000
  70
    32
  0
VERTEX
  8
0
  5
ACA9
 10
142.142
 20
64.5921
 30
0.000000
  70
    32
  0
VERTEX
  8
0
  5
ACAA
 10
142.255
 20
64.3921
 30
0.000000
  70
    32
  0
VERTEX
  8
0
  5
ACAB
 10
142.378
 20
64.1978
 30
0.000000
  70
    32
  0
VERTEX
  8
0
  5
ACAC
 10
142.510
 20
64.0099
 30
0.000000
  70
    32
  0
VERTEX
  8
0
  5
ACAD
 10
142.651
 20
63.8287
 30
0.000000
  70
    32
  0
VERTEX
  8
0
  5
ACAE
 10
142.801
 20
63.6546
 30
0.000000
  70
    32
  0
VERTEX
  8
0
  5
ACAF
 10
142.959
 20
63.4881
 30
0.000000
  70
    32
  0
VERTEX
  8
0
  5
ACB0
 10
143.125
 20
63.3296
 30
0.000000
  70
    32
  0
VERTEX
  8
0
  5
ACB1
 10
143.299
 20
63.1794
 30
0.000000
  70
    32
  0
VERTEX
  8
0
  5
ACB2
 10
143.479
 20
63.0380
 30
0.000000
  70
    32
  0
VERTEX
  8
0
  5
ACB3
 10
143.667
 20
62.9056
 30
0.000000
  70
    32
  0
VERTEX
  8
0
  5
ACB4
 10
143.861
 20
62.7826
 30
0.000000
  70
    32
  0
VERTEX
  8
0
  5
ACB5
 10
144.060
 20
62.6693
 30
0.000000
  70
    32
  0
VERTEX
  8
0
  5
ACB6
 10
144.265
 20
62.5659
 30
0.000000
  70
    32
  0
VERTEX
  8
0
  5
ACB7
 10
144.475
 20
62.4728
 30
0.000000
  70
    32
  0
VERTEX
  8
0
  5
ACB8
 10
144.689
 20
62.3900
 30
0.000000
  70
    32
  0
VERTEX
  8
0
  5
ACB9
 10
144.907
 20
62.3179
 30
0.000000
  70
    32
  0
VERTEX
  8
0
  5
ACBA
 10
145.128
 20
62.2566
 30
0.000000
  70
    32
  0
VERTEX
  8
0
  5
ACBB
 10
145.352
 20
62.2062
 30
0.000000
  70
    32
  0
VERTEX
  8
0
  5
ACBC
 10
145.578
 20
62.1669
 30
0.000000
  70
    32
  0
VERTEX
  8
0
  5
ACBD
 10
145.805
 20
62.1388
 30
0.000000
  70
    32
  0
VERTEX
  8
0
  5
ACBE
 10
146.034
 20
62.1219
 30
0.000000
  70
    32
  0
VERTEX
  8
0
  5
ACBF
 10
146.263
 20
62.1163
 30
0.000000
  70
    32
  0
SEQEND
  8
0
  5
ACC0
  0
LINE
  5
A6BE
  8
0
 10
146.55000000000049
 20
74.000000000000114
 30
0.0
 11
146.2525084150559
 21
74.000000000000114
 31
0.0
  0
ARC
  5
A6BF
  8
0
 10
146.55000000000049
 20
66.800000000000125
 30
0.0
 40
7.1999999999999966
 50
290.67709639263558
 51
90.0
  0
POLYLINE
  5
A6C0
  8
0
 66
     1
 10
0.0
 20
0.0
 30
0.0
  0
VERTEX
  5
AAA1
  8
0
 10
146.2525084150559
 20
74.000000000000114
 30
0.0
  0
VERTEX
  5
AAA2
  8
0
 10
146.0228576265898
 20
73.996373040414142
 30
0.0
  0
VERTEX
  5
AAA3
  8
0
 10
145.4198376053003
 20
73.952204200046765
 30
0.0
  0
VERTEX
  5
AAA4
  8
0
 10
144.8225036191169
 20
73.858346539482454
 30
0.0
  0
VERTEX
  5
AAA5
  8
0
 10
144.2182802551994
 20
73.710527591913944
 30
0.0
  0
VERTEX
  5
AAA6
  8
0
 10
143.62869661020801
 20
73.51201428058954
 30
0.0
  0
VERTEX
  5
AAA7
  8
0
 10
143.21276536584489
 20
73.337095685859708
 30
0.0
  0
SEQEND
  5
AAA8
  8
0
  0
POLYLINE
  5
A6C1
  8
0
 66
     1
 10
0.0
 20
0.0
 30
0.0
  0
VERTEX
  5
AAA9
  8
0
 10
117.2872346341553
 20
73.337095685859595
 30
0.0
  0
VERTEX
  5
AAAA
  8
0
 10
117.2568954639422
 20
73.350884854905985
 30
0.0
  0
VERTEX
  5
AAAB
  8
0
 10
116.691385561815
 20
73.578507904121238
 30
0.0
  0
VERTEX
  5
AAAC
  8
0
 10
116.10900701438
 20
73.758399804219096
 30
0.0
  0
VERTEX
  5
AAAD
  8
0
 10
115.49625278544249
 20
73.892159151670683
 30
0.0
  0
VERTEX
  5
AAAE
  8
0
 10
114.8743395726615
 20
73.972966741447522
 30
0.0
  0
VERTEX
  5
AAAF
  8
0
 10
114.26576165959069
 20
73.999932439520805
 30
0.0
  0
VERTEX
  5
AAB0
  8
0
 10
114.2475682979379
 20
74.000000000000114
 30
0.0
  0
SEQEND
  5
AAB1
  8
0
  0
LINE
  5
A6C5
  8
0
 10
114.2475682979379
 20
74.000000000000114
 30
0.0
 11
113.9499999999999
 21
74.000000000000114
 31
0.0
  0
ARC
  5
A6C6
  8
0
 10
113.9499999999999
 20
66.800000000000125
 30
0.0
 40
7.1999999999999957
 50
90.0
 51
249.3229036073644
  0
ARC
  5
A6CB
  8
0
 10
123.00190363197051
 20
110.89168361594039
 30
0.0
 40
57.133049242422629
 50
284.18235019523399
 51
297.17184259003852
  0
ARC
  5
A6CE
  8
0
 10
137.4980963680303
 20
110.8916836159413
 30
0.0
 40
57.133049242423631
 50
242.82815740996151
 51
255.81764980476601
  0
POLYLINE
  5
A6D0
  8
0
 10
117.28723463415541
 20
73.337095685859424
 30
0.0
 66
     1
 70
     8
  0
VERTEX
  8
0
  5
ACC1
 10
117.287
 20
73.3371
 30
0.000000
  70
    32
  0
VERTEX
  8
0
  5
ACC2
 10
117.325
 20
73.3266
 30
0.000000
  70
    32
  0
VERTEX
  8
0
  5
ACC3
 10
117.362
 20
73.3161
 30
0.000000
  70
    32
  0
VERTEX
  8
0
  5
ACC4
 10
117.400
 20
73.3057
 30
0.000000
  70
    32
  0
VERTEX
  8
0
  5
ACC5
 10
117.438
 20
73.2953
 30
0.000000
  70
    32
  0
VERTEX
  8
0
  5
ACC6
 10
117.475
 20
73.2849
 30
0.000000
  70
    32
  0
VERTEX
  8
0
  5
ACC7
 10
117.513
 20
73.2746
 30
0.000000
  70
    32
  0
VERTEX
  8
0
  5
ACC8
 10
117.551
 20
73.2643
 30
0.000000
  70
    32
  0
VERTEX
  8
0
  5
ACC9
 10
117.588
 20
73.2540
 30
0.000000
  70
    32
  0
VERTEX
  8
0
  5
ACCA
 10
117.626
 20
73.2438
 30
0.000000
  70
    32
  0
VERTEX
  8
0
  5
ACCB
 10
117.664
 20
73.2335
 30
0.000000
  70
    32
  0
VERTEX
  8
0
  5
ACCC
 10
117.701
 20
73.2233
 30
0.000000
  70
    32
  0
VERTEX
  8
0
  5
ACCD
 10
117.739
 20
73.2132
 30
0.000000
  70
    32
  0
VERTEX
  8
0
  5
ACCE
 10
117.777
 20
73.2031
 30
0.000000
  70
    32
  0
VERTEX
  8
0
  5
ACCF
 10
117.815
 20
73.1930
 30
0.000000
  70
    32
  0
VERTEX
  8
0
  5
ACD0
 10
117.852
 20
73.1829
 30
0.000000
  70
    32
  0
VERTEX
  8
0
  5
ACD1
 10
117.890
 20
73.1729
 30
0.000000
  70
    32
  0
VERTEX
  8
0
  5
ACD2
 10
117.928
 20
73.1628
 30
0.000000
  70
    32
  0
VERTEX
  8
0
  5
ACD3
 10
117.966
 20
73.1529
 30
0.000000
  70
    32
  0
VERTEX
  8
0
  5
ACD4
 10
118.003
 20
73.1429
 30
0.000000
  70
    32
  0
VERTEX
  8
0
  5
ACD5
 10
118.041
 20
73.1330
 30
0.000000
  70
    32
  0
VERTEX
  8
0
  5
ACD6
 10
118.079
 20
73.1231
 30
0.000000
  70
    32
  0
VERTEX
  8
0
  5
ACD7
 10
118.117
 20
73.1133
 30
0.000000
  70
    32
  0
VERTEX
  8
0
  5
ACD8
 10
118.155
 20
73.1034
 30
0.000000
  70
    32
  0
VERTEX
  8
0
  5
ACD9
 10
118.192
 20
73.0936
 30
0.000000
  70
    32
  0
VERTEX
  8
0
  5
ACDA
 10
118.230
 20
73.0839
 30
0.000000
  70
    32
  0
VERTEX
  8
0
  5
ACDB
 10
118.268
 20
73.0741
 30
0.000000
  70
    32
  0
VERTEX
  8
0
  5
ACDC
 10
118.306
 20
73.0644
 30
0.000000
  70
    32
  0
VERTEX
  8
0
  5
ACDD
 10
118.344
 20
73.0548
 30
0.000000
  70
    32
  0
VERTEX
  8
0
  5
ACDE
 10
118.381
 20
73.0451
 30
0.000000
  70
    32
  0
VERTEX
  8
0
  5
ACDF
 10
118.419
 20
73.0355
 30
0.000000
  70
    32
  0
VERTEX
  8
0
  5
ACE0
 10
118.457
 20
73.0259
 30
0.000000
  70
    32
  0
VERTEX
  8
0
  5
ACE1
 10
118.495
 20
73.0164
 30
0.000000
  70
    32
  0
VERTEX
  8
0
  5
ACE2
 10
118.533
 20
73.0068
 30
0.000000
  70
    32
  0
VERTEX
  8
0
  5
ACE3
 10
118.571
 20
72.9973
 30
0.000000
  70
    32
  0
VERTEX
  8
0
  5
ACE4
 10
118.609
 20
72.9879
 30
0.000000
  70
    32
  0
VERTEX
  8
0
  5
ACE5
 10
118.647
 20
72.9784
 30
0.000000
  70
    32
  0
VERTEX
  8
0
  5
ACE6
 10
118.684
 20
72.9690
 30
0.000000
  70
    32
  0
VERTEX
  8
0
  5
ACE7
 10
118.722
 20
72.9597
 30
0.000000
  70
    32
  0
VERTEX
  8
0
  5
ACE8
 10
118.760
 20
72.9503
 30
0.000000
  70
    32
  0
VERTEX
  8
0
  5
ACE9
 10
118.798
 20
72.9410
 30
0.000000
  70
    32
  0
VERTEX
  8
0
  5
ACEA
 10
118.836
 20
72.9317
 30
0.000000
  70
    32
  0
VERTEX
  8
0
  5
ACEB
 10
118.874
 20
72.9225
 30
0.000000
  70
    32
  0
VERTEX
  8
0
  5
ACEC
 10
118.912
 20
72.9133
 30
0.000000
  70
    32
  0
VERTEX
  8
0
  5
ACED
 10
118.950
 20
72.9041
 30
0.000000
  70
    32
  0
VERTEX
  8
0
  5
ACEE
 10
118.988
 20
72.8949
 30
0.000000
  70
    32
  0
VERTEX
  8
0
  5
ACEF
 10
119.026
 20
72.8858
 30
0.000000
  70
    32
  0
VERTEX
  8
0
  5
ACF0
 10
119.064
 20
72.8767
 30
0.000000
  70
    32
  0
VERTEX
  8
0
  5
ACF1
 10
119.102
 20
72.8676
 30
0.000000
  70
    32
  0
VERTEX
  8
0
  5
ACF2
 10
119.140
 20
72.8586
 30
0.000000
  70
    32
  0
VERTEX
  8
0
  5
ACF3
 10
119.178
 20
72.8496
 30
0.000000
  70
    32
  0
VERTEX
  8
0
  5
ACF4
 10
119.216
 20
72.8406
 30
0.000000
  70
    32
  0
VERTEX
  8
0
  5
ACF5
 10
119.254
 20
72.8317
 30
0.000000
  70
    32
  0
VERTEX
  8
0
  5
ACF6
 10
119.292
 20
72.8228
 30
0.000000
  70
    32
  0
VERTEX
  8
0
  5
ACF7
 10
119.330
 20
72.8139
 30
0.000000
  70
    32
  0
VERTEX
  8
0
  5
ACF8
 10
119.368
 20
72.8050
 30
0.000000
  70
    32
  0
VERTEX
  8
0
  5
ACF9
 10
119.406
 20
72.7962
 30
0.000000
  70
    32
  0
VERTEX
  8
0
  5
ACFA
 10
119.444
 20
72.7874
 30
0.000000
  70
    32
  0
VERTEX
  8
0
  5
ACFB
 10
119.482
 20
72.7787
 30
0.000000
  70
    32
  0
VERTEX
  8
0
  5
ACFC
 10
119.520
 20
72.7699
 30
0.000000
  70
    32
  0
VERTEX
  8
0
  5
ACFD
 10
119.558
 20
72.7612
 30
0.000000
  70
    32
  0
VERTEX
  8
0
  5
ACFE
 10
119.596
 20
72.7526
 30
0.000000
  70
    32
  0
VERTEX
  8
0
  5
ACFF
 10
119.634
 20
72.7439
 30
0.000000
  70
    32
  0
VERTEX
  8
0
  5
AD00
 10
119.673
 20
72.7353
 30
0.000000
  70
    32
  0
VERTEX
  8
0
  5
AD01
 10
119.711
 20
72.7267
 30
0.000000
  70
    32
  0
VERTEX
  8
0
  5
AD02
 10
119.749
 20
72.7182
 30
0.000000
  70
    32
  0
VERTEX
  8
0
  5
AD03
 10
119.787
 20
72.7097
 30
0.000000
  70
    32
  0
VERTEX
  8
0
  5
AD04
 10
119.825
 20
72.7012
 30
0.000000
  70
    32
  0
VERTEX
  8
0
  5
AD05
 10
119.863
 20
72.6927
 30
0.000000
  70
    32
  0
VERTEX
  8
0
  5
AD06
 10
119.901
 20
72.6843
 30
0.000000
  70
    32
  0
VERTEX
  8
0
  5
AD07
 10
119.939
 20
72.6759
 30
0.000000
  70
    32
  0
VERTEX
  8
0
  5
AD08
 10
119.977
 20
72.6675
 30
0.000000
  70
    32
  0
VERTEX
  8
0
  5
AD09
 10
120.016
 20
72.6592
 30
0.000000
  70
    32
  0
VERTEX
  8
0
  5
AD0A
 10
120.054
 20
72.6509
 30
0.000000
  70
    32
  0
VERTEX
  8
0
  5
AD0B
 10
120.092
 20
72.6426
 30
0.000000
  70
    32
  0
VERTEX
  8
0
  5
AD0C
 10
120.130
 20
72.6344
 30
0.000000
  70
    32
  0
VERTEX
  8
0
  5
AD0D
 10
120.168
 20
72.6262
 30
0.000000
  70
    32
  0
VERTEX
  8
0
  5
AD0E
 10
120.206
 20
72.6180
 30
0.000000
  70
    32
  0
VERTEX
  8
0
  5
AD0F
 10
120.245
 20
72.6098
 30
0.000000
  70
    32
  0
VERTEX
  8
0
  5
AD10
 10
120.283
 20
72.6017
 30
0.000000
  70
    32
  0
VERTEX
  8
0
  5
AD11
 10
120.321
 20
72.5936
 30
0.000000
  70
    32
  0
VERTEX
  8
0
  5
AD12
 10
120.359
 20
72.5856
 30
0.000000
  70
    32
  0
VERTEX
  8
0
  5
AD13
 10
120.398
 20
72.5775
 30
0.000000
  70
    32
  0
VERTEX
  8
0
  5
AD14
 10
120.436
 20
72.5696
 30
0.000000
  70
    32
  0
VERTEX
  8
0
  5
AD15
 10
120.474
 20
72.5616
 30
0.000000
  70
    32
  0
VERTEX
  8
0
  5
AD16
 10
120.512
 20
72.5537
 30
0.000000
  70
    32
  0
VERTEX
  8
0
  5
AD17
 10
120.550
 20
72.5457
 30
0.000000
  70
    32
  0
VERTEX
  8
0
  5
AD18
 10
120.589
 20
72.5379
 30
0.000000
  70
    32
  0
VERTEX
  8
0
  5
AD19
 10
120.627
 20
72.5300
 30
0.000000
  70
    32
  0
VERTEX
  8
0
  5
AD1A
 10
120.665
 20
72.5222
 30
0.000000
  70
    32
  0
VERTEX
  8
0
  5
AD1B
 10
120.703
 20
72.5144
 30
0.000000
  70
    32
  0
VERTEX
  8
0
  5
AD1C
 10
120.742
 20
72.5067
 30
0.000000
  70
    32
  0
VERTEX
  8
0
  5
AD1D
 10
120.780
 20
72.4990
 30
0.000000
  70
    32
  0
VERTEX
  8
0
  5
AD1E
 10
120.818
 20
72.4913
 30
0.000000
  70
    32
  0
VERTEX
  8
0
  5
AD1F
 10
120.857
 20
72.4836
 30
0.000000
  70
    32
  0
VERTEX
  8
0
  5
AD20
 10
120.895
 20
72.4760
 30
0.000000
  70
    32
  0
VERTEX
  8
0
  5
AD21
 10
120.933
 20
72.4684
 30
0.000000
  70
    32
  0
VERTEX
  8
0
  5
AD22
 10
120.972
 20
72.4608
 30
0.000000
  70
    32
  0
VERTEX
  8
0
  5
AD23
 10
121.010
 20
72.4533
 30
0.000000
  70
    32
  0
VERTEX
  8
0
  5
AD24
 10
121.048
 20
72.4458
 30
0.000000
  70
    32
  0
VERTEX
  8
0
  5
AD25
 10
121.086
 20
72.4383
 30
0.000000
  70
    32
  0
VERTEX
  8
0
  5
AD26
 10
121.125
 20
72.4309
 30
0.000000
  70
    32
  0
VERTEX
  8
0
  5
AD27
 10
121.163
 20
72.4234
 30
0.000000
  70
    32
  0
VERTEX
  8
0
  5
AD28
 10
121.201
 20
72.4161
 30
0.000000
  70
    32
  0
VERTEX
  8
0
  5
AD29
 10
121.240
 20
72.4087
 30
0.000000
  70
    32
  0
VERTEX
  8
0
  5
AD2A
 10
121.278
 20
72.4014
 30
0.000000
  70
    32
  0
VERTEX
  8
0
  5
AD2B
 10
121.317
 20
72.3941
 30
0.000000
  70
    32
  0
VERTEX
  8
0
  5
AD2C
 10
121.355
 20
72.3868
 30
0.000000
  70
    32
  0
VERTEX
  8
0
  5
AD2D
 10
121.393
 20
72.3796
 30
0.000000
  70
    32
  0
VERTEX
  8
0
  5
AD2E
 10
121.432
 20
72.3724
 30
0.000000
  70
    32
  0
VERTEX
  8
0
  5
AD2F
 10
121.470
 20
72.3653
 30
0.000000
  70
    32
  0
VERTEX
  8
0
  5
AD30
 10
121.508
 20
72.3581
 30
0.000000
  70
    32
  0
VERTEX
  8
0
  5
AD31
 10
121.547
 20
72.3510
 30
0.000000
  70
    32
  0
VERTEX
  8
0
  5
AD32
 10
121.585
 20
72.3439
 30
0.000000
  70
    32
  0
VERTEX
  8
0
  5
AD33
 10
121.624
 20
72.3369
 30
0.000000
  70
    32
  0
VERTEX
  8
0
  5
AD34
 10
121.662
 20
72.3299
 30
0.000000
  70
    32
  0
VERTEX
  8
0
  5
AD35
 10
121.701
 20
72.3229
 30
0.000000
  70
    32
  0
VERTEX
  8
0
  5
AD36
 10
121.739
 20
72.3159
 30
0.000000
  70
    32
  0
VERTEX
  8
0
  5
AD37
 10
121.777
 20
72.3090
 30
0.000000
  70
    32
  0
VERTEX
  8
0
  5
AD38
 10
121.816
 20
72.3021
 30
0.000000
  70
    32
  0
VERTEX
  8
0
  5
AD39
 10
121.854
 20
72.2953
 30
0.000000
  70
    32
  0
VERTEX
  8
0
  5
AD3A
 10
121.893
 20
72.2884
 30
0.000000
  70
    32
  0
VERTEX
  8
0
  5
AD3B
 10
121.931
 20
72.2817
 30
0.000000
  70
    32
  0
VERTEX
  8
0
  5
AD3C
 10
121.970
 20
72.2749
 30
0.000000
  70
    32
  0
VERTEX
  8
0
  5
AD3D
 10
122.008
 20
72.2682
 30
0.000000
  70
    32
  0
VERTEX
  8
0
  5
AD3E
 10
122.047
 20
72.2614
 30
0.000000
  70
    32
  0
VERTEX
  8
0
  5
AD3F
 10
122.085
 20
72.2548
 30
0.000000
  70
    32
  0
VERTEX
  8
0
  5
AD40
 10
122.123
 20
72.2481
 30
0.000000
  70
    32
  0
VERTEX
  8
0
  5
AD41
 10
122.162
 20
72.2415
 30
0.000000
  70
    32
  0
SEQEND
  8
0
  5
AD42
  0
POLYLINE
  5
A6D1
  8
0
 66
     1
 10
0.0
 20
0.0
 30
0.0
  0
VERTEX
  5
AAB2
  8
0
 10
124.66531606109289
 20
71.967780879788833
 30
0.0
  0
VERTEX
  5
AAB3
  8
0
 10
124.47718798662621
 20
71.971202884378613
 30
0.0
  0
VERTEX
  5
AAB4
  8
0
 10
124.2625476505853
 20
71.981334903711399
 30
0.0
  0
VERTEX
  5
AAB5
  8
0
 10
124.0255026693459
 20
71.997975946132726
 30
0.0
  0
VERTEX
  5
AAB6
  8
0
 10
123.76811414312741
 20
72.021040865783505
 30
0.0
  0
VERTEX
  5
AAB7
  8
0
 10
123.49312891702409
 20
72.050207110382985
 30
0.0
  0
VERTEX
  5
AAB8
  8
0
 10
123.20570775885579
 20
72.084915608131723
 30
0.0
  0
VERTEX
  5
AAB9
  8
0
 10
122.9059599152546
 20
72.125247028257377
 30
0.0
  0
VERTEX
  5
AABA
  8
0
 10
122.5991369946794
 20
72.170477448279257
 30
0.0
  0
VERTEX
  5
AABB
  8
0
 10
122.2908296411733
 20
72.219771412992486
 30
0.0
  0
VERTEX
  5
AABC
  8
0
 10
122.1619849321176
 20
72.241517845560054
 30
0.0
  0
SEQEND
  5
AABD
  8
0
  0
POLYLINE
  5
A6D2
  8
0
 66
     1
 10
0.0
 20
0.0
 30
0.0
  0
VERTEX
  5
AABE
  8
0
 10
138.33801506788279
 20
72.241517845559983
 30
0.0
  0
VERTEX
  5
AABF
  8
0
 10
138.10634054397761
 20
72.202898348873532
 30
0.0
  0
VERTEX
  5
AAC0
  8
0
 10
137.87462824059671
 20
72.166435000390777
 30
0.0
  0
VERTEX
  5
AAC1
  8
0
 10
137.63789394348149
 20
72.131449981608966
 30
0.0
  0
VERTEX
  5
AAC2
  8
0
 10
137.4045200318605
 20
72.099275019709296
 30
0.0
  0
VERTEX
  5
AAC3
  8
0
 10
137.18244882893359
 20
72.070922730088455
 30
0.0
  0
VERTEX
  5
AAC4
  8
0
 10
136.9667727470806
 20
72.045666140800392
 30
0.0
  0
VERTEX
  5
AAC5
  8
0
 10
136.75300831888529
 20
72.023100723956418
 30
0.0
  0
VERTEX
  5
AAC6
  8
0
 10
136.54932544647281
 20
72.004196739120118
 30
0.0
  0
VERTEX
  5
AAC7
  8
0
 10
136.35020462194501
 20
71.988618752801131
 30
0.0
  0
VERTEX
  5
AAC8
  8
0
 10
136.16535459340679
 20
71.977291681047063
 30
0.0
  0
VERTEX
  5
AAC9
  8
0
 10
135.99073759351921
 20
71.970169789949466
 30
0.0
  0
VERTEX
  5
AACA
  8
0
 10
135.83468393890749
 20
71.967780879788791
 30
0.0
  0
SEQEND
  5
AACB
  8
0
  0
POLYLINE
  5
A6D3
  8
0
 10
138.33801506788274
 20
72.241517845559926
 30
0.0
 66
     1
 70
     8
  0
VERTEX
  8
0
  5
AD43
 10
138.338
 20
72.2415
 30
0.000000
  70
    32
  0
VERTEX
  8
0
  5
AD44
 10
138.377
 20
72.2481
 30
0.000000
  70
    32
  0
VERTEX
  8
0
  5
AD45
 10
138.415
 20
72.2548
 30
0.000000
  70
    32
  0
VERTEX
  8
0
  5
AD46
 10
138.453
 20
72.2614
 30
0.000000
  70
    32
  0
VERTEX
  8
0
  5
AD47
 10
138.492
 20
72.2682
 30
0.000000
  70
    32
  0
VERTEX
  8
0
  5
AD48
 10
138.530
 20
72.2749
 30
0.000000
  70
    32
  0
VERTEX
  8
0
  5
AD49
 10
138.569
 20
72.2817
 30
0.000000
  70
    32
  0
VERTEX
  8
0
  5
AD4A
 10
138.607
 20
72.2884
 30
0.000000
  70
    32
  0
VERTEX
  8
0
  5
AD4B
 10
138.646
 20
72.2953
 30
0.000000
  70
    32
  0
VERTEX
  8
0
  5
AD4C
 10
138.684
 20
72.3021
 30
0.000000
  70
    32
  0
VERTEX
  8
0
  5
AD4D
 10
138.723
 20
72.3090
 30
0.000000
  70
    32
  0
VERTEX
  8
0
  5
AD4E
 10
138.761
 20
72.3159
 30
0.000000
  70
    32
  0
VERTEX
  8
0
  5
AD4F
 10
138.799
 20
72.3229
 30
0.000000
  70
    32
  0
VERTEX
  8
0
  5
AD50
 10
138.838
 20
72.3299
 30
0.000000
  70
    32
  0
VERTEX
  8
0
  5
AD51
 10
138.876
 20
72.3369
 30
0.000000
  70
    32
  0
VERTEX
  8
0
  5
AD52
 10
138.915
 20
72.3439
 30
0.000000
  70
    32
  0
VERTEX
  8
0
  5
AD53
 10
138.953
 20
72.3510
 30
0.000000
  70
    32
  0
VERTEX
  8
0
  5
AD54
 10
138.992
 20
72.3581
 30
0.000000
  70
    32
  0
VERTEX
  8
0
  5
AD55
 10
139.030
 20
72.3653
 30
0.000000
  70
    32
  0
VERTEX
  8
0
  5
AD56
 10
139.068
 20
72.3724
 30
0.000000
  70
    32
  0
VERTEX
  8
0
  5
AD57
 10
139.107
 20
72.3796
 30
0.000000
  70
    32
  0
VERTEX
  8
0
  5
AD58
 10
139.145
 20
72.3868
 30
0.000000
  70
    32
  0
VERTEX
  8
0
  5
AD59
 10
139.183
 20
72.3941
 30
0.000000
  70
    32
  0
VERTEX
  8
0
  5
AD5A
 10
139.222
 20
72.4014
 30
0.000000
  70
    32
  0
VERTEX
  8
0
  5
AD5B
 10
139.260
 20
72.4087
 30
0.000000
  70
    32
  0
VERTEX
  8
0
  5
AD5C
 10
139.299
 20
72.4161
 30
0.000000
  70
    32
  0
VERTEX
  8
0
  5
AD5D
 10
139.337
 20
72.4234
 30
0.000000
  70
    32
  0
VERTEX
  8
0
  5
AD5E
 10
139.375
 20
72.4309
 30
0.000000
  70
    32
  0
VERTEX
  8
0
  5
AD5F
 10
139.414
 20
72.4383
 30
0.000000
  70
    32
  0
VERTEX
  8
0
  5
AD60
 10
139.452
 20
72.4458
 30
0.000000
  70
    32
  0
VERTEX
  8
0
  5
AD61
 10
139.490
 20
72.4533
 30
0.000000
  70
    32
  0
VERTEX
  8
0
  5
AD62
 10
139.528
 20
72.4608
 30
0.000000
  70
    32
  0
VERTEX
  8
0
  5
AD63
 10
139.567
 20
72.4684
 30
0.000000
  70
    32
  0
VERTEX
  8
0
  5
AD64
 10
139.605
 20
72.4760
 30
0.000000
  70
    32
  0
VERTEX
  8
0
  5
AD65
 10
139.643
 20
72.4836
 30
0.000000
  70
    32
  0
VERTEX
  8
0
  5
AD66
 10
139.682
 20
72.4913
 30
0.000000
  70
    32
  0
VERTEX
  8
0
  5
AD67
 10
139.720
 20
72.4990
 30
0.000000
  70
    32
  0
VERTEX
  8
0
  5
AD68
 10
139.758
 20
72.5067
 30
0.000000
  70
    32
  0
VERTEX
  8
0
  5
AD69
 10
139.797
 20
72.5144
 30
0.000000
  70
    32
  0
VERTEX
  8
0
  5
AD6A
 10
139.835
 20
72.5222
 30
0.000000
  70
    32
  0
VERTEX
  8
0
  5
AD6B
 10
139.873
 20
72.5300
 30
0.000000
  70
    32
  0
VERTEX
  8
0
  5
AD6C
 10
139.911
 20
72.5379
 30
0.000000
  70
    32
  0
VERTEX
  8
0
  5
AD6D
 10
139.950
 20
72.5457
 30
0.000000
  70
    32
  0
VERTEX
  8
0
  5
AD6E
 10
139.988
 20
72.5537
 30
0.000000
  70
    32
  0
VERTEX
  8
0
  5
AD6F
 10
140.026
 20
72.5616
 30
0.000000
  70
    32
  0
VERTEX
  8
0
  5
AD70
 10
140.064
 20
72.5696
 30
0.000000
  70
    32
  0
VERTEX
  8
0
  5
AD71
 10
140.102
 20
72.5775
 30
0.000000
  70
    32
  0
VERTEX
  8
0
  5
AD72
 10
140.141
 20
72.5856
 30
0.000000
  70
    32
  0
VERTEX
  8
0
  5
AD73
 10
140.179
 20
72.5936
 30
0.000000
  70
    32
  0
VERTEX
  8
0
  5
AD74
 10
140.217
 20
72.6017
 30
0.000000
  70
    32
  0
VERTEX
  8
0
  5
AD75
 10
140.255
 20
72.6098
 30
0.000000
  70
    32
  0
VERTEX
  8
0
  5
AD76
 10
140.294
 20
72.6180
 30
0.000000
  70
    32
  0
VERTEX
  8
0
  5
AD77
 10
140.332
 20
72.6262
 30
0.000000
  70
    32
  0
VERTEX
  8
0
  5
AD78
 10
140.370
 20
72.6344
 30
0.000000
  70
    32
  0
VERTEX
  8
0
  5
AD79
 10
140.408
 20
72.6426
 30
0.000000
  70
    32
  0
VERTEX
  8
0
  5
AD7A
 10
140.446
 20
72.6509
 30
0.000000
  70
    32
  0
VERTEX
  8
0
  5
AD7B
 10
140.484
 20
72.6592
 30
0.000000
  70
    32
  0
VERTEX
  8
0
  5
AD7C
 10
140.523
 20
72.6675
 30
0.000000
  70
    32
  0
VERTEX
  8
0
  5
AD7D
 10
140.561
 20
72.6759
 30
0.000000
  70
    32
  0
VERTEX
  8
0
  5
AD7E
 10
140.599
 20
72.6843
 30
0.000000
  70
    32
  0
VERTEX
  8
0
  5
AD7F
 10
140.637
 20
72.6927
 30
0.000000
  70
    32
  0
VERTEX
  8
0
  5
AD80
 10
140.675
 20
72.7012
 30
0.000000
  70
    32
  0
VERTEX
  8
0
  5
AD81
 10
140.713
 20
72.7097
 30
0.000000
  70
    32
  0
VERTEX
  8
0
  5
AD82
 10
140.751
 20
72.7182
 30
0.000000
  70
    32
  0
VERTEX
  8
0
  5
AD83
 10
140.789
 20
72.7267
 30
0.000000
  70
    32
  0
VERTEX
  8
0
  5
AD84
 10
140.827
 20
72.7353
 30
0.000000
  70
    32
  0
VERTEX
  8
0
  5
AD85
 10
140.866
 20
72.7439
 30
0.000000
  70
    32
  0
VERTEX
  8
0
  5
AD86
 10
140.904
 20
72.7526
 30
0.000000
  70
    32
  0
VERTEX
  8
0
  5
AD87
 10
140.942
 20
72.7612
 30
0.000000
  70
    32
  0
VERTEX
  8
0
  5
AD88
 10
140.980
 20
72.7699
 30
0.000000
  70
    32
  0
VERTEX
  8
0
  5
AD89
 10
141.018
 20
72.7787
 30
0.000000
  70
    32
  0
VERTEX
  8
0
  5
AD8A
 10
141.056
 20
72.7874
 30
0.000000
  70
    32
  0
VERTEX
  8
0
  5
AD8B
 10
141.094
 20
72.7962
 30
0.000000
  70
    32
  0
VERTEX
  8
0
  5
AD8C
 10
141.132
 20
72.8050
 30
0.000000
  70
    32
  0
VERTEX
  8
0
  5
AD8D
 10
141.170
 20
72.8139
 30
0.000000
  70
    32
  0
VERTEX
  8
0
  5
AD8E
 10
141.208
 20
72.8228
 30
0.000000
  70
    32
  0
VERTEX
  8
0
  5
AD8F
 10
141.246
 20
72.8317
 30
0.000000
  70
    32
  0
VERTEX
  8
0
  5
AD90
 10
141.284
 20
72.8406
 30
0.000000
  70
    32
  0
VERTEX
  8
0
  5
AD91
 10
141.322
 20
72.8496
 30
0.000000
  70
    32
  0
VERTEX
  8
0
  5
AD92
 10
141.360
 20
72.8586
 30
0.000000
  70
    32
  0
VERTEX
  8
0
  5
AD93
 10
141.398
 20
72.8676
 30
0.000000
  70
    32
  0
VERTEX
  8
0
  5
AD94
 10
141.436
 20
72.8767
 30
0.000000
  70
    32
  0
VERTEX
  8
0
  5
AD95
 10
141.474
 20
72.8858
 30
0.000000
  70
    32
  0
VERTEX
  8
0
  5
AD96
 10
141.512
 20
72.8949
 30
0.000000
  70
    32
  0
VERTEX
  8
0
  5
AD97
 10
141.550
 20
72.9041
 30
0.000000
  70
    32
  0
VERTEX
  8
0
  5
AD98
 10
141.588
 20
72.9133
 30
0.000000
  70
    32
  0
VERTEX
  8
0
  5
AD99
 10
141.626
 20
72.9225
 30
0.000000
  70
    32
  0
VERTEX
  8
0
  5
AD9A
 10
141.664
 20
72.9317
 30
0.000000
  70
    32
  0
VERTEX
  8
0
  5
AD9B
 10
141.702
 20
72.9410
 30
0.000000
  70
    32
  0
VERTEX
  8
0
  5
AD9C
 10
141.740
 20
72.9503
 30
0.000000
  70
    32
  0
VERTEX
  8
0
  5
AD9D
 10
141.778
 20
72.9597
 30
0.000000
  70
    32
  0
VERTEX
  8
0
  5
AD9E
 10
141.816
 20
72.9690
 30
0.000000
  70
    32
  0
VERTEX
  8
0
  5
AD9F
 10
141.853
 20
72.9784
 30
0.000000
  70
    32
  0
VERTEX
  8
0
  5
ADA0
 10
141.891
 20
72.9879
 30
0.000000
  70
    32
  0
VERTEX
  8
0
  5
ADA1
 10
141.929
 20
72.9973
 30
0.000000
  70
    32
  0
VERTEX
  8
0
  5
ADA2
 10
141.967
 20
73.0068
 30
0.000000
  70
    32
  0
VERTEX
  8
0
  5
ADA3
 10
142.005
 20
73.0164
 30
0.000000
  70
    32
  0
VERTEX
  8
0
  5
ADA4
 10
142.043
 20
73.0259
 30
0.000000
  70
    32
  0
VERTEX
  8
0
  5
ADA5
 10
142.081
 20
73.0355
 30
0.000000
  70
    32
  0
VERTEX
  8
0
  5
ADA6
 10
142.119
 20
73.0451
 30
0.000000
  70
    32
  0
VERTEX
  8
0
  5
ADA7
 10
142.156
 20
73.0548
 30
0.000000
  70
    32
  0
VERTEX
  8
0
  5
ADA8
 10
142.194
 20
73.0644
 30
0.000000
  70
    32
  0
VERTEX
  8
0
  5
ADA9
 10
142.232
 20
73.0741
 30
0.000000
  70
    32
  0
VERTEX
  8
0
  5
ADAA
 10
142.270
 20
73.0839
 30
0.000000
  70
    32
  0
VERTEX
  8
0
  5
ADAB
 10
142.308
 20
73.0936
 30
0.000000
  70
    32
  0
VERTEX
  8
0
  5
ADAC
 10
142.345
 20
73.1034
 30
0.000000
  70
    32
  0
VERTEX
  8
0
  5
ADAD
 10
142.383
 20
73.1133
 30
0.000000
  70
    32
  0
VERTEX
  8
0
  5
ADAE
 10
142.421
 20
73.1231
 30
0.000000
  70
    32
  0
VERTEX
  8
0
  5
ADAF
 10
142.459
 20
73.1330
 30
0.000000
  70
    32
  0
VERTEX
  8
0
  5
ADB0
 10
142.497
 20
73.1429
 30
0.000000
  70
    32
  0
VERTEX
  8
0
  5
ADB1
 10
142.534
 20
73.1529
 30
0.000000
  70
    32
  0
VERTEX
  8
0
  5
ADB2
 10
142.572
 20
73.1628
 30
0.000000
  70
    32
  0
VERTEX
  8
0
  5
ADB3
 10
142.610
 20
73.1729
 30
0.000000
  70
    32
  0
VERTEX
  8
0
  5
ADB4
 10
142.648
 20
73.1829
 30
0.000000
  70
    32
  0
VERTEX
  8
0
  5
ADB5
 10
142.685
 20
73.1930
 30
0.000000
  70
    32
  0
VERTEX
  8
0
  5
ADB6
 10
142.723
 20
73.2031
 30
0.000000
  70
    32
  0
VERTEX
  8
0
  5
ADB7
 10
142.761
 20
73.2132
 30
0.000000
  70
    32
  0
VERTEX
  8
0
  5
ADB8
 10
142.799
 20
73.2233
 30
0.000000
  70
    32
  0
VERTEX
  8
0
  5
ADB9
 10
142.836
 20
73.2335
 30
0.000000
  70
    32
  0
VERTEX
  8
0
  5
ADBA
 10
142.874
 20
73.2438
 30
0.000000
  70
    32
  0
VERTEX
  8
0
  5
ADBB
 10
142.912
 20
73.2540
 30
0.000000
  70
    32
  0
VERTEX
  8
0
  5
ADBC
 10
142.949
 20
73.2643
 30
0.000000
  70
    32
  0
VERTEX
  8
0
  5
ADBD
 10
142.987
 20
73.2746
 30
0.000000
  70
    32
  0
VERTEX
  8
0
  5
ADBE
 10
143.025
 20
73.2849
 30
0.000000
  70
    32
  0
VERTEX
  8
0
  5
ADBF
 10
143.062
 20
73.2953
 30
0.000000
  70
    32
  0
VERTEX
  8
0
  5
ADC0
 10
143.100
 20
73.3057
 30
0.000000
  70
    32
  0
VERTEX
  8
0
  5
ADC1
 10
143.138
 20
73.3161
 30
0.000000
  70
    32
  0
VERTEX
  8
0
  5
ADC2
 10
143.175
 20
73.3266
 30
0.000000
  70
    32
  0
VERTEX
  8
0
  5
ADC3
 10
143.213
 20
73.3371
 30
0.000000
  70
    32
  0
SEQEND
  8
0
  5
ADC4
  0
LINE
  5
A6D6
  8
0
 10
124.66531606109289
 20
71.967780879788833
 30
0.0
 11
135.83468393890749
 21
71.967780879788791
 31
0.0
  0
LINE
  5
A6D8
  8
0
 10
137.0000000000002
 20
50.0
 30
0.0
 11
137.0000000000002
 21
55.499999999999972
 31
0.0
  0
LINE
  5
A6D9
  8
0
 10
123.5000000000002
 20
55.499999999999972
 30
0.0
 11
123.5000000000002
 21
50.0
 31
0.0
  0
LINE
  5
A6DA
  8
0
 10
123.5000000000002
 20
50.0
 30
0.0
 11
137.0000000000002
 21
50.0
 31
0.0
  0
LINE
  5
A70C
  8
1
 10
130.25000000000011
 20
112.2500000000001
 30
0.0
 11
130.25000000000011
 21
135.75000000000011
 31
0.0
  0
LINE
  5
A70D
  8
1
 10
158.7500000000004
 20
124.0000000000001
 30
0.0
 11
101.7499999999999
 21
124.0000000000001
 31
0.0
  0
CIRCLE
  5
A712
  8
0
 10
130.25000000000011
 20
124.0000000000001
 30
0.0
 40
2.458499999999999
  0
CIRCLE
  5
A713
  8
0
 10
130.25000000000011
 20
124.0000000000001
 30
0.0
 40
4.25
  0
LINE
  5
A714
  8
0
 10
138.33801506788271
 20
121.42980783789579
 30
0.0
 11
152.25000000000011
 21
120.5000000000001
 31
0.0
  0
LINE
  5
A715
  8
0
 10
122.1619849321176
 20
126.57019216210441
 30
0.0
 11
108.2500000000002
 21
127.5000000000001
 31
0.0
  0
LINE
  5
A716
  8
0
 10
108.24999997913849
 20
120.5000000000001
 30
0.0
 11
122.1619849321176
 21
121.42980783789579
 31
0.0
  0
LINE
  5
A717
  8
0
 10
152.2500000000002
 20
127.5000000000001
 30
0.0
 11
138.33801506788279
 21
126.57019216210441
 31
0.0
  0
CIRCLE
  5
A718
  8
0
 10
130.25000000000011
 20
124.0000000000001
 30
0.0
 40
5.0
  0
POLYLINE
  5
A719
  8
0
 66
     1
 10
0.0
 20
0.0
 30
0.0
  0
VERTEX
  5
AACC
  8
0
 10
122.1619849321176
 20
126.57019216210441
 30
0.0
  0
VERTEX
  5
AACD
  8
0
 10
122.3936594560228
 20
126.56433625861079
 30
0.0
  0
VERTEX
  5
AACE
  8
0
 10
122.62537175940371
 20
126.577661391996
 30
0.0
  0
VERTEX
  5
AACF
  8
0
 10
122.8621060565189
 20
126.6114484180124
 30
0.0
  0
VERTEX
  5
AAD0
  8
0
 10
123.0954799681399
 20
126.6653802248269
 30
0.0
  0
VERTEX
  5
AAD1
  8
0
 10
123.3175511710667
 20
126.7369376753158
 30
0.0
  0
VERTEX
  5
AAD2
  8
0
 10
123.5332272529198
 20
126.82685264575851
 30
0.0
  0
VERTEX
  5
AAD3
  8
0
 10
123.74699168111511
 20
126.9381222784109
 30
0.0
  0
VERTEX
  5
AAD4
  8
0
 10
123.9506745535277
 20
127.0675059679286
 30
0.0
  0
VERTEX
  5
AAD5
  8
0
 10
124.1497953780554
 20
127.2201441155443
 30
0.0
  0
VERTEX
  5
AAD6
  8
0
 10
124.33464540659349
 20
127.3901188341643
 30
0.0
  0
VERTEX
  5
AAD7
  8
0
 10
124.5092624064812
 20
127.58299316249391
 30
0.0
  0
VERTEX
  5
AAD8
  8
0
 10
124.66531606109289
 20
127.79128016671309
 30
0.0
  0
SEQEND
  5
AAD9
  8
0
  0
POLYLINE
  5
A71A
  8
0
 66
     1
 10
0.0
 20
0.0
 30
0.0
  0
VERTEX
  5
AADA
  8
0
 10
124.66531606109289
 20
120.20871983328711
 30
0.0
  0
VERTEX
  5
AADB
  8
0
 10
124.47718798662611
 20
120.454916085042
 30
0.0
  0
VERTEX
  5
AADC
  8
0
 10
124.2625476505853
 20
120.67955541544219
 30
0.0
  0
VERTEX
  5
AADD
  8
0
 10
124.0255026693459
 20
120.87843989540499
 30
0.0
  0
VERTEX
  5
AADE
  8
0
 10
123.76811414312741
 20
121.0493538118786
 30
0.0
  0
VERTEX
  5
AADF
  8
0
 10
123.49312891702409
 20
121.1912498132761
 30
0.0
  0
VERTEX
  5
AAE0
  8
0
 10
123.20570775885579
 20
121.3016641668539
 30
0.0
  0
VERTEX
  5
AAE1
  8
0
 10
122.9059599152545
 20
121.3798177938605
 30
0.0
  0
VERTEX
  5
AAE2
  8
0
 10
122.5991369946793
 20
121.4246113527105
 30
0.0
  0
VERTEX
  5
AAE3
  8
0
 10
122.2908296411733
 20
121.4354424244075
 30
0.0
  0
VERTEX
  5
AAE4
  8
0
 10
122.1619849321176
 20
121.42980783789579
 30
0.0
  0
SEQEND
  5
AAE5
  8
0
  0
ARC
  5
A71B
  8
0
 10
130.25000000000011
 20
124.0000000000001
 30
0.0
 40
6.75
 50
214.17144687970369
 51
325.82855312029619
  0
POLYLINE
  5
A71C
  8
0
 66
     1
 10
0.0
 20
0.0
 30
0.0
  0
VERTEX
  5
AAE6
  8
0
 10
138.33801506788271
 20
121.42980783789579
 30
0.0
  0
VERTEX
  5
AAE7
  8
0
 10
138.10634054397761
 20
121.4356637413894
 30
0.0
  0
VERTEX
  5
AAE8
  8
0
 10
137.87462824059671
 20
121.4223386080041
 30
0.0
  0
VERTEX
  5
AAE9
  8
0
 10
137.6378939434814
 20
121.3885515819878
 30
0.0
  0
VERTEX
  5
AAEA
  8
0
 10
137.4045200318605
 20
121.33461977517329
 30
0.0
  0
VERTEX
  5
AAEB
  8
0
 10
137.18244882893359
 20
121.2630623246844
 30
0.0
  0
VERTEX
  5
AAEC
  8
0
 10
136.9667727470806
 20
121.17314735424161
 30
0.0
  0
VERTEX
  5
AAED
  8
0
 10
136.75300831888521
 20
121.0618777215892
 30
0.0
  0
VERTEX
  5
AAEE
  8
0
 10
136.54932544647261
 20
120.9324940320716
 30
0.0
  0
VERTEX
  5
AAEF
  8
0
 10
136.3502046219449
 20
120.7798558844559
 30
0.0
  0
VERTEX
  5
AAF0
  8
0
 10
136.16535459340679
 20
120.6098811658359
 30
0.0
  0
VERTEX
  5
AAF1
  8
0
 10
135.9907375935191
 20
120.41700683750631
 30
0.0
  0
VERTEX
  5
AAF2
  8
0
 10
135.8346839389074
 20
120.20871983328711
 30
0.0
  0
SEQEND
  5
AAF3
  8
0
  0
POLYLINE
  5
A71D
  8
0
 66
     1
 10
0.0
 20
0.0
 30
0.0
  0
VERTEX
  5
AAF4
  8
0
 10
135.8346839389074
 20
127.79128016671309
 30
0.0
  0
VERTEX
  5
AAF5
  8
0
 10
136.02281201337411
 20
127.5450839149582
 30
0.0
  0
VERTEX
  5
AAF6
  8
0
 10
136.23745234941509
 20
127.320444584558
 30
0.0
  0
VERTEX
  5
AAF7
  8
0
 10
136.4744973306544
 20
127.1215601045952
 30
0.0
  0
VERTEX
  5
AAF8
  8
0
 10
136.73188585687299
 20
126.9506461881216
 30
0.0
  0
VERTEX
  5
AAF9
  8
0
 10
137.0068710829762
 20
126.808750186724
 30
0.0
  0
VERTEX
  5
AAFA
  8
0
 10
137.2942922411446
 20
126.6983358331463
 30
0.0
  0
VERTEX
  5
AAFB
  8
0
 10
137.59404008474581
 20
126.6201822061397
 30
0.0
  0
VERTEX
  5
AAFC
  8
0
 10
137.90086300532101
 20
126.5753886472896
 30
0.0
  0
VERTEX
  5
AAFD
  8
0
 10
138.20917035882709
 20
126.5645575755927
 30
0.0
  0
VERTEX
  5
AAFE
  8
0
 10
138.33801506788279
 20
126.57019216210441
 30
0.0
  0
SEQEND
  5
AAFF
  8
0
  0
ARC
  5
A71E
  8
0
 10
130.25000000000011
 20
124.0000000000001
 30
0.0
 40
6.7499999999999991
 50
34.17144687970373
 51
145.82855312029619
  0
POLYLINE
  5
A720
  8
0
 66
     1
 10
0.0
 20
0.0
 30
0.0
  0
VERTEX
  5
AB00
  8
0
 10
153.64366515203889
 20
121.76696825945351
 30
0.0
  0
VERTEX
  5
AB01
  8
0
 10
153.64298012149911
 20
121.7599772121799
 30
0.0
  0
VERTEX
  5
AB02
  8
0
 10
153.62251864575279
 20
121.62397528362941
 30
0.0
  0
VERTEX
  5
AB03
  8
0
 10
153.5886966864295
 20
121.49025473554541
 30
0.0
  0
VERTEX
  5
AB04
  8
0
 10
153.541204064797
 20
121.3588993359204
 30
0.0
  0
VERTEX
  5
AB05
  8
0
 10
153.4802831051343
 20
121.23186567127451
 30
0.0
  0
VERTEX
  5
AB06
  8
0
 10
153.40410676620121
 20
121.1075118668826
 30
0.0
  0
VERTEX
  5
AB07
  8
0
 10
153.31396089645759
 20
120.9900619741931
 30
0.0
  0
VERTEX
  5
AB08
  8
0
 10
153.2088716371758
 20
120.8799169513188
 30
0.0
  0
VERTEX
  5
AB09
  8
0
 10
153.08966302762721
 20
120.779747349909
 30
0.0
  0
VERTEX
  5
AB0A
  8
0
 10
152.91684886703709
 20
120.6690196636293
 30
0.0
  0
VERTEX
  5
AB0B
  8
0
 10
152.7203469414668
 20
120.58137429319289
 30
0.0
  0
VERTEX
  5
AB0C
  8
0
 10
152.61149981053649
 20
120.5474753050252
 30
0.0
  0
VERTEX
  5
AB0D
  8
0
 10
152.49706522532401
 20
120.52197286875931
 30
0.0
  0
VERTEX
  5
AB0E
  8
0
 10
152.37610533409759
 20
120.5056881859278
 30
0.0
  0
VERTEX
  5
AB0F
  8
0
 10
152.25000000000011
 20
120.5000000000001
 30
0.0
  0
SEQEND
  5
AB10
  8
0
  0
POLYLINE
  5
A721
  8
0
 66
     1
 10
0.0
 20
0.0
 30
0.0
  0
VERTEX
  5
AB11
  8
0
 10
152.2500000000002
 20
127.5000000000001
 30
0.0
  0
VERTEX
  5
AB12
  8
0
 10
152.44120355041679
 20
127.4868818270885
 30
0.0
  0
VERTEX
  5
AB13
  8
0
 10
152.62097992964979
 20
127.4499532924503
 30
0.0
  0
VERTEX
  5
AB14
  8
0
 10
152.78977281368009
 20
127.3917605465459
 30
0.0
  0
VERTEX
  5
AB15
  8
0
 10
152.94461334836751
 20
127.3155296361135
 30
0.0
  0
VERTEX
  5
AB16
  8
0
 10
153.0571126576377
 20
127.2439288726414
 30
0.0
  0
VERTEX
  5
AB17
  8
0
 10
153.15998099071919
 20
127.1639241498012
 30
0.0
  0
VERTEX
  5
AB18
  8
0
 10
153.25381528846751
 20
127.0758874879229
 30
0.0
  0
VERTEX
  5
AB19
  8
0
 10
153.33776130094731
 20
126.9813485985477
 30
0.0
  0
VERTEX
  5
AB1A
  8
0
 10
153.4132030588766
 20
126.87907540262511
 30
0.0
  0
VERTEX
  5
AB1B
  8
0
 10
153.4782881346211
 20
126.77179480376191
 30
0.0
  0
VERTEX
  5
AB1C
  8
0
 10
153.53328222637151
 20
126.6596297673719
 30
0.0
  0
VERTEX
  5
AB1D
  8
0
 10
153.57774362822499
 20
126.5439559186546
 30
0.0
  0
VERTEX
  5
AB1E
  8
0
 10
153.61884917570029
 20
126.39368679606871
 30
0.0
  0
VERTEX
  5
AB1F
  8
0
 10
153.64298012149919
 20
126.2400227878195
 30
0.0
  0
VERTEX
  5
AB20
  8
0
 10
153.6436651583852
 20
126.2330316742096
 30
0.0
  0
SEQEND
  5
AB21
  8
0
  0
ARC
  5
A722
  8
0
 10
130.24999999999989
 20
124.0000000000001
 30
0.0
 40
23.500000000000529
 50
354.5474212249967
 51
5.4525747012137398
  0
POLYLINE
  5
A724
  8
0
 66
     1
 10
0.0
 20
0.0
 30
0.0
  0
VERTEX
  5
AB22
  8
0
 10
106.85633484796141
 20
126.23303174054671
 30
0.0
  0
VERTEX
  5
AB23
  8
0
 10
106.8570198785013
 20
126.24002278782029
 30
0.0
  0
VERTEX
  5
AB24
  8
0
 10
106.87748135424749
 20
126.37602471637079
 30
0.0
  0
VERTEX
  5
AB25
  8
0
 10
106.9113033135708
 20
126.50974526445481
 30
0.0
  0
VERTEX
  5
AB26
  8
0
 10
106.9587959352033
 20
126.6411006640798
 30
0.0
  0
VERTEX
  5
AB27
  8
0
 10
107.01971689486599
 20
126.76813432872569
 30
0.0
  0
VERTEX
  5
AB28
  8
0
 10
107.095893233799
 20
126.8924881331176
 30
0.0
  0
VERTEX
  5
AB29
  8
0
 10
107.1860391035428
 20
127.0099380258071
 30
0.0
  0
VERTEX
  5
AB2A
  8
0
 10
107.29112836282449
 20
127.12008304868129
 30
0.0
  0
VERTEX
  5
AB2B
  8
0
 10
107.4103369723731
 20
127.2202526500912
 30
0.0
  0
VERTEX
  5
AB2C
  8
0
 10
107.5831511329632
 20
127.3309803363709
 30
0.0
  0
VERTEX
  5
AB2D
  8
0
 10
107.7796530585334
 20
127.4186257068073
 30
0.0
  0
VERTEX
  5
AB2E
  8
0
 10
107.8885001894638
 20
127.452524694975
 30
0.0
  0
VERTEX
  5
AB2F
  8
0
 10
108.00293477467631
 20
127.47802713124091
 30
0.0
  0
VERTEX
  5
AB30
  8
0
 10
108.1238946659028
 20
127.4943118140724
 30
0.0
  0
VERTEX
  5
AB31
  8
0
 10
108.2500000000002
 20
127.5000000000001
 30
0.0
  0
SEQEND
  5
AB32
  8
0
  0
POLYLINE
  5
A725
  8
0
 66
     1
 10
0.0
 20
0.0
 30
0.0
  0
VERTEX
  5
AB33
  8
0
 10
108.24999997913849
 20
120.5000000000001
 30
0.0
  0
VERTEX
  5
AB34
  8
0
 10
108.05879642998811
 20
120.5131181756132
 30
0.0
  0
VERTEX
  5
AB35
  8
0
 10
107.879020052177
 20
120.5500467125442
 30
0.0
  0
VERTEX
  5
AB36
  8
0
 10
107.7102271697217
 20
120.6082394603901
 30
0.0
  0
VERTEX
  5
AB37
  8
0
 10
107.55538663665629
 20
120.68447037244501
 30
0.0
  0
VERTEX
  5
AB38
  8
0
 10
107.4428873278945
 20
120.75607113756701
 30
0.0
  0
VERTEX
  5
AB39
  8
0
 10
107.3400189954602
 20
120.8360758620201
 30
0.0
  0
VERTEX
  5
AB3A
  8
0
 10
107.2461846985023
 20
120.92411252548089
 30
0.0
  0
VERTEX
  5
AB3B
  8
0
 10
107.16223868694949
 20
121.0186514163907
 30
0.0
  0
VERTEX
  5
AB3C
  8
0
 10
107.0867969301039
 20
121.12092461382829
 30
0.0
  0
VERTEX
  5
AB3D
  8
0
 10
107.02171185558539
 20
121.22820521414501
 30
0.0
  0
VERTEX
  5
AB3E
  8
0
 10
106.966717765211
 20
121.3403702519312
 30
0.0
  0
VERTEX
  5
AB3F
  8
0
 10
106.92225636488
 20
121.45604410196729
 30
0.0
  0
VERTEX
  5
AB40
  8
0
 10
106.88115082202449
 20
121.60631321453771
 30
0.0
  0
VERTEX
  5
AB41
  8
0
 10
106.85701987850111
 20
121.7599772121813
 30
0.0
  0
VERTEX
  5
AB42
  8
0
 10
106.85633484161509
 20
121.7669683257906
 30
0.0
  0
SEQEND
  5
AB43
  8
0
  0
ARC
  5
A726
  8
0
 10
130.2500000000004
 20
124.0000000000001
 30
0.0
 40
23.50000000000049
 50
174.54734649757231
 51
185.45267901805821
  0
CIRCLE
  5
A727
  8
3
 10
130.25000000000011
 20
124.0000000000001
 30
0.0
 40
3.0
  0
LINE
  5
A79B
  8
1
 10
56.749999999999943
 20
45.0
 30
0.0
 11
56.749999999999943
 21
79.000000000000114
 31
0.0
  0
LINE
  5
A79C
  8
0
 10
63.499999999999943
 20
50.0
 30
0.0
 11
63.499999999999943
 21
71.967780879788833
 31
0.0
  0
LINE
  5
A79D
  8
0
 10
50.0
 20
71.967780879788833
 30
0.0
 11
50.0
 21
50.0
 31
0.0
  0
LINE
  5
A79E
  8
0
 10
50.0
 20
50.0
 30
0.0
 11
63.499999999999943
 21
50.0
 31
0.0
  0
LINE
  5
A79F
  8
0
 10
52.958719833286978
 20
71.967780879788791
 30
0.0
 11
52.958719833287013
 21
55.499999999999972
 31
0.0
  0
POLYLINE
  5
A7A1
  8
0
 66
     1
 10
0.0
 20
0.0
 30
0.0
  0
VERTEX
  5
AB44
  8
0
 10
54.186040652968359
 20
55.916895017365313
 30
0.0
  0
VERTEX
  5
AB45
  8
0
 10
54.185656140294981
 20
55.904700366110148
 30
0.0
  0
VERTEX
  5
AB46
  8
0
 10
54.172193085792337
 20
55.84408059268668
 30
0.0
  0
VERTEX
  5
AB47
  8
0
 10
54.138044261690901
 20
55.785133927344589
 30
0.0
  0
VERTEX
  5
AB48
  8
0
 10
54.083389551177902
 20
55.730165381120912
 30
0.0
  0
VERTEX
  5
AB49
  8
0
 10
54.01057719745873
 20
55.681043842498923
 30
0.0
  0
VERTEX
  5
AB4A
  8
0
 10
53.918768704447132
 20
55.636771210501472
 30
0.0
  0
VERTEX
  5
AB4B
  8
0
 10
53.804565485056571
 20
55.59676535222227
 30
0.0
  0
VERTEX
  5
AB4C
  8
0
 10
53.671307911307331
 20
55.563034761646747
 30
0.0
  0
VERTEX
  5
AB4D
  8
0
 10
53.520828079459648
 20
55.536268899408718
 30
0.0
  0
VERTEX
  5
AB4E
  8
0
 10
53.353508747102858
 20
55.516628841329293
 30
0.0
  0
VERTEX
  5
AB4F
  8
0
 10
53.163611601199811
 20
55.504190654992946
 30
0.0
  0
VERTEX
  5
AB50
  8
0
 10
52.9587198332855
 20
55.499999999999723
 30
0.0
  0
SEQEND
  5
AB51
  8
0
  0
LINE
  5
A7A2
  8
0
 10
60.541280166712937
 20
71.967780879788791
 30
0.0
 11
60.541280166712937
 21
55.499999999999972
 31
0.0
  0
LINE
  5
A7A3
  8
0
 10
59.313959346986508
 20
55.91689212759465
 30
0.0
 11
59.320192162104028
 21
55.968049536206543
 31
0.0
  0
LINE
  5
A7A5
  8
0
 10
60.185391743033932
 20
71.967780879788791
 30
0.0
 11
63.499999999999943
 21
71.967780879788833
 31
0.0
  0
LINE
  5
A7A6
  8
0
 10
49.999999999999972
 20
71.967780879788833
 30
0.0
 11
53.314518968153493
 21
71.967780879788791
 31
0.0
  0
POLYLINE
  5
A7A7
  8
0
 66
     1
 10
0.0
 20
0.0
 30
0.0
  0
VERTEX
  5
AB52
  8
0
 10
60.01984937233965
 20
60.063786161782559
 30
0.0
  0
VERTEX
  5
AB53
  8
0
 10
59.936091011850323
 20
59.442196695028649
 30
0.0
  0
VERTEX
  5
AB54
  8
0
 10
59.851335782314749
 20
58.851774875409937
 30
0.0
  0
VERTEX
  5
AB55
  8
0
 10
59.765422685888012
 20
58.291598128933572
 30
0.0
  0
VERTEX
  5
AB56
  8
0
 10
59.678609532266819
 20
57.763547465051552
 30
0.0
  0
VERTEX
  5
AB57
  8
0
 10
59.590284002454553
 20
57.264427721745449
 30
0.0
  0
VERTEX
  5
AB58
  8
0
 10
59.501149310114101
 20
56.798781054031991
 30
0.0
  0
VERTEX
  5
AB59
  8
0
 10
59.411025536196227
 20
56.366029637233403
 30
0.0
  0
VERTEX
  5
AB5A
  8
0
 10
59.320192162104263
 20
55.968049536206557
 30
0.0
  0
SEQEND
  5
AB5B
  8
0
  0
POLYLINE
  5
A7A8
  8
0
 66
     1
 10
0.0
 20
0.0
 30
0.0
  0
VERTEX
  5
AB5C
  8
0
 10
54.179807837895652
 20
55.968049536206543
 30
0.0
  0
VERTEX
  5
AB5D
  8
0
 10
54.087409454062588
 20
56.373205721900831
 30
0.0
  0
VERTEX
  5
AB5E
  8
0
 10
53.99573106188739
 20
56.814423045617332
 30
0.0
  0
VERTEX
  5
AB5F
  8
0
 10
53.904857602321158
 20
57.290899093604757
 30
0.0
  0
VERTEX
  5
AB60
  8
0
 10
53.814287827631688
 20
57.805347383797113
 30
0.0
  0
VERTEX
  5
AB61
  8
0
 10
53.724614827176339
 20
58.354623318338838
 30
0.0
  0
VERTEX
  5
AB62
  8
0
 10
53.635924792324261
 20
58.938093482462868
 30
0.0
  0
VERTEX
  5
AB63
  8
0
 10
53.557629672488993
 20
59.487464519815603
 30
0.0
  0
VERTEX
  5
AB64
  8
0
 10
53.480150627660272
 20
60.063786161782588
 30
0.0
  0
SEQEND
  5
AB65
  8
0
  0
LINE
  5
A7A9
  8
0
 10
52.958719833287013
 20
55.499999999999972
 30
0.0
 11
60.541280166712937
 21
55.499999999999972
 31
0.0
  0
POLYLINE
  5
A7AA
  8
0
 66
     1
 10
0.0
 20
0.0
 30
0.0
  0
VERTEX
  5
AB66
  8
0
 10
60.541280166712937
 20
55.5
 30
0.0
  0
VERTEX
  5
AB67
  8
0
 10
60.301425545924793
 20
55.50589709900234
 30
0.0
  0
VERTEX
  5
AB68
  8
0
 10
60.082068194322353
 20
55.52321653727995
 30
0.0
  0
VERTEX
  5
AB69
  8
0
 10
59.887277222832431
 20
55.551400526738632
 30
0.0
  0
VERTEX
  5
AB6A
  8
0
 10
59.719219367420692
 20
55.589974324156479
 30
0.0
  0
VERTEX
  5
AB6B
  8
0
 10
59.57845728512163
 20
55.638042962459231
 30
0.0
  0
VERTEX
  5
AB6C
  8
0
 10
59.467068857466423
 20
55.694341752659618
 30
0.0
  0
VERTEX
  5
AB6D
  8
0
 10
59.384137953707459
 20
55.759934919190641
 30
0.0
  0
VERTEX
  5
AB6E
  8
0
 10
59.333004760187691
 20
55.832360246471147
 30
0.0
  0
VERTEX
  5
AB6F
  8
0
 10
59.314073635718557
 20
55.910098517775388
 30
0.0
  0
VERTEX
  5
AB70
  8
0
 10
59.313959346986508
 20
55.91689212759465
 30
0.0
  0
SEQEND
  5
AB71
  8
0
  0
LINE
  5
A7AB
  8
0
 10
54.179807837895652
 20
55.968049536206557
 30
0.0
 11
54.186040652968359
 21
55.916895017365313
 31
0.0
  0
LINE
  5
A7AC
  8
0
 10
53.249999999999943
 20
70.814900093928429
 30
0.0
 11
53.249999999999943
 21
62.785099906061141
 31
0.0
  0
LINE
  5
A7AD
  8
0
 10
60.24999999999995
 20
70.814900093928429
 30
0.0
 11
60.24999999999995
 21
62.785099906050931
 31
0.0
  0
POLYLINE
  5
A7AE
  8
0
 66
     1
 10
0.0
 20
0.0
 30
0.0
  0
VERTEX
  5
AB72
  8
0
 10
53.249999999999943
 20
70.814900093928429
 30
0.0
  0
VERTEX
  5
AB73
  8
0
 10
53.26147485679445
 20
71.058910226001046
 30
0.0
  0
VERTEX
  5
AB74
  8
0
 10
53.273636392278917
 20
71.295974357992066
 30
0.0
  0
VERTEX
  5
AB75
  8
0
 10
53.286512760742312
 20
71.52643736991655
 30
0.0
  0
VERTEX
  5
AB76
  8
0
 10
53.300043471057343
 20
71.749022139025158
 30
0.0
  0
VERTEX
  5
AB77
  8
0
 10
53.314471530286092
 20
71.967122473658776
 30
0.0
  0
VERTEX
  5
AB78
  8
0
 10
53.329533998079278
 20
72.176179534371727
 30
0.0
  0
VERTEX
  5
AB79
  8
0
 10
53.345265312547411
 20
72.376484372832465
 30
0.0
  0
VERTEX
  5
AB7A
  8
0
 10
53.361585247537022
 20
72.566834720074496
 30
0.0
  0
VERTEX
  5
AB7B
  8
0
 10
53.377805213772199
 20
72.740082732966641
 30
0.0
  0
VERTEX
  5
AB7C
  8
0
 10
53.39451752869337
 20
72.903406091518889
 30
0.0
  0
VERTEX
  5
AB7D
  8
0
 10
53.41175592827458
 20
73.056991519840096
 30
0.0
  0
VERTEX
  5
AB7E
  8
0
 10
53.429435765790139
 20
73.199945008722466
 30
0.0
  0
VERTEX
  5
AB7F
  8
0
 10
53.447857988046451
 20
73.334248145232607
 30
0.0
  0
VERTEX
  5
AB80
  8
0
 10
53.466677282866272
 20
73.456936467109301
 30
0.0
  0
VERTEX
  5
AB81
  8
0
 10
53.485931995896181
 20
73.568116220997808
 30
0.0
  0
VERTEX
  5
AB82
  8
0
 10
53.50552100537891
 20
73.667061632383025
 30
0.0
  0
VERTEX
  5
AB83
  8
0
 10
53.524716465104461
 20
73.750750739814464
 30
0.0
  0
VERTEX
  5
AB84
  8
0
 10
53.544158863976122
 20
73.822618446216083
 30
0.0
  0
VERTEX
  5
AB85
  8
0
 10
53.56388405667542
 20
73.882676768668304
 30
0.0
  0
VERTEX
  5
AB86
  8
0
 10
53.583792559966639
 20
73.930502813733028
 30
0.0
  0
VERTEX
  5
AB87
  8
0
 10
53.604211355587488
 20
73.966483322725537
 30
0.0
  0
VERTEX
  5
AB88
  8
0
 10
53.624750041086493
 20
73.989529355404102
 30
0.0
  0
VERTEX
  5
AB89
  8
0
 10
53.64544702652082
 20
73.999554066653161
 30
0.0
  0
VERTEX
  5
AB8A
  8
0
 10
53.651086611887187
 20
73.999999005578104
 30
0.0
  0
SEQEND
  5
AB8B
  8
0
  0
POLYLINE
  5
A7B1
  8
0
 66
     1
 10
0.0
 20
0.0
 30
0.0
  0
VERTEX
  5
AB8C
  8
0
 10
53.480150627660272
 20
60.063786161782588
 30
0.0
  0
VERTEX
  5
AB8D
  8
0
 10
53.455426770209669
 20
60.21473073156838
 30
0.0
  0
VERTEX
  5
AB8E
  8
0
 10
53.431276957090972
 20
60.386013349113
 30
0.0
  0
VERTEX
  5
AB8F
  8
0
 10
53.407812195226427
 20
60.5768713135121
 30
0.0
  0
VERTEX
  5
AB90
  8
0
 10
53.38444376420324
 20
60.793313429786707
 30
0.0
  0
VERTEX
  5
AB91
  8
0
 10
53.361915831229084
 20
61.029528535128243
 30
0.0
  0
VERTEX
  5
AB92
  8
0
 10
53.340338812121502
 20
61.284384307146979
 30
0.0
  0
VERTEX
  5
AB93
  8
0
 10
53.315409483133458
 20
61.619357037620581
 30
0.0
  0
VERTEX
  5
AB94
  8
0
 10
53.292092712383862
 20
61.97949677962341
 30
0.0
  0
VERTEX
  5
AB95
  8
0
 10
53.270091578662509
 20
62.371080759221769
 30
0.0
  0
VERTEX
  5
AB96
  8
0
 10
53.249999999999943
 20
62.785099906061141
 30
0.0
  0
SEQEND
  5
AB97
  8
0
  0
POLYLINE
  5
A7B3
  8
0
 66
     1
 10
0.0
 20
0.0
 30
0.0
  0
VERTEX
  5
AB98
  8
0
 10
60.24999999999995
 20
62.785099906050931
 30
0.0
  0
VERTEX
  5
AB99
  8
0
 10
60.234483816772808
 20
62.460087318800163
 30
0.0
  0
VERTEX
  5
AB9A
  8
0
 10
60.217776712933208
 20
62.148236069434972
 30
0.0
  0
VERTEX
  5
AB9B
  8
0
 10
60.199956528942153
 20
61.850977860968499
 30
0.0
  0
VERTEX
  5
AB9C
  8
0
 10
60.180495184428423
 20
61.561067247272462
 30
0.0
  0
VERTEX
  5
AB9D
  8
0
 10
60.159947633633131
 20
61.288024363491218
 30
0.0
  0
VERTEX
  5
AB9E
  8
0
 10
60.138414752462893
 20
61.033165279925747
 30
0.0
  0
VERTEX
  5
AB9F
  8
0
 10
60.110831756801637
 20
60.747296002899098
 30
0.0
  0
VERTEX
  5
ABA0
  8
0
 10
60.081992073253787
 20
60.490824263814773
 30
0.0
  0
VERTEX
  5
ABA1
  8
0
 10
60.051424138583222
 20
60.260833363005247
 30
0.0
  0
VERTEX
  5
ABA2
  8
0
 10
60.01984937233965
 20
60.063786161782559
 30
0.0
  0
SEQEND
  5
ABA3
  8
0
  0
LINE
  5
A7B6
  8
0
 10
59.849636560684758
 20
74.000000000000114
 30
0.0
 11
53.65033242402091
 21
74.000000000000114
 31
0.0
  0
POLYLINE
  5
A7B7
  8
0
 66
     1
 10
0.0
 20
0.0
 30
0.0
  0
VERTEX
  5
ABA4
  8
0
 10
59.848930600121371
 20
73.999999135624805
 30
0.0
  0
VERTEX
  5
ABA5
  8
0
 10
59.868205413674417
 20
73.994424000078027
 30
0.0
  0
VERTEX
  5
ABA6
  8
0
 10
59.888619068403813
 20
73.976017548595451
 30
0.0
  0
VERTEX
  5
ABA7
  8
0
 10
59.909372849404967
 20
73.944008408238744
 30
0.0
  0
VERTEX
  5
ABA8
  8
0
 10
59.930053970675431
 20
73.898586440460349
 30
0.0
  0
VERTEX
  5
ABA9
  8
0
 10
59.950700351743471
 20
73.839503551963105
 30
0.0
  0
VERTEX
  5
ABAA
  8
0
 10
59.971195105912791
 20
73.766926580071242
 30
0.0
  0
VERTEX
  5
ABAB
  8
0
 10
59.990588208167878
 20
73.685069001941258
 30
0.0
  0
VERTEX
  5
ABAC
  8
0
 10
60.009770639687581
 20
73.591022785035705
 30
0.0
  0
VERTEX
  5
ABAD
  8
0
 10
60.028773764535941
 20
73.484483891000124
 30
0.0
  0
VERTEX
  5
ABAE
  8
0
 10
60.047495008400908
 20
73.365873690439571
 30
0.0
  0
VERTEX
  5
ABAF
  8
0
 10
60.066234865082833
 20
73.23281625966564
 30
0.0
  0
VERTEX
  5
ABB0
  8
0
 10
60.084610214983051
 20
73.087543995944884
 30
0.0
  0
VERTEX
  5
ABB1
  8
0
 10
60.102651191505281
 20
72.929637540830456
 30
0.0
  0
VERTEX
  5
ABB2
  8
0
 10
60.12025192472975
 20
72.759836570785922
 30
0.0
  0
VERTEX
  5
ABB3
  8
0
 10
60.136604553676932
 20
72.586929786418807
 30
0.0
  0
VERTEX
  5
ABB4
  8
0
 10
60.15249123403288
 20
72.403663600457662
 30
0.0
  0
VERTEX
  5
ABB5
  8
0
 10
60.167934680440908
 20
72.209600818355852
 30
0.0
  0
VERTEX
  5
ABB6
  8
0
 10
60.182848425502243
 20
72.005645639387524
 30
0.0
  0
VERTEX
  5
ABB7
  8
0
 10
60.197460943662797
 20
71.788095341247526
 30
0.0
  0
VERTEX
  5
ABB8
  8
0
 10
60.211463747662833
 20
71.560932675203787
 30
0.0
  0
VERTEX
  5
ABB9
  8
0
 10
60.224875887314049
 20
71.323620237600153
 30
0.0
  0
VERTEX
  5
ABBA
  8
0
 10
60.237615034843941
 20
71.077373293659548
 30
0.0
  0
VERTEX
  5
ABBB
  8
0
 10
60.24999999999995
 20
70.814900093928429
 30
0.0
  0
SEQEND
  5
ABBC
  8
0
  0
ENDSEC
  0
EOF
