  0
SECTION
  2
HEADER
  9
$ACADVER
  1
AC1009
  9
$INSBASE
 10
0.0
 20
0.0
 30
0.0
  9
$EXTMIN
 10
0.0
 20
-2.960436562073669
 30
0.0
  9
$EXTMAX
 10
158.7500000000004
 20
135.75000000000011
 30
0.0
  9
$LIMMIN
 10
0.0
 20
0.0
  9
$LIMMAX
 10
187.5
 20
135.0
  9
$ORTHOMODE
 70
     1
  9
$REGENMODE
 70
     1
  9
$FILLMODE
 70
     1
  9
$QTEXTMODE
 70
     0
  9
$MIRRTEXT
 70
     0
  9
$DRAGMODE
 70
     2
  9
$LTSCALE
 40
5.0
  9
$OSMODE
 70
    37
  9
$ATTMODE
 70
     1
  9
$TEXTSIZE
 40
0.2
  9
$TRACEWID
 40
0.05
  9
$TEXTSTYLE
  7
STANDARD
  9
$CLAYER
  8
0
  9
$CELTYPE
  6
BYLAYER
  9
$CECOLOR
 62
     4
  9
$DIMSCALE
 40
1.0
  9
$DIMASZ
 40
3.0
  9
$DIMEXO
 40
2.0
  9
$DIMDLI
 40
0.3799999999999999
  9
$DIMRND
 40
0.0
  9
$DIMDLE
 40
0.0
  9
$DIMEXE
 40
2.0
  9
$DIMTP
 40
0.0
  9
$DIMTM
 40
0.0
  9
$DIMTXT
 40
3.2000000000000002
  9
$DIMCEN
 40
0.09
  9
$DIMTSZ
 40
0.0
  9
$DIMTOL
 70
     0
  9
$DIMLIM
 70
     0
  9
$DIMTIH
 70
     0
  9
$DIMTOH
 70
     0
  9
$DIMSE1
 70
     0
  9
$DIMSE2
 70
     0
  9
$DIMTAD
 70
     1
  9
$DIMZIN
 70
     8
  9
$DIMBLK
  1

  9
$DIMASO
 70
     0
  9
$DIMSHO
 70
     0
  9
$DIMPOST
  1

  9
$DIMAPOST
  1

  9
$DIMALT
 70
     0
  9
$DIMALTD
 70
     2
  9
$DIMALTF
 40
25.399999999999999
  9
$DIMLFAC
 40
1.0
  9
$DIMTOFL
 70
     0
  9
$DIMTVP
 40
1.6000000000000001
  9
$DIMTIX
 70
     1
  9
$DIMSOXD
 70
     0
  9
$DIMSAH
 70
     0
  9
$DIMBLK1
  1

  9
$DIMBLK2
  1

  9
$DIMSTYLE
  2
STANDARD
  9
$DIMCLRD
 70
     0
  9
$DIMCLRE
 70
     0
  9
$DIMCLRT
 70
     0
  9
$DIMTFAC
 40
1.0
  9
$DIMGAP
 40
1.0
  9
$LUNITS
 70
     2
  9
$LUPREC
 70
     1
  9
$SKETCHINC
 40
0.1
  9
$FILLETRAD
 40
0.4
  9
$AUNITS
 70
     0
  9
$AUPREC
 70
     1
  9
$MENU
  1
E:\r13\win\SUPPORT\ACAD
  9
$ELEVATION
 40
0.0
  9
$PELEVATION
 40
0.0
  9
$THICKNESS
 40
0.0
  9
$LIMCHECK
 70
     0
  9
$BLIPMODE
 70
     0
  9
$CHAMFERA
 40
0.0
  9
$CHAMFERB
 40
0.0
  9
$SKPOLY
 70
     0
  9
$TDCREATE
 40
2456129.6740617128
  9
$TDUPDATE
 40
2457892.425773982
  9
$TDINDWG
 40
0.5755335069000001
  9
$TDUSRTIMER
 40
0.5755333333
  9
$USRTIMER
 70
     1
  9
$ANGBASE
 50
0.0
  9
$ANGDIR
 70
     0
  9
$PDMODE
 70
     0
  9
$PDSIZE
 40
0.0
  9
$PLINEWID
 40
0.0
  9
$COORDS
 70
     1
  9
$SPLFRAME
 70
     0
  9
$SPLINETYPE
 70
     6
  9
$SPLINESEGS
 70
     8
  9
$ATTDIA
 70
     0
  9
$ATTREQ
 70
     1
  9
$HANDLING
 70
     1
  9
$HANDSEED
  5
B07C
  9
$SURFTAB1
 70
     6
  9
$SURFTAB2
 70
     6
  9
$SURFTYPE
 70
     6
  9
$SURFU
 70
     6
  9
$SURFV
 70
     6
  9
$UCSNAME
  2

  9
$UCSORG
 10
0.0
 20
0.0
 30
0.0
  9
$UCSXDIR
 10
1.0
 20
0.0
 30
0.0
  9
$UCSYDIR
 10
0.0
 20
1.0
 30
0.0
  9
$PUCSNAME
  2

  9
$PUCSORG
 10
0.0
 20
0.0
 30
0.0
  9
$PUCSXDIR
 10
1.0
 20
0.0
 30
0.0
  9
$PUCSYDIR
 10
0.0
 20
1.0
 30
0.0
  9
$USERI1
 70
     0
  9
$USERI2
 70
     1
  9
$USERI3
 70
     0
  9
$USERI4
 70
     0
  9
$USERI5
 70
     0
  9
$USERR1
 40
0.0
  9
$USERR2
 40
0.0
  9
$USERR3
 40
0.0
  9
$USERR4
 40
0.0
  9
$USERR5
 40
0.0
  9
$WORLDVIEW
 70
     1
  9
$SHADEDGE
 70
     3
  9
$SHADEDIF
 70
    70
  9
$TILEMODE
 70
     1
  9
$MAXACTVP
 70
    16
  9
$PLIMCHECK
 70
     0
  9
$PEXTMIN
 10
1.0000000000000000E+020
 20
1.0000000000000000E+020
 30
1.0000000000000000E+020
  9
$PEXTMAX
 10
-1.0000000000000000E+020
 20
-1.0000000000000000E+020
 30
-1.0000000000000000E+020
  9
$PLIMMIN
 10
0.0
 20
0.0
  9
$PLIMMAX
 10
12.0
 20
9.0
  9
$UNITMODE
 70
     0
  9
$VISRETAIN
 70
     0
  9
$PLINEGEN
 70
     0
  9
$PSLTSCALE
 70
     0
  0
ENDSEC
  0
SECTION
  2
TABLES
  0
TABLE
  2
VPORT
 70
     1
  0
VPORT
  2
*ACTIVE
 70
     0
 10
0.0
 20
0.0
 11
1.0
 21
1.0
 12
181.62393162393161
 22
100.0
 13
0.0
 23
0.0
 14
5.0
 24
5.0
 15
5.0
 25
5.0
 16
0.0
 26
0.0
 36
1.0
 17
0.0
 27
0.0
 37
0.0
 40
200.0
 41
1.816239316239316
 42
50.0
 43
0.0
 44
0.0
 50
0.0
 51
0.0
 71
     0
 72
   500
 73
     1
 74
     0
 75
     0
 76
     0
 77
     0
 78
     2
  0
ENDTAB
  0
TABLE
  2
LTYPE
 70
     4
  0
LTYPE
  2
CONTINUOUS
 70
     0
  3
Solid Line
 72
    65
 73
     0
 40
0.0
  0
LTYPE
  2
CENTER
 70
     0
  3
____ _ ____ _ ____ _ ____ _ ____ _ ____ _ ____
 72
    65
 73
     4
 40
2.0
 49
1.25
 49
-0.25
 49
0.25
 49
-0.25
  0
LTYPE
  2
HIDDEN
 70
     0
  3
__ __ __ __ __ __ __ __ __ __ __ __ __ __ __ __
 72
    65
 73
     2
 40
0.375
 49
0.25
 49
-0.125
  0
LTYPE
  2
PHANTOM2
 70
     0
  3
___ _ _ ___ _ _ ___ _ _ ___ _ _
 72
    65
 73
     6
 40
1.25
 49
0.625
 49
-0.125
 49
0.125
 49
-0.125
 49
0.125
 49
-0.125
  0
ENDTAB
  0
TABLE
  2
LAYER
 70
     5
  0
LAYER
  2
0
 70
     0
 62
     7
  6
CONTINUOUS
  0
LAYER
  2
1
 70
     0
 62
     1
  6
CENTER
  0
LAYER
  2
2
 70
     0
 62
     2
  6
HIDDEN
  0
LAYER
  2
3
 70
     0
 62
     3
  6
CONTINUOUS
  0
LAYER
  2
DEFPOINTS
 70
     0
 62
     7
  6
CONTINUOUS
  0
ENDTAB
  0
TABLE
  2
STYLE
 70
     2
  0
STYLE
  2
STANDARD
 70
     0
 40
0.0
 41
1.0
 50
0.0
 71
     0
 42
0.2
  3
TXT
  4
BIGFONT
  0
STYLE
  2
STANDARD1
 70
     0
 40
0.0
 41
1.0
 50
0.0
 71
     0
 42
3.0
  3
txt
  4

  0
ENDTAB
  0
TABLE
  2
VIEW
 70
     0
  0
ENDTAB
  0
TABLE
  2
UCS
 70
     0
  0
ENDTAB
  0
TABLE
  2
APPID
 70
     7
  0
APPID
  2
ACAD
 70
     0
  0
APPID
  2
ACAD_MLEADERVER
 70
     0
  0
APPID
  2
ACAD_PSEXT
 70
     0
  0
APPID
  2
ACAD_EXEMPT_FROM_CAD_STANDARDS
 70
     0
  0
APPID
  2
ACAD_DSTYLE_DIMJAG
 70
     0
  0
APPID
  2
ACAD_DSTYLE_DIMTALN
 70
     0
  0
APPID
  2
ACAD_NAV_VCDISPLAY
 70
     0
  0
ENDTAB
  0
TABLE
  2
DIMSTYLE
 70
     1
  0
DIMSTYLE
  2
STANDARD
 70
     0
  3

  4

  5

  6

  7

 40
1.0
 41
0.18
 42
0.0625
 43
0.38
 44
0.18
 45
0.0
 46
0.0
 47
0.0
 48
0.0
140
0.18
141
0.09
142
0.0
143
25.399999999999999
144
1.0
145
0.0
146
1.0
147
0.09
 71
     0
 72
     0
 73
     1
 74
     1
 75
     0
 76
     0
 77
     0
 78
     0
170
     0
171
     2
172
     0
173
     0
174
     0
175
     0
176
     0
177
     0
178
     0
  0
ENDTAB
  0
ENDSEC
  0
SECTION
  2
BLOCKS
  0
BLOCK
  8
0
  2
$MODEL_SPACE
 70
     0
 10
0.0
 20
0.0
 30
0.0
  3
$MODEL_SPACE
  1

  0
ENDBLK
  5
9
  8
0
  0
BLOCK
 67
     1
  8
0
  2
$PAPER_SPACE
 70
     0
 10
0.0
 20
0.0
 30
0.0
  3
$PAPER_SPACE
  1

  0
ENDBLK
  5
E
 67
     1
  8
0
  0
ENDSEC
  0
SECTION
  2
ENTITIES
  0
TEXT
  5
A62B
  8
0
 62
     3
 10
0.0
 20
0.0
 30
0.0
 40
10.0
  1
ENWN48B
  7
STANDARD1
  0
LINE
  5
ABDF
  8
1
 10
130.2500000000002
 20
45.0
 30
0.0
 11
130.2500000000002
 21
76.967780879788819
 31
0.0
  0
POLYLINE
  5
ABE0
  8
0
 10
114.2366439675891
 20
62.116251501201212
 30
0.0
 66
     1
 70
     8
  0
VERTEX
  8
0
  5
AE74
 10
114.237
 20
62.1163
 30
0.000000
  70
    32
  0
VERTEX
  8
0
  5
AE75
 10
114.466
 20
62.1219
 30
0.000000
  70
    32
  0
VERTEX
  8
0
  5
AE76
 10
114.695
 20
62.1388
 30
0.000000
  70
    32
  0
VERTEX
  8
0
  5
AE77
 10
114.922
 20
62.1669
 30
0.000000
  70
    32
  0
VERTEX
  8
0
  5
AE78
 10
115.148
 20
62.2062
 30
0.000000
  70
    32
  0
VERTEX
  8
0
  5
AE79
 10
115.372
 20
62.2566
 30
0.000000
  70
    32
  0
VERTEX
  8
0
  5
AE7A
 10
115.593
 20
62.3179
 30
0.000000
  70
    32
  0
VERTEX
  8
0
  5
AE7B
 10
115.811
 20
62.3900
 30
0.000000
  70
    32
  0
VERTEX
  8
0
  5
AE7C
 10
116.025
 20
62.4728
 30
0.000000
  70
    32
  0
VERTEX
  8
0
  5
AE7D
 10
116.235
 20
62.5659
 30
0.000000
  70
    32
  0
VERTEX
  8
0
  5
AE7E
 10
116.440
 20
62.6693
 30
0.000000
  70
    32
  0
VERTEX
  8
0
  5
AE7F
 10
116.639
 20
62.7826
 30
0.000000
  70
    32
  0
VERTEX
  8
0
  5
AE80
 10
116.833
 20
62.9056
 30
0.000000
  70
    32
  0
VERTEX
  8
0
  5
AE81
 10
117.021
 20
63.0380
 30
0.000000
  70
    32
  0
VERTEX
  8
0
  5
AE82
 10
117.201
 20
63.1794
 30
0.000000
  70
    32
  0
VERTEX
  8
0
  5
AE83
 10
117.375
 20
63.3296
 30
0.000000
  70
    32
  0
VERTEX
  8
0
  5
AE84
 10
117.541
 20
63.4881
 30
0.000000
  70
    32
  0
VERTEX
  8
0
  5
AE85
 10
117.699
 20
63.6546
 30
0.000000
  70
    32
  0
VERTEX
  8
0
  5
AE86
 10
117.849
 20
63.8287
 30
0.000000
  70
    32
  0
VERTEX
  8
0
  5
AE87
 10
117.990
 20
64.0099
 30
0.000000
  70
    32
  0
VERTEX
  8
0
  5
AE88
 10
118.122
 20
64.1978
 30
0.000000
  70
    32
  0
VERTEX
  8
0
  5
AE89
 10
118.245
 20
64.3921
 30
0.000000
  70
    32
  0
VERTEX
  8
0
  5
AE8A
 10
118.358
 20
64.5921
 30
0.000000
  70
    32
  0
VERTEX
  8
0
  5
AE8B
 10
118.461
 20
64.7974
 30
0.000000
  70
    32
  0
VERTEX
  8
0
  5
AE8C
 10
118.554
 20
65.0076
 30
0.000000
  70
    32
  0
VERTEX
  8
0
  5
AE8D
 10
118.637
 20
65.2221
 30
0.000000
  70
    32
  0
VERTEX
  8
0
  5
AE8E
 10
118.709
 20
65.4404
 30
0.000000
  70
    32
  0
VERTEX
  8
0
  5
AE8F
 10
118.770
 20
65.6619
 30
0.000000
  70
    32
  0
VERTEX
  8
0
  5
AE90
 10
118.820
 20
65.8862
 30
0.000000
  70
    32
  0
VERTEX
  8
0
  5
AE91
 10
118.859
 20
66.1128
 30
0.000000
  70
    32
  0
VERTEX
  8
0
  5
AE92
 10
118.887
 20
66.3409
 30
0.000000
  70
    32
  0
VERTEX
  8
0
  5
AE93
 10
118.904
 20
66.5702
 30
0.000000
  70
    32
  0
VERTEX
  8
0
  5
AE94
 10
118.910
 20
66.8000
 30
0.000000
  70
    32
  0
VERTEX
  8
0
  5
AE95
 10
118.904
 20
67.0298
 30
0.000000
  70
    32
  0
VERTEX
  8
0
  5
AE96
 10
118.887
 20
67.2591
 30
0.000000
  70
    32
  0
VERTEX
  8
0
  5
AE97
 10
118.859
 20
67.4872
 30
0.000000
  70
    32
  0
VERTEX
  8
0
  5
AE98
 10
118.820
 20
67.7138
 30
0.000000
  70
    32
  0
VERTEX
  8
0
  5
AE99
 10
118.770
 20
67.9381
 30
0.000000
  70
    32
  0
VERTEX
  8
0
  5
AE9A
 10
118.709
 20
68.1596
 30
0.000000
  70
    32
  0
VERTEX
  8
0
  5
AE9B
 10
118.637
 20
68.3779
 30
0.000000
  70
    32
  0
VERTEX
  8
0
  5
AE9C
 10
118.554
 20
68.5924
 30
0.000000
  70
    32
  0
VERTEX
  8
0
  5
AE9D
 10
118.461
 20
68.8026
 30
0.000000
  70
    32
  0
VERTEX
  8
0
  5
AE9E
 10
118.358
 20
69.0079
 30
0.000000
  70
    32
  0
VERTEX
  8
0
  5
AE9F
 10
118.245
 20
69.2079
 30
0.000000
  70
    32
  0
VERTEX
  8
0
  5
AEA0
 10
118.122
 20
69.4022
 30
0.000000
  70
    32
  0
VERTEX
  8
0
  5
AEA1
 10
117.990
 20
69.5901
 30
0.000000
  70
    32
  0
VERTEX
  8
0
  5
AEA2
 10
117.849
 20
69.7713
 30
0.000000
  70
    32
  0
VERTEX
  8
0
  5
AEA3
 10
117.699
 20
69.9454
 30
0.000000
  70
    32
  0
VERTEX
  8
0
  5
AEA4
 10
117.541
 20
70.1119
 30
0.000000
  70
    32
  0
VERTEX
  8
0
  5
AEA5
 10
117.375
 20
70.2704
 30
0.000000
  70
    32
  0
VERTEX
  8
0
  5
AEA6
 10
117.201
 20
70.4206
 30
0.000000
  70
    32
  0
VERTEX
  8
0
  5
AEA7
 10
117.021
 20
70.5620
 30
0.000000
  70
    32
  0
VERTEX
  8
0
  5
AEA8
 10
116.833
 20
70.6944
 30
0.000000
  70
    32
  0
VERTEX
  8
0
  5
AEA9
 10
116.639
 20
70.8174
 30
0.000000
  70
    32
  0
VERTEX
  8
0
  5
AEAA
 10
116.440
 20
70.9307
 30
0.000000
  70
    32
  0
VERTEX
  8
0
  5
AEAB
 10
116.235
 20
71.0341
 30
0.000000
  70
    32
  0
VERTEX
  8
0
  5
AEAC
 10
116.025
 20
71.1272
 30
0.000000
  70
    32
  0
VERTEX
  8
0
  5
AEAD
 10
115.811
 20
71.2100
 30
0.000000
  70
    32
  0
VERTEX
  8
0
  5
AEAE
 10
115.593
 20
71.2821
 30
0.000000
  70
    32
  0
VERTEX
  8
0
  5
AEAF
 10
115.372
 20
71.3434
 30
0.000000
  70
    32
  0
VERTEX
  8
0
  5
AEB0
 10
115.148
 20
71.3938
 30
0.000000
  70
    32
  0
VERTEX
  8
0
  5
AEB1
 10
114.922
 20
71.4331
 30
0.000000
  70
    32
  0
VERTEX
  8
0
  5
AEB2
 10
114.695
 20
71.4612
 30
0.000000
  70
    32
  0
VERTEX
  8
0
  5
AEB3
 10
114.466
 20
71.4781
 30
0.000000
  70
    32
  0
VERTEX
  8
0
  5
AEB4
 10
114.237
 20
71.4837
 30
0.000000
  70
    32
  0
VERTEX
  8
0
  5
AEB5
 10
114.007
 20
71.4781
 30
0.000000
  70
    32
  0
VERTEX
  8
0
  5
AEB6
 10
113.779
 20
71.4612
 30
0.000000
  70
    32
  0
VERTEX
  8
0
  5
AEB7
 10
113.551
 20
71.4331
 30
0.000000
  70
    32
  0
VERTEX
  8
0
  5
AEB8
 10
113.325
 20
71.3938
 30
0.000000
  70
    32
  0
VERTEX
  8
0
  5
AEB9
 10
113.101
 20
71.3434
 30
0.000000
  70
    32
  0
VERTEX
  8
0
  5
AEBA
 10
112.880
 20
71.2821
 30
0.000000
  70
    32
  0
VERTEX
  8
0
  5
AEBB
 10
112.662
 20
71.2100
 30
0.000000
  70
    32
  0
VERTEX
  8
0
  5
AEBC
 10
112.448
 20
71.1272
 30
0.000000
  70
    32
  0
VERTEX
  8
0
  5
AEBD
 10
112.239
 20
71.0341
 30
0.000000
  70
    32
  0
VERTEX
  8
0
  5
AEBE
 10
112.034
 20
70.9307
 30
0.000000
  70
    32
  0
VERTEX
  8
0
  5
AEBF
 10
111.834
 20
70.8174
 30
0.000000
  70
    32
  0
VERTEX
  8
0
  5
AEC0
 10
111.640
 20
70.6944
 30
0.000000
  70
    32
  0
VERTEX
  8
0
  5
AEC1
 10
111.453
 20
70.5620
 30
0.000000
  70
    32
  0
VERTEX
  8
0
  5
AEC2
 10
111.272
 20
70.4206
 30
0.000000
  70
    32
  0
VERTEX
  8
0
  5
AEC3
 10
111.098
 20
70.2704
 30
0.000000
  70
    32
  0
VERTEX
  8
0
  5
AEC4
 10
110.932
 20
70.1119
 30
0.000000
  70
    32
  0
VERTEX
  8
0
  5
AEC5
 10
110.774
 20
69.9454
 30
0.000000
  70
    32
  0
VERTEX
  8
0
  5
AEC6
 10
110.624
 20
69.7713
 30
0.000000
  70
    32
  0
VERTEX
  8
0
  5
AEC7
 10
110.483
 20
69.5901
 30
0.000000
  70
    32
  0
VERTEX
  8
0
  5
AEC8
 10
110.351
 20
69.4022
 30
0.000000
  70
    32
  0
VERTEX
  8
0
  5
AEC9
 10
110.228
 20
69.2079
 30
0.000000
  70
    32
  0
VERTEX
  8
0
  5
AECA
 10
110.115
 20
69.0079
 30
0.000000
  70
    32
  0
VERTEX
  8
0
  5
AECB
 10
110.012
 20
68.8026
 30
0.000000
  70
    32
  0
VERTEX
  8
0
  5
AECC
 10
109.919
 20
68.5924
 30
0.000000
  70
    32
  0
VERTEX
  8
0
  5
AECD
 10
109.837
 20
68.3779
 30
0.000000
  70
    32
  0
VERTEX
  8
0
  5
AECE
 10
109.765
 20
68.1596
 30
0.000000
  70
    32
  0
VERTEX
  8
0
  5
AECF
 10
109.703
 20
67.9381
 30
0.000000
  70
    32
  0
VERTEX
  8
0
  5
AED0
 10
109.653
 20
67.7138
 30
0.000000
  70
    32
  0
VERTEX
  8
0
  5
AED1
 10
109.614
 20
67.4872
 30
0.000000
  70
    32
  0
VERTEX
  8
0
  5
AED2
 10
109.586
 20
67.2591
 30
0.000000
  70
    32
  0
VERTEX
  8
0
  5
AED3
 10
109.569
 20
67.0298
 30
0.000000
  70
    32
  0
VERTEX
  8
0
  5
AED4
 10
109.563
 20
66.8000
 30
0.000000
  70
    32
  0
VERTEX
  8
0
  5
AED5
 10
109.569
 20
66.5702
 30
0.000000
  70
    32
  0
VERTEX
  8
0
  5
AED6
 10
109.586
 20
66.3409
 30
0.000000
  70
    32
  0
VERTEX
  8
0
  5
AED7
 10
109.614
 20
66.1128
 30
0.000000
  70
    32
  0
VERTEX
  8
0
  5
AED8
 10
109.653
 20
65.8862
 30
0.000000
  70
    32
  0
VERTEX
  8
0
  5
AED9
 10
109.703
 20
65.6619
 30
0.000000
  70
    32
  0
VERTEX
  8
0
  5
AEDA
 10
109.765
 20
65.4404
 30
0.000000
  70
    32
  0
VERTEX
  8
0
  5
AEDB
 10
109.837
 20
65.2221
 30
0.000000
  70
    32
  0
VERTEX
  8
0
  5
AEDC
 10
109.919
 20
65.0076
 30
0.000000
  70
    32
  0
VERTEX
  8
0
  5
AEDD
 10
110.012
 20
64.7974
 30
0.000000
  70
    32
  0
VERTEX
  8
0
  5
AEDE
 10
110.115
 20
64.5921
 30
0.000000
  70
    32
  0
VERTEX
  8
0
  5
AEDF
 10
110.228
 20
64.3921
 30
0.000000
  70
    32
  0
VERTEX
  8
0
  5
AEE0
 10
110.351
 20
64.1978
 30
0.000000
  70
    32
  0
VERTEX
  8
0
  5
AEE1
 10
110.483
 20
64.0099
 30
0.000000
  70
    32
  0
VERTEX
  8
0
  5
AEE2
 10
110.624
 20
63.8287
 30
0.000000
  70
    32
  0
VERTEX
  8
0
  5
AEE3
 10
110.774
 20
63.6546
 30
0.000000
  70
    32
  0
VERTEX
  8
0
  5
AEE4
 10
110.932
 20
63.4881
 30
0.000000
  70
    32
  0
VERTEX
  8
0
  5
AEE5
 10
111.098
 20
63.3296
 30
0.000000
  70
    32
  0
VERTEX
  8
0
  5
AEE6
 10
111.272
 20
63.1794
 30
0.000000
  70
    32
  0
VERTEX
  8
0
  5
AEE7
 10
111.453
 20
63.0380
 30
0.000000
  70
    32
  0
VERTEX
  8
0
  5
AEE8
 10
111.640
 20
62.9056
 30
0.000000
  70
    32
  0
VERTEX
  8
0
  5
AEE9
 10
111.834
 20
62.7826
 30
0.000000
  70
    32
  0
VERTEX
  8
0
  5
AEEA
 10
112.034
 20
62.6693
 30
0.000000
  70
    32
  0
VERTEX
  8
0
  5
AEEB
 10
112.239
 20
62.5659
 30
0.000000
  70
    32
  0
VERTEX
  8
0
  5
AEEC
 10
112.448
 20
62.4728
 30
0.000000
  70
    32
  0
VERTEX
  8
0
  5
AEED
 10
112.662
 20
62.3900
 30
0.000000
  70
    32
  0
VERTEX
  8
0
  5
AEEE
 10
112.880
 20
62.3179
 30
0.000000
  70
    32
  0
VERTEX
  8
0
  5
AEEF
 10
113.101
 20
62.2566
 30
0.000000
  70
    32
  0
VERTEX
  8
0
  5
AEF0
 10
113.325
 20
62.2062
 30
0.000000
  70
    32
  0
VERTEX
  8
0
  5
AEF1
 10
113.551
 20
62.1669
 30
0.000000
  70
    32
  0
VERTEX
  8
0
  5
AEF2
 10
113.779
 20
62.1388
 30
0.000000
  70
    32
  0
VERTEX
  8
0
  5
AEF3
 10
114.007
 20
62.1219
 30
0.000000
  70
    32
  0
VERTEX
  8
0
  5
AEF4
 10
114.237
 20
62.1163
 30
0.000000
  70
    32
  0
SEQEND
  8
0
  5
AEF5
  0
POLYLINE
  5
ABE1
  8
0
 10
146.26335603241139
 20
62.116251501201205
 30
0.0
 66
     1
 70
     8
  0
VERTEX
  8
0
  5
AEF6
 10
146.263
 20
62.1163
 30
0.000000
  70
    32
  0
VERTEX
  8
0
  5
AEF7
 10
146.493
 20
62.1219
 30
0.000000
  70
    32
  0
VERTEX
  8
0
  5
AEF8
 10
146.721
 20
62.1388
 30
0.000000
  70
    32
  0
VERTEX
  8
0
  5
AEF9
 10
146.949
 20
62.1669
 30
0.000000
  70
    32
  0
VERTEX
  8
0
  5
AEFA
 10
147.175
 20
62.2062
 30
0.000000
  70
    32
  0
VERTEX
  8
0
  5
AEFB
 10
147.399
 20
62.2566
 30
0.000000
  70
    32
  0
VERTEX
  8
0
  5
AEFC
 10
147.620
 20
62.3179
 30
0.000000
  70
    32
  0
VERTEX
  8
0
  5
AEFD
 10
147.838
 20
62.3900
 30
0.000000
  70
    32
  0
VERTEX
  8
0
  5
AEFE
 10
148.052
 20
62.4728
 30
0.000000
  70
    32
  0
VERTEX
  8
0
  5
AEFF
 10
148.261
 20
62.5659
 30
0.000000
  70
    32
  0
VERTEX
  8
0
  5
AF00
 10
148.466
 20
62.6693
 30
0.000000
  70
    32
  0
VERTEX
  8
0
  5
AF01
 10
148.666
 20
62.7826
 30
0.000000
  70
    32
  0
VERTEX
  8
0
  5
AF02
 10
148.860
 20
62.9056
 30
0.000000
  70
    32
  0
VERTEX
  8
0
  5
AF03
 10
149.047
 20
63.0380
 30
0.000000
  70
    32
  0
VERTEX
  8
0
  5
AF04
 10
149.228
 20
63.1794
 30
0.000000
  70
    32
  0
VERTEX
  8
0
  5
AF05
 10
149.402
 20
63.3296
 30
0.000000
  70
    32
  0
VERTEX
  8
0
  5
AF06
 10
149.568
 20
63.4881
 30
0.000000
  70
    32
  0
VERTEX
  8
0
  5
AF07
 10
149.726
 20
63.6546
 30
0.000000
  70
    32
  0
VERTEX
  8
0
  5
AF08
 10
149.876
 20
63.8287
 30
0.000000
  70
    32
  0
VERTEX
  8
0
  5
AF09
 10
150.017
 20
64.0099
 30
0.000000
  70
    32
  0
VERTEX
  8
0
  5
AF0A
 10
150.149
 20
64.1978
 30
0.000000
  70
    32
  0
VERTEX
  8
0
  5
AF0B
 10
150.272
 20
64.3921
 30
0.000000
  70
    32
  0
VERTEX
  8
0
  5
AF0C
 10
150.385
 20
64.5921
 30
0.000000
  70
    32
  0
VERTEX
  8
0
  5
AF0D
 10
150.488
 20
64.7974
 30
0.000000
  70
    32
  0
VERTEX
  8
0
  5
AF0E
 10
150.581
 20
65.0076
 30
0.000000
  70
    32
  0
VERTEX
  8
0
  5
AF0F
 10
150.663
 20
65.2221
 30
0.000000
  70
    32
  0
VERTEX
  8
0
  5
AF10
 10
150.735
 20
65.4404
 30
0.000000
  70
    32
  0
VERTEX
  8
0
  5
AF11
 10
150.797
 20
65.6619
 30
0.000000
  70
    32
  0
VERTEX
  8
0
  5
AF12
 10
150.847
 20
65.8862
 30
0.000000
  70
    32
  0
VERTEX
  8
0
  5
AF13
 10
150.886
 20
66.1128
 30
0.000000
  70
    32
  0
VERTEX
  8
0
  5
AF14
 10
150.914
 20
66.3409
 30
0.000000
  70
    32
  0
VERTEX
  8
0
  5
AF15
 10
150.931
 20
66.5702
 30
0.000000
  70
    32
  0
VERTEX
  8
0
  5
AF16
 10
150.937
 20
66.8000
 30
0.000000
  70
    32
  0
VERTEX
  8
0
  5
AF17
 10
150.931
 20
67.0298
 30
0.000000
  70
    32
  0
VERTEX
  8
0
  5
AF18
 10
150.914
 20
67.2591
 30
0.000000
  70
    32
  0
VERTEX
  8
0
  5
AF19
 10
150.886
 20
67.4872
 30
0.000000
  70
    32
  0
VERTEX
  8
0
  5
AF1A
 10
150.847
 20
67.7138
 30
0.000000
  70
    32
  0
VERTEX
  8
0
  5
AF1B
 10
150.797
 20
67.9381
 30
0.000000
  70
    32
  0
VERTEX
  8
0
  5
AF1C
 10
150.735
 20
68.1596
 30
0.000000
  70
    32
  0
VERTEX
  8
0
  5
AF1D
 10
150.663
 20
68.3779
 30
0.000000
  70
    32
  0
VERTEX
  8
0
  5
AF1E
 10
150.581
 20
68.5924
 30
0.000000
  70
    32
  0
VERTEX
  8
0
  5
AF1F
 10
150.488
 20
68.8026
 30
0.000000
  70
    32
  0
VERTEX
  8
0
  5
AF20
 10
150.385
 20
69.0079
 30
0.000000
  70
    32
  0
VERTEX
  8
0
  5
AF21
 10
150.272
 20
69.2079
 30
0.000000
  70
    32
  0
VERTEX
  8
0
  5
AF22
 10
150.149
 20
69.4022
 30
0.000000
  70
    32
  0
VERTEX
  8
0
  5
AF23
 10
150.017
 20
69.5901
 30
0.000000
  70
    32
  0
VERTEX
  8
0
  5
AF24
 10
149.876
 20
69.7713
 30
0.000000
  70
    32
  0
VERTEX
  8
0
  5
AF25
 10
149.726
 20
69.9454
 30
0.000000
  70
    32
  0
VERTEX
  8
0
  5
AF26
 10
149.568
 20
70.1119
 30
0.000000
  70
    32
  0
VERTEX
  8
0
  5
AF27
 10
149.402
 20
70.2704
 30
0.000000
  70
    32
  0
VERTEX
  8
0
  5
AF28
 10
149.228
 20
70.4206
 30
0.000000
  70
    32
  0
VERTEX
  8
0
  5
AF29
 10
149.047
 20
70.5620
 30
0.000000
  70
    32
  0
VERTEX
  8
0
  5
AF2A
 10
148.860
 20
70.6944
 30
0.000000
  70
    32
  0
VERTEX
  8
0
  5
AF2B
 10
148.666
 20
70.8174
 30
0.000000
  70
    32
  0
VERTEX
  8
0
  5
AF2C
 10
148.466
 20
70.9307
 30
0.000000
  70
    32
  0
VERTEX
  8
0
  5
AF2D
 10
148.261
 20
71.0341
 30
0.000000
  70
    32
  0
VERTEX
  8
0
  5
AF2E
 10
148.052
 20
71.1272
 30
0.000000
  70
    32
  0
VERTEX
  8
0
  5
AF2F
 10
147.838
 20
71.2100
 30
0.000000
  70
    32
  0
VERTEX
  8
0
  5
AF30
 10
147.620
 20
71.2821
 30
0.000000
  70
    32
  0
VERTEX
  8
0
  5
AF31
 10
147.399
 20
71.3434
 30
0.000000
  70
    32
  0
VERTEX
  8
0
  5
AF32
 10
147.175
 20
71.3938
 30
0.000000
  70
    32
  0
VERTEX
  8
0
  5
AF33
 10
146.949
 20
71.4331
 30
0.000000
  70
    32
  0
VERTEX
  8
0
  5
AF34
 10
146.721
 20
71.4612
 30
0.000000
  70
    32
  0
VERTEX
  8
0
  5
AF35
 10
146.493
 20
71.4781
 30
0.000000
  70
    32
  0
VERTEX
  8
0
  5
AF36
 10
146.263
 20
71.4837
 30
0.000000
  70
    32
  0
VERTEX
  8
0
  5
AF37
 10
146.034
 20
71.4781
 30
0.000000
  70
    32
  0
VERTEX
  8
0
  5
AF38
 10
145.805
 20
71.4612
 30
0.000000
  70
    32
  0
VERTEX
  8
0
  5
AF39
 10
145.578
 20
71.4331
 30
0.000000
  70
    32
  0
VERTEX
  8
0
  5
AF3A
 10
145.352
 20
71.3938
 30
0.000000
  70
    32
  0
VERTEX
  8
0
  5
AF3B
 10
145.128
 20
71.3434
 30
0.000000
  70
    32
  0
VERTEX
  8
0
  5
AF3C
 10
144.907
 20
71.2821
 30
0.000000
  70
    32
  0
VERTEX
  8
0
  5
AF3D
 10
144.689
 20
71.2100
 30
0.000000
  70
    32
  0
VERTEX
  8
0
  5
AF3E
 10
144.475
 20
71.1272
 30
0.000000
  70
    32
  0
VERTEX
  8
0
  5
AF3F
 10
144.265
 20
71.0341
 30
0.000000
  70
    32
  0
VERTEX
  8
0
  5
AF40
 10
144.060
 20
70.9307
 30
0.000000
  70
    32
  0
VERTEX
  8
0
  5
AF41
 10
143.861
 20
70.8174
 30
0.000000
  70
    32
  0
VERTEX
  8
0
  5
AF42
 10
143.667
 20
70.6944
 30
0.000000
  70
    32
  0
VERTEX
  8
0
  5
AF43
 10
143.479
 20
70.5620
 30
0.000000
  70
    32
  0
VERTEX
  8
0
  5
AF44
 10
143.299
 20
70.4206
 30
0.000000
  70
    32
  0
VERTEX
  8
0
  5
AF45
 10
143.125
 20
70.2704
 30
0.000000
  70
    32
  0
VERTEX
  8
0
  5
AF46
 10
142.959
 20
70.1119
 30
0.000000
  70
    32
  0
VERTEX
  8
0
  5
AF47
 10
142.801
 20
69.9454
 30
0.000000
  70
    32
  0
VERTEX
  8
0
  5
AF48
 10
142.651
 20
69.7713
 30
0.000000
  70
    32
  0
VERTEX
  8
0
  5
AF49
 10
142.510
 20
69.5901
 30
0.000000
  70
    32
  0
VERTEX
  8
0
  5
AF4A
 10
142.378
 20
69.4022
 30
0.000000
  70
    32
  0
VERTEX
  8
0
  5
AF4B
 10
142.255
 20
69.2079
 30
0.000000
  70
    32
  0
VERTEX
  8
0
  5
AF4C
 10
142.142
 20
69.0079
 30
0.000000
  70
    32
  0
VERTEX
  8
0
  5
AF4D
 10
142.039
 20
68.8026
 30
0.000000
  70
    32
  0
VERTEX
  8
0
  5
AF4E
 10
141.946
 20
68.5924
 30
0.000000
  70
    32
  0
VERTEX
  8
0
  5
AF4F
 10
141.863
 20
68.3779
 30
0.000000
  70
    32
  0
VERTEX
  8
0
  5
AF50
 10
141.791
 20
68.1596
 30
0.000000
  70
    32
  0
VERTEX
  8
0
  5
AF51
 10
141.730
 20
67.9381
 30
0.000000
  70
    32
  0
VERTEX
  8
0
  5
AF52
 10
141.680
 20
67.7138
 30
0.000000
  70
    32
  0
VERTEX
  8
0
  5
AF53
 10
141.641
 20
67.4872
 30
0.000000
  70
    32
  0
VERTEX
  8
0
  5
AF54
 10
141.613
 20
67.2591
 30
0.000000
  70
    32
  0
VERTEX
  8
0
  5
AF55
 10
141.596
 20
67.0298
 30
0.000000
  70
    32
  0
VERTEX
  8
0
  5
AF56
 10
141.590
 20
66.8000
 30
0.000000
  70
    32
  0
VERTEX
  8
0
  5
AF57
 10
141.596
 20
66.5702
 30
0.000000
  70
    32
  0
VERTEX
  8
0
  5
AF58
 10
141.613
 20
66.3409
 30
0.000000
  70
    32
  0
VERTEX
  8
0
  5
AF59
 10
141.641
 20
66.1128
 30
0.000000
  70
    32
  0
VERTEX
  8
0
  5
AF5A
 10
141.680
 20
65.8862
 30
0.000000
  70
    32
  0
VERTEX
  8
0
  5
AF5B
 10
141.730
 20
65.6619
 30
0.000000
  70
    32
  0
VERTEX
  8
0
  5
AF5C
 10
141.791
 20
65.4404
 30
0.000000
  70
    32
  0
VERTEX
  8
0
  5
AF5D
 10
141.863
 20
65.2221
 30
0.000000
  70
    32
  0
VERTEX
  8
0
  5
AF5E
 10
141.946
 20
65.0076
 30
0.000000
  70
    32
  0
VERTEX
  8
0
  5
AF5F
 10
142.039
 20
64.7974
 30
0.000000
  70
    32
  0
VERTEX
  8
0
  5
AF60
 10
142.142
 20
64.5921
 30
0.000000
  70
    32
  0
VERTEX
  8
0
  5
AF61
 10
142.255
 20
64.3921
 30
0.000000
  70
    32
  0
VERTEX
  8
0
  5
AF62
 10
142.378
 20
64.1978
 30
0.000000
  70
    32
  0
VERTEX
  8
0
  5
AF63
 10
142.510
 20
64.0099
 30
0.000000
  70
    32
  0
VERTEX
  8
0
  5
AF64
 10
142.651
 20
63.8287
 30
0.000000
  70
    32
  0
VERTEX
  8
0
  5
AF65
 10
142.801
 20
63.6546
 30
0.000000
  70
    32
  0
VERTEX
  8
0
  5
AF66
 10
142.959
 20
63.4881
 30
0.000000
  70
    32
  0
VERTEX
  8
0
  5
AF67
 10
143.125
 20
63.3296
 30
0.000000
  70
    32
  0
VERTEX
  8
0
  5
AF68
 10
143.299
 20
63.1794
 30
0.000000
  70
    32
  0
VERTEX
  8
0
  5
AF69
 10
143.479
 20
63.0380
 30
0.000000
  70
    32
  0
VERTEX
  8
0
  5
AF6A
 10
143.667
 20
62.9056
 30
0.000000
  70
    32
  0
VERTEX
  8
0
  5
AF6B
 10
143.861
 20
62.7826
 30
0.000000
  70
    32
  0
VERTEX
  8
0
  5
AF6C
 10
144.060
 20
62.6693
 30
0.000000
  70
    32
  0
VERTEX
  8
0
  5
AF6D
 10
144.265
 20
62.5659
 30
0.000000
  70
    32
  0
VERTEX
  8
0
  5
AF6E
 10
144.475
 20
62.4728
 30
0.000000
  70
    32
  0
VERTEX
  8
0
  5
AF6F
 10
144.689
 20
62.3900
 30
0.000000
  70
    32
  0
VERTEX
  8
0
  5
AF70
 10
144.907
 20
62.3179
 30
0.000000
  70
    32
  0
VERTEX
  8
0
  5
AF71
 10
145.128
 20
62.2566
 30
0.000000
  70
    32
  0
VERTEX
  8
0
  5
AF72
 10
145.352
 20
62.2062
 30
0.000000
  70
    32
  0
VERTEX
  8
0
  5
AF73
 10
145.578
 20
62.1669
 30
0.000000
  70
    32
  0
VERTEX
  8
0
  5
AF74
 10
145.805
 20
62.1388
 30
0.000000
  70
    32
  0
VERTEX
  8
0
  5
AF75
 10
146.034
 20
62.1219
 30
0.000000
  70
    32
  0
VERTEX
  8
0
  5
AF76
 10
146.263
 20
62.1163
 30
0.000000
  70
    32
  0
SEQEND
  8
0
  5
AF77
  0
LINE
  5
ABE2
  8
0
 10
146.55000000000049
 20
74.000000000000114
 30
0.0
 11
146.2525084150559
 21
74.000000000000114
 31
0.0
  0
ARC
  5
ABE3
  8
0
 10
146.55000000000049
 20
66.800000000000125
 30
0.0
 40
7.1999999999999966
 50
290.67709639263558
 51
90.0
  0
POLYLINE
  5
ABE4
  8
0
 66
     1
 10
0.0
 20
0.0
 30
0.0
  0
VERTEX
  5
AD58
  8
0
 10
146.2525084150559
 20
74.000000000000114
 30
0.0
  0
VERTEX
  5
AD59
  8
0
 10
146.0228576265898
 20
73.996373040414142
 30
0.0
  0
VERTEX
  5
AD5A
  8
0
 10
145.4198376053003
 20
73.952204200046765
 30
0.0
  0
VERTEX
  5
AD5B
  8
0
 10
144.8225036191169
 20
73.858346539482454
 30
0.0
  0
VERTEX
  5
AD5C
  8
0
 10
144.2182802551994
 20
73.710527591913944
 30
0.0
  0
VERTEX
  5
AD5D
  8
0
 10
143.62869661020801
 20
73.51201428058954
 30
0.0
  0
VERTEX
  5
AD5E
  8
0
 10
143.21276536584489
 20
73.337095685859708
 30
0.0
  0
SEQEND
  5
AD5F
  8
0
  0
POLYLINE
  5
ABE5
  8
0
 66
     1
 10
0.0
 20
0.0
 30
0.0
  0
VERTEX
  5
AD60
  8
0
 10
117.2872346341553
 20
73.337095685859595
 30
0.0
  0
VERTEX
  5
AD61
  8
0
 10
117.2568954639422
 20
73.350884854905985
 30
0.0
  0
VERTEX
  5
AD62
  8
0
 10
116.691385561815
 20
73.578507904121238
 30
0.0
  0
VERTEX
  5
AD63
  8
0
 10
116.10900701438
 20
73.758399804219096
 30
0.0
  0
VERTEX
  5
AD64
  8
0
 10
115.49625278544261
 20
73.892159151670683
 30
0.0
  0
VERTEX
  5
AD65
  8
0
 10
114.8743395726615
 20
73.972966741447522
 30
0.0
  0
VERTEX
  5
AD66
  8
0
 10
114.26576165959069
 20
73.999932439520805
 30
0.0
  0
VERTEX
  5
AD67
  8
0
 10
114.2475682979379
 20
74.000000000000114
 30
0.0
  0
SEQEND
  5
AD68
  8
0
  0
LINE
  5
ABE6
  8
0
 10
114.2475682979379
 20
74.000000000000114
 30
0.0
 11
113.9499999999999
 21
74.000000000000114
 31
0.0
  0
ARC
  5
ABE7
  8
0
 10
113.9499999999999
 20
66.800000000000125
 30
0.0
 40
7.1999999999999957
 50
90.0
 51
249.3229036073644
  0
ARC
  5
ABE8
  8
0
 10
123.00190363197051
 20
110.89168361594039
 30
0.0
 40
57.133049242422629
 50
284.18235019523399
 51
297.17184259003858
  0
ARC
  5
ABE9
  8
0
 10
137.4980963680303
 20
110.8916836159413
 30
0.0
 40
57.133049242423631
 50
242.82815740996139
 51
255.81764980476601
  0
POLYLINE
  5
ABEA
  8
0
 10
117.28723463415541
 20
73.337095685859424
 30
0.0
 66
     1
 70
     8
  0
VERTEX
  8
0
  5
AF78
 10
117.287
 20
73.3371
 30
0.000000
  70
    32
  0
VERTEX
  8
0
  5
AF79
 10
117.325
 20
73.3266
 30
0.000000
  70
    32
  0
VERTEX
  8
0
  5
AF7A
 10
117.362
 20
73.3161
 30
0.000000
  70
    32
  0
VERTEX
  8
0
  5
AF7B
 10
117.400
 20
73.3057
 30
0.000000
  70
    32
  0
VERTEX
  8
0
  5
AF7C
 10
117.438
 20
73.2953
 30
0.000000
  70
    32
  0
VERTEX
  8
0
  5
AF7D
 10
117.475
 20
73.2849
 30
0.000000
  70
    32
  0
VERTEX
  8
0
  5
AF7E
 10
117.513
 20
73.2746
 30
0.000000
  70
    32
  0
VERTEX
  8
0
  5
AF7F
 10
117.551
 20
73.2643
 30
0.000000
  70
    32
  0
VERTEX
  8
0
  5
AF80
 10
117.588
 20
73.2540
 30
0.000000
  70
    32
  0
VERTEX
  8
0
  5
AF81
 10
117.626
 20
73.2438
 30
0.000000
  70
    32
  0
VERTEX
  8
0
  5
AF82
 10
117.664
 20
73.2335
 30
0.000000
  70
    32
  0
VERTEX
  8
0
  5
AF83
 10
117.701
 20
73.2233
 30
0.000000
  70
    32
  0
VERTEX
  8
0
  5
AF84
 10
117.739
 20
73.2132
 30
0.000000
  70
    32
  0
VERTEX
  8
0
  5
AF85
 10
117.777
 20
73.2031
 30
0.000000
  70
    32
  0
VERTEX
  8
0
  5
AF86
 10
117.815
 20
73.1930
 30
0.000000
  70
    32
  0
VERTEX
  8
0
  5
AF87
 10
117.852
 20
73.1829
 30
0.000000
  70
    32
  0
VERTEX
  8
0
  5
AF88
 10
117.890
 20
73.1729
 30
0.000000
  70
    32
  0
VERTEX
  8
0
  5
AF89
 10
117.928
 20
73.1628
 30
0.000000
  70
    32
  0
VERTEX
  8
0
  5
AF8A
 10
117.966
 20
73.1529
 30
0.000000
  70
    32
  0
VERTEX
  8
0
  5
AF8B
 10
118.003
 20
73.1429
 30
0.000000
  70
    32
  0
VERTEX
  8
0
  5
AF8C
 10
118.041
 20
73.1330
 30
0.000000
  70
    32
  0
VERTEX
  8
0
  5
AF8D
 10
118.079
 20
73.1231
 30
0.000000
  70
    32
  0
VERTEX
  8
0
  5
AF8E
 10
118.117
 20
73.1133
 30
0.000000
  70
    32
  0
VERTEX
  8
0
  5
AF8F
 10
118.155
 20
73.1034
 30
0.000000
  70
    32
  0
VERTEX
  8
0
  5
AF90
 10
118.192
 20
73.0936
 30
0.000000
  70
    32
  0
VERTEX
  8
0
  5
AF91
 10
118.230
 20
73.0839
 30
0.000000
  70
    32
  0
VERTEX
  8
0
  5
AF92
 10
118.268
 20
73.0741
 30
0.000000
  70
    32
  0
VERTEX
  8
0
  5
AF93
 10
118.306
 20
73.0644
 30
0.000000
  70
    32
  0
VERTEX
  8
0
  5
AF94
 10
118.344
 20
73.0548
 30
0.000000
  70
    32
  0
VERTEX
  8
0
  5
AF95
 10
118.381
 20
73.0451
 30
0.000000
  70
    32
  0
VERTEX
  8
0
  5
AF96
 10
118.419
 20
73.0355
 30
0.000000
  70
    32
  0
VERTEX
  8
0
  5
AF97
 10
118.457
 20
73.0259
 30
0.000000
  70
    32
  0
VERTEX
  8
0
  5
AF98
 10
118.495
 20
73.0164
 30
0.000000
  70
    32
  0
VERTEX
  8
0
  5
AF99
 10
118.533
 20
73.0068
 30
0.000000
  70
    32
  0
VERTEX
  8
0
  5
AF9A
 10
118.571
 20
72.9973
 30
0.000000
  70
    32
  0
VERTEX
  8
0
  5
AF9B
 10
118.609
 20
72.9879
 30
0.000000
  70
    32
  0
VERTEX
  8
0
  5
AF9C
 10
118.647
 20
72.9784
 30
0.000000
  70
    32
  0
VERTEX
  8
0
  5
AF9D
 10
118.684
 20
72.9690
 30
0.000000
  70
    32
  0
VERTEX
  8
0
  5
AF9E
 10
118.722
 20
72.9597
 30
0.000000
  70
    32
  0
VERTEX
  8
0
  5
AF9F
 10
118.760
 20
72.9503
 30
0.000000
  70
    32
  0
VERTEX
  8
0
  5
AFA0
 10
118.798
 20
72.9410
 30
0.000000
  70
    32
  0
VERTEX
  8
0
  5
AFA1
 10
118.836
 20
72.9317
 30
0.000000
  70
    32
  0
VERTEX
  8
0
  5
AFA2
 10
118.874
 20
72.9225
 30
0.000000
  70
    32
  0
VERTEX
  8
0
  5
AFA3
 10
118.912
 20
72.9133
 30
0.000000
  70
    32
  0
VERTEX
  8
0
  5
AFA4
 10
118.950
 20
72.9041
 30
0.000000
  70
    32
  0
VERTEX
  8
0
  5
AFA5
 10
118.988
 20
72.8949
 30
0.000000
  70
    32
  0
VERTEX
  8
0
  5
AFA6
 10
119.026
 20
72.8858
 30
0.000000
  70
    32
  0
VERTEX
  8
0
  5
AFA7
 10
119.064
 20
72.8767
 30
0.000000
  70
    32
  0
VERTEX
  8
0
  5
AFA8
 10
119.102
 20
72.8676
 30
0.000000
  70
    32
  0
VERTEX
  8
0
  5
AFA9
 10
119.140
 20
72.8586
 30
0.000000
  70
    32
  0
VERTEX
  8
0
  5
AFAA
 10
119.178
 20
72.8496
 30
0.000000
  70
    32
  0
VERTEX
  8
0
  5
AFAB
 10
119.216
 20
72.8406
 30
0.000000
  70
    32
  0
VERTEX
  8
0
  5
AFAC
 10
119.254
 20
72.8317
 30
0.000000
  70
    32
  0
VERTEX
  8
0
  5
AFAD
 10
119.292
 20
72.8228
 30
0.000000
  70
    32
  0
VERTEX
  8
0
  5
AFAE
 10
119.330
 20
72.8139
 30
0.000000
  70
    32
  0
VERTEX
  8
0
  5
AFAF
 10
119.368
 20
72.8050
 30
0.000000
  70
    32
  0
VERTEX
  8
0
  5
AFB0
 10
119.406
 20
72.7962
 30
0.000000
  70
    32
  0
VERTEX
  8
0
  5
AFB1
 10
119.444
 20
72.7874
 30
0.000000
  70
    32
  0
VERTEX
  8
0
  5
AFB2
 10
119.482
 20
72.7787
 30
0.000000
  70
    32
  0
VERTEX
  8
0
  5
AFB3
 10
119.520
 20
72.7699
 30
0.000000
  70
    32
  0
VERTEX
  8
0
  5
AFB4
 10
119.558
 20
72.7612
 30
0.000000
  70
    32
  0
VERTEX
  8
0
  5
AFB5
 10
119.596
 20
72.7526
 30
0.000000
  70
    32
  0
VERTEX
  8
0
  5
AFB6
 10
119.634
 20
72.7439
 30
0.000000
  70
    32
  0
VERTEX
  8
0
  5
AFB7
 10
119.673
 20
72.7353
 30
0.000000
  70
    32
  0
VERTEX
  8
0
  5
AFB8
 10
119.711
 20
72.7267
 30
0.000000
  70
    32
  0
VERTEX
  8
0
  5
AFB9
 10
119.749
 20
72.7182
 30
0.000000
  70
    32
  0
VERTEX
  8
0
  5
AFBA
 10
119.787
 20
72.7097
 30
0.000000
  70
    32
  0
VERTEX
  8
0
  5
AFBB
 10
119.825
 20
72.7012
 30
0.000000
  70
    32
  0
VERTEX
  8
0
  5
AFBC
 10
119.863
 20
72.6927
 30
0.000000
  70
    32
  0
VERTEX
  8
0
  5
AFBD
 10
119.901
 20
72.6843
 30
0.000000
  70
    32
  0
VERTEX
  8
0
  5
AFBE
 10
119.939
 20
72.6759
 30
0.000000
  70
    32
  0
VERTEX
  8
0
  5
AFBF
 10
119.977
 20
72.6675
 30
0.000000
  70
    32
  0
VERTEX
  8
0
  5
AFC0
 10
120.016
 20
72.6592
 30
0.000000
  70
    32
  0
VERTEX
  8
0
  5
AFC1
 10
120.054
 20
72.6509
 30
0.000000
  70
    32
  0
VERTEX
  8
0
  5
AFC2
 10
120.092
 20
72.6426
 30
0.000000
  70
    32
  0
VERTEX
  8
0
  5
AFC3
 10
120.130
 20
72.6344
 30
0.000000
  70
    32
  0
VERTEX
  8
0
  5
AFC4
 10
120.168
 20
72.6262
 30
0.000000
  70
    32
  0
VERTEX
  8
0
  5
AFC5
 10
120.206
 20
72.6180
 30
0.000000
  70
    32
  0
VERTEX
  8
0
  5
AFC6
 10
120.245
 20
72.6098
 30
0.000000
  70
    32
  0
VERTEX
  8
0
  5
AFC7
 10
120.283
 20
72.6017
 30
0.000000
  70
    32
  0
VERTEX
  8
0
  5
AFC8
 10
120.321
 20
72.5936
 30
0.000000
  70
    32
  0
VERTEX
  8
0
  5
AFC9
 10
120.359
 20
72.5856
 30
0.000000
  70
    32
  0
VERTEX
  8
0
  5
AFCA
 10
120.398
 20
72.5775
 30
0.000000
  70
    32
  0
VERTEX
  8
0
  5
AFCB
 10
120.436
 20
72.5696
 30
0.000000
  70
    32
  0
VERTEX
  8
0
  5
AFCC
 10
120.474
 20
72.5616
 30
0.000000
  70
    32
  0
VERTEX
  8
0
  5
AFCD
 10
120.512
 20
72.5537
 30
0.000000
  70
    32
  0
VERTEX
  8
0
  5
AFCE
 10
120.550
 20
72.5457
 30
0.000000
  70
    32
  0
VERTEX
  8
0
  5
AFCF
 10
120.589
 20
72.5379
 30
0.000000
  70
    32
  0
VERTEX
  8
0
  5
AFD0
 10
120.627
 20
72.5300
 30
0.000000
  70
    32
  0
VERTEX
  8
0
  5
AFD1
 10
120.665
 20
72.5222
 30
0.000000
  70
    32
  0
VERTEX
  8
0
  5
AFD2
 10
120.703
 20
72.5144
 30
0.000000
  70
    32
  0
VERTEX
  8
0
  5
AFD3
 10
120.742
 20
72.5067
 30
0.000000
  70
    32
  0
VERTEX
  8
0
  5
AFD4
 10
120.780
 20
72.4990
 30
0.000000
  70
    32
  0
VERTEX
  8
0
  5
AFD5
 10
120.818
 20
72.4913
 30
0.000000
  70
    32
  0
VERTEX
  8
0
  5
AFD6
 10
120.857
 20
72.4836
 30
0.000000
  70
    32
  0
VERTEX
  8
0
  5
AFD7
 10
120.895
 20
72.4760
 30
0.000000
  70
    32
  0
VERTEX
  8
0
  5
AFD8
 10
120.933
 20
72.4684
 30
0.000000
  70
    32
  0
VERTEX
  8
0
  5
AFD9
 10
120.972
 20
72.4608
 30
0.000000
  70
    32
  0
VERTEX
  8
0
  5
AFDA
 10
121.010
 20
72.4533
 30
0.000000
  70
    32
  0
VERTEX
  8
0
  5
AFDB
 10
121.048
 20
72.4458
 30
0.000000
  70
    32
  0
VERTEX
  8
0
  5
AFDC
 10
121.086
 20
72.4383
 30
0.000000
  70
    32
  0
VERTEX
  8
0
  5
AFDD
 10
121.125
 20
72.4309
 30
0.000000
  70
    32
  0
VERTEX
  8
0
  5
AFDE
 10
121.163
 20
72.4234
 30
0.000000
  70
    32
  0
VERTEX
  8
0
  5
AFDF
 10
121.201
 20
72.4161
 30
0.000000
  70
    32
  0
VERTEX
  8
0
  5
AFE0
 10
121.240
 20
72.4087
 30
0.000000
  70
    32
  0
VERTEX
  8
0
  5
AFE1
 10
121.278
 20
72.4014
 30
0.000000
  70
    32
  0
VERTEX
  8
0
  5
AFE2
 10
121.317
 20
72.3941
 30
0.000000
  70
    32
  0
VERTEX
  8
0
  5
AFE3
 10
121.355
 20
72.3868
 30
0.000000
  70
    32
  0
VERTEX
  8
0
  5
AFE4
 10
121.393
 20
72.3796
 30
0.000000
  70
    32
  0
VERTEX
  8
0
  5
AFE5
 10
121.432
 20
72.3724
 30
0.000000
  70
    32
  0
VERTEX
  8
0
  5
AFE6
 10
121.470
 20
72.3653
 30
0.000000
  70
    32
  0
VERTEX
  8
0
  5
AFE7
 10
121.508
 20
72.3581
 30
0.000000
  70
    32
  0
VERTEX
  8
0
  5
AFE8
 10
121.547
 20
72.3510
 30
0.000000
  70
    32
  0
VERTEX
  8
0
  5
AFE9
 10
121.585
 20
72.3439
 30
0.000000
  70
    32
  0
VERTEX
  8
0
  5
AFEA
 10
121.624
 20
72.3369
 30
0.000000
  70
    32
  0
VERTEX
  8
0
  5
AFEB
 10
121.662
 20
72.3299
 30
0.000000
  70
    32
  0
VERTEX
  8
0
  5
AFEC
 10
121.701
 20
72.3229
 30
0.000000
  70
    32
  0
VERTEX
  8
0
  5
AFED
 10
121.739
 20
72.3159
 30
0.000000
  70
    32
  0
VERTEX
  8
0
  5
AFEE
 10
121.777
 20
72.3090
 30
0.000000
  70
    32
  0
VERTEX
  8
0
  5
AFEF
 10
121.816
 20
72.3021
 30
0.000000
  70
    32
  0
VERTEX
  8
0
  5
AFF0
 10
121.854
 20
72.2953
 30
0.000000
  70
    32
  0
VERTEX
  8
0
  5
AFF1
 10
121.893
 20
72.2884
 30
0.000000
  70
    32
  0
VERTEX
  8
0
  5
AFF2
 10
121.931
 20
72.2817
 30
0.000000
  70
    32
  0
VERTEX
  8
0
  5
AFF3
 10
121.970
 20
72.2749
 30
0.000000
  70
    32
  0
VERTEX
  8
0
  5
AFF4
 10
122.008
 20
72.2682
 30
0.000000
  70
    32
  0
VERTEX
  8
0
  5
AFF5
 10
122.047
 20
72.2614
 30
0.000000
  70
    32
  0
VERTEX
  8
0
  5
AFF6
 10
122.085
 20
72.2548
 30
0.000000
  70
    32
  0
VERTEX
  8
0
  5
AFF7
 10
122.123
 20
72.2481
 30
0.000000
  70
    32
  0
VERTEX
  8
0
  5
AFF8
 10
122.162
 20
72.2415
 30
0.000000
  70
    32
  0
SEQEND
  8
0
  5
AFF9
  0
POLYLINE
  5
ABEB
  8
0
 66
     1
 10
0.0
 20
0.0
 30
0.0
  0
VERTEX
  5
AD69
  8
0
 10
124.66531606109299
 20
71.967780879788833
 30
0.0
  0
VERTEX
  5
AD6A
  8
0
 10
124.47718798662621
 20
71.971202884378613
 30
0.0
  0
VERTEX
  5
AD6B
  8
0
 10
124.2625476505853
 20
71.981334903711399
 30
0.0
  0
VERTEX
  5
AD6C
  8
0
 10
124.0255026693459
 20
71.997975946132726
 30
0.0
  0
VERTEX
  5
AD6D
  8
0
 10
123.76811414312741
 20
72.021040865783505
 30
0.0
  0
VERTEX
  5
AD6E
  8
0
 10
123.49312891702409
 20
72.050207110382985
 30
0.0
  0
VERTEX
  5
AD6F
  8
0
 10
123.20570775885579
 20
72.084915608131723
 30
0.0
  0
VERTEX
  5
AD70
  8
0
 10
122.9059599152546
 20
72.125247028257377
 30
0.0
  0
VERTEX
  5
AD71
  8
0
 10
122.5991369946794
 20
72.170477448279257
 30
0.0
  0
VERTEX
  5
AD72
  8
0
 10
122.2908296411733
 20
72.219771412992486
 30
0.0
  0
VERTEX
  5
AD73
  8
0
 10
122.1619849321176
 20
72.241517845560054
 30
0.0
  0
SEQEND
  5
AD74
  8
0
  0
POLYLINE
  5
ABEC
  8
0
 66
     1
 10
0.0
 20
0.0
 30
0.0
  0
VERTEX
  5
AD75
  8
0
 10
138.33801506788279
 20
72.241517845559983
 30
0.0
  0
VERTEX
  5
AD76
  8
0
 10
138.10634054397761
 20
72.202898348873532
 30
0.0
  0
VERTEX
  5
AD77
  8
0
 10
137.87462824059671
 20
72.166435000390777
 30
0.0
  0
VERTEX
  5
AD78
  8
0
 10
137.63789394348149
 20
72.131449981608966
 30
0.0
  0
VERTEX
  5
AD79
  8
0
 10
137.4045200318605
 20
72.099275019709296
 30
0.0
  0
VERTEX
  5
AD7A
  8
0
 10
137.18244882893359
 20
72.070922730088455
 30
0.0
  0
VERTEX
  5
AD7B
  8
0
 10
136.9667727470806
 20
72.045666140800392
 30
0.0
  0
VERTEX
  5
AD7C
  8
0
 10
136.75300831888529
 20
72.023100723956418
 30
0.0
  0
VERTEX
  5
AD7D
  8
0
 10
136.54932544647281
 20
72.004196739120118
 30
0.0
  0
VERTEX
  5
AD7E
  8
0
 10
136.35020462194501
 20
71.988618752801131
 30
0.0
  0
VERTEX
  5
AD7F
  8
0
 10
136.16535459340679
 20
71.977291681047063
 30
0.0
  0
VERTEX
  5
AD80
  8
0
 10
135.99073759351921
 20
71.970169789949466
 30
0.0
  0
VERTEX
  5
AD81
  8
0
 10
135.83468393890749
 20
71.967780879788791
 30
0.0
  0
SEQEND
  5
AD82
  8
0
  0
POLYLINE
  5
ABED
  8
0
 10
138.33801506788274
 20
72.241517845559926
 30
0.0
 66
     1
 70
     8
  0
VERTEX
  8
0
  5
AFFA
 10
138.338
 20
72.2415
 30
0.000000
  70
    32
  0
VERTEX
  8
0
  5
AFFB
 10
138.377
 20
72.2481
 30
0.000000
  70
    32
  0
VERTEX
  8
0
  5
AFFC
 10
138.415
 20
72.2548
 30
0.000000
  70
    32
  0
VERTEX
  8
0
  5
AFFD
 10
138.453
 20
72.2614
 30
0.000000
  70
    32
  0
VERTEX
  8
0
  5
AFFE
 10
138.492
 20
72.2682
 30
0.000000
  70
    32
  0
VERTEX
  8
0
  5
AFFF
 10
138.530
 20
72.2749
 30
0.000000
  70
    32
  0
VERTEX
  8
0
  5
B000
 10
138.569
 20
72.2817
 30
0.000000
  70
    32
  0
VERTEX
  8
0
  5
B001
 10
138.607
 20
72.2884
 30
0.000000
  70
    32
  0
VERTEX
  8
0
  5
B002
 10
138.646
 20
72.2953
 30
0.000000
  70
    32
  0
VERTEX
  8
0
  5
B003
 10
138.684
 20
72.3021
 30
0.000000
  70
    32
  0
VERTEX
  8
0
  5
B004
 10
138.723
 20
72.3090
 30
0.000000
  70
    32
  0
VERTEX
  8
0
  5
B005
 10
138.761
 20
72.3159
 30
0.000000
  70
    32
  0
VERTEX
  8
0
  5
B006
 10
138.799
 20
72.3229
 30
0.000000
  70
    32
  0
VERTEX
  8
0
  5
B007
 10
138.838
 20
72.3299
 30
0.000000
  70
    32
  0
VERTEX
  8
0
  5
B008
 10
138.876
 20
72.3369
 30
0.000000
  70
    32
  0
VERTEX
  8
0
  5
B009
 10
138.915
 20
72.3439
 30
0.000000
  70
    32
  0
VERTEX
  8
0
  5
B00A
 10
138.953
 20
72.3510
 30
0.000000
  70
    32
  0
VERTEX
  8
0
  5
B00B
 10
138.992
 20
72.3581
 30
0.000000
  70
    32
  0
VERTEX
  8
0
  5
B00C
 10
139.030
 20
72.3653
 30
0.000000
  70
    32
  0
VERTEX
  8
0
  5
B00D
 10
139.068
 20
72.3724
 30
0.000000
  70
    32
  0
VERTEX
  8
0
  5
B00E
 10
139.107
 20
72.3796
 30
0.000000
  70
    32
  0
VERTEX
  8
0
  5
B00F
 10
139.145
 20
72.3868
 30
0.000000
  70
    32
  0
VERTEX
  8
0
  5
B010
 10
139.183
 20
72.3941
 30
0.000000
  70
    32
  0
VERTEX
  8
0
  5
B011
 10
139.222
 20
72.4014
 30
0.000000
  70
    32
  0
VERTEX
  8
0
  5
B012
 10
139.260
 20
72.4087
 30
0.000000
  70
    32
  0
VERTEX
  8
0
  5
B013
 10
139.299
 20
72.4161
 30
0.000000
  70
    32
  0
VERTEX
  8
0
  5
B014
 10
139.337
 20
72.4234
 30
0.000000
  70
    32
  0
VERTEX
  8
0
  5
B015
 10
139.375
 20
72.4309
 30
0.000000
  70
    32
  0
VERTEX
  8
0
  5
B016
 10
139.414
 20
72.4383
 30
0.000000
  70
    32
  0
VERTEX
  8
0
  5
B017
 10
139.452
 20
72.4458
 30
0.000000
  70
    32
  0
VERTEX
  8
0
  5
B018
 10
139.490
 20
72.4533
 30
0.000000
  70
    32
  0
VERTEX
  8
0
  5
B019
 10
139.528
 20
72.4608
 30
0.000000
  70
    32
  0
VERTEX
  8
0
  5
B01A
 10
139.567
 20
72.4684
 30
0.000000
  70
    32
  0
VERTEX
  8
0
  5
B01B
 10
139.605
 20
72.4760
 30
0.000000
  70
    32
  0
VERTEX
  8
0
  5
B01C
 10
139.643
 20
72.4836
 30
0.000000
  70
    32
  0
VERTEX
  8
0
  5
B01D
 10
139.682
 20
72.4913
 30
0.000000
  70
    32
  0
VERTEX
  8
0
  5
B01E
 10
139.720
 20
72.4990
 30
0.000000
  70
    32
  0
VERTEX
  8
0
  5
B01F
 10
139.758
 20
72.5067
 30
0.000000
  70
    32
  0
VERTEX
  8
0
  5
B020
 10
139.797
 20
72.5144
 30
0.000000
  70
    32
  0
VERTEX
  8
0
  5
B021
 10
139.835
 20
72.5222
 30
0.000000
  70
    32
  0
VERTEX
  8
0
  5
B022
 10
139.873
 20
72.5300
 30
0.000000
  70
    32
  0
VERTEX
  8
0
  5
B023
 10
139.911
 20
72.5379
 30
0.000000
  70
    32
  0
VERTEX
  8
0
  5
B024
 10
139.950
 20
72.5457
 30
0.000000
  70
    32
  0
VERTEX
  8
0
  5
B025
 10
139.988
 20
72.5537
 30
0.000000
  70
    32
  0
VERTEX
  8
0
  5
B026
 10
140.026
 20
72.5616
 30
0.000000
  70
    32
  0
VERTEX
  8
0
  5
B027
 10
140.064
 20
72.5696
 30
0.000000
  70
    32
  0
VERTEX
  8
0
  5
B028
 10
140.102
 20
72.5775
 30
0.000000
  70
    32
  0
VERTEX
  8
0
  5
B029
 10
140.141
 20
72.5856
 30
0.000000
  70
    32
  0
VERTEX
  8
0
  5
B02A
 10
140.179
 20
72.5936
 30
0.000000
  70
    32
  0
VERTEX
  8
0
  5
B02B
 10
140.217
 20
72.6017
 30
0.000000
  70
    32
  0
VERTEX
  8
0
  5
B02C
 10
140.255
 20
72.6098
 30
0.000000
  70
    32
  0
VERTEX
  8
0
  5
B02D
 10
140.294
 20
72.6180
 30
0.000000
  70
    32
  0
VERTEX
  8
0
  5
B02E
 10
140.332
 20
72.6262
 30
0.000000
  70
    32
  0
VERTEX
  8
0
  5
B02F
 10
140.370
 20
72.6344
 30
0.000000
  70
    32
  0
VERTEX
  8
0
  5
B030
 10
140.408
 20
72.6426
 30
0.000000
  70
    32
  0
VERTEX
  8
0
  5
B031
 10
140.446
 20
72.6509
 30
0.000000
  70
    32
  0
VERTEX
  8
0
  5
B032
 10
140.484
 20
72.6592
 30
0.000000
  70
    32
  0
VERTEX
  8
0
  5
B033
 10
140.523
 20
72.6675
 30
0.000000
  70
    32
  0
VERTEX
  8
0
  5
B034
 10
140.561
 20
72.6759
 30
0.000000
  70
    32
  0
VERTEX
  8
0
  5
B035
 10
140.599
 20
72.6843
 30
0.000000
  70
    32
  0
VERTEX
  8
0
  5
B036
 10
140.637
 20
72.6927
 30
0.000000
  70
    32
  0
VERTEX
  8
0
  5
B037
 10
140.675
 20
72.7012
 30
0.000000
  70
    32
  0
VERTEX
  8
0
  5
B038
 10
140.713
 20
72.7097
 30
0.000000
  70
    32
  0
VERTEX
  8
0
  5
B039
 10
140.751
 20
72.7182
 30
0.000000
  70
    32
  0
VERTEX
  8
0
  5
B03A
 10
140.789
 20
72.7267
 30
0.000000
  70
    32
  0
VERTEX
  8
0
  5
B03B
 10
140.827
 20
72.7353
 30
0.000000
  70
    32
  0
VERTEX
  8
0
  5
B03C
 10
140.866
 20
72.7439
 30
0.000000
  70
    32
  0
VERTEX
  8
0
  5
B03D
 10
140.904
 20
72.7526
 30
0.000000
  70
    32
  0
VERTEX
  8
0
  5
B03E
 10
140.942
 20
72.7612
 30
0.000000
  70
    32
  0
VERTEX
  8
0
  5
B03F
 10
140.980
 20
72.7699
 30
0.000000
  70
    32
  0
VERTEX
  8
0
  5
B040
 10
141.018
 20
72.7787
 30
0.000000
  70
    32
  0
VERTEX
  8
0
  5
B041
 10
141.056
 20
72.7874
 30
0.000000
  70
    32
  0
VERTEX
  8
0
  5
B042
 10
141.094
 20
72.7962
 30
0.000000
  70
    32
  0
VERTEX
  8
0
  5
B043
 10
141.132
 20
72.8050
 30
0.000000
  70
    32
  0
VERTEX
  8
0
  5
B044
 10
141.170
 20
72.8139
 30
0.000000
  70
    32
  0
VERTEX
  8
0
  5
B045
 10
141.208
 20
72.8228
 30
0.000000
  70
    32
  0
VERTEX
  8
0
  5
B046
 10
141.246
 20
72.8317
 30
0.000000
  70
    32
  0
VERTEX
  8
0
  5
B047
 10
141.284
 20
72.8406
 30
0.000000
  70
    32
  0
VERTEX
  8
0
  5
B048
 10
141.322
 20
72.8496
 30
0.000000
  70
    32
  0
VERTEX
  8
0
  5
B049
 10
141.360
 20
72.8586
 30
0.000000
  70
    32
  0
VERTEX
  8
0
  5
B04A
 10
141.398
 20
72.8676
 30
0.000000
  70
    32
  0
VERTEX
  8
0
  5
B04B
 10
141.436
 20
72.8767
 30
0.000000
  70
    32
  0
VERTEX
  8
0
  5
B04C
 10
141.474
 20
72.8858
 30
0.000000
  70
    32
  0
VERTEX
  8
0
  5
B04D
 10
141.512
 20
72.8949
 30
0.000000
  70
    32
  0
VERTEX
  8
0
  5
B04E
 10
141.550
 20
72.9041
 30
0.000000
  70
    32
  0
VERTEX
  8
0
  5
B04F
 10
141.588
 20
72.9133
 30
0.000000
  70
    32
  0
VERTEX
  8
0
  5
B050
 10
141.626
 20
72.9225
 30
0.000000
  70
    32
  0
VERTEX
  8
0
  5
B051
 10
141.664
 20
72.9317
 30
0.000000
  70
    32
  0
VERTEX
  8
0
  5
B052
 10
141.702
 20
72.9410
 30
0.000000
  70
    32
  0
VERTEX
  8
0
  5
B053
 10
141.740
 20
72.9503
 30
0.000000
  70
    32
  0
VERTEX
  8
0
  5
B054
 10
141.778
 20
72.9597
 30
0.000000
  70
    32
  0
VERTEX
  8
0
  5
B055
 10
141.816
 20
72.9690
 30
0.000000
  70
    32
  0
VERTEX
  8
0
  5
B056
 10
141.853
 20
72.9784
 30
0.000000
  70
    32
  0
VERTEX
  8
0
  5
B057
 10
141.891
 20
72.9879
 30
0.000000
  70
    32
  0
VERTEX
  8
0
  5
B058
 10
141.929
 20
72.9973
 30
0.000000
  70
    32
  0
VERTEX
  8
0
  5
B059
 10
141.967
 20
73.0068
 30
0.000000
  70
    32
  0
VERTEX
  8
0
  5
B05A
 10
142.005
 20
73.0164
 30
0.000000
  70
    32
  0
VERTEX
  8
0
  5
B05B
 10
142.043
 20
73.0259
 30
0.000000
  70
    32
  0
VERTEX
  8
0
  5
B05C
 10
142.081
 20
73.0355
 30
0.000000
  70
    32
  0
VERTEX
  8
0
  5
B05D
 10
142.119
 20
73.0451
 30
0.000000
  70
    32
  0
VERTEX
  8
0
  5
B05E
 10
142.156
 20
73.0548
 30
0.000000
  70
    32
  0
VERTEX
  8
0
  5
B05F
 10
142.194
 20
73.0644
 30
0.000000
  70
    32
  0
VERTEX
  8
0
  5
B060
 10
142.232
 20
73.0741
 30
0.000000
  70
    32
  0
VERTEX
  8
0
  5
B061
 10
142.270
 20
73.0839
 30
0.000000
  70
    32
  0
VERTEX
  8
0
  5
B062
 10
142.308
 20
73.0936
 30
0.000000
  70
    32
  0
VERTEX
  8
0
  5
B063
 10
142.345
 20
73.1034
 30
0.000000
  70
    32
  0
VERTEX
  8
0
  5
B064
 10
142.383
 20
73.1133
 30
0.000000
  70
    32
  0
VERTEX
  8
0
  5
B065
 10
142.421
 20
73.1231
 30
0.000000
  70
    32
  0
VERTEX
  8
0
  5
B066
 10
142.459
 20
73.1330
 30
0.000000
  70
    32
  0
VERTEX
  8
0
  5
B067
 10
142.497
 20
73.1429
 30
0.000000
  70
    32
  0
VERTEX
  8
0
  5
B068
 10
142.534
 20
73.1529
 30
0.000000
  70
    32
  0
VERTEX
  8
0
  5
B069
 10
142.572
 20
73.1628
 30
0.000000
  70
    32
  0
VERTEX
  8
0
  5
B06A
 10
142.610
 20
73.1729
 30
0.000000
  70
    32
  0
VERTEX
  8
0
  5
B06B
 10
142.648
 20
73.1829
 30
0.000000
  70
    32
  0
VERTEX
  8
0
  5
B06C
 10
142.685
 20
73.1930
 30
0.000000
  70
    32
  0
VERTEX
  8
0
  5
B06D
 10
142.723
 20
73.2031
 30
0.000000
  70
    32
  0
VERTEX
  8
0
  5
B06E
 10
142.761
 20
73.2132
 30
0.000000
  70
    32
  0
VERTEX
  8
0
  5
B06F
 10
142.799
 20
73.2233
 30
0.000000
  70
    32
  0
VERTEX
  8
0
  5
B070
 10
142.836
 20
73.2335
 30
0.000000
  70
    32
  0
VERTEX
  8
0
  5
B071
 10
142.874
 20
73.2438
 30
0.000000
  70
    32
  0
VERTEX
  8
0
  5
B072
 10
142.912
 20
73.2540
 30
0.000000
  70
    32
  0
VERTEX
  8
0
  5
B073
 10
142.949
 20
73.2643
 30
0.000000
  70
    32
  0
VERTEX
  8
0
  5
B074
 10
142.987
 20
73.2746
 30
0.000000
  70
    32
  0
VERTEX
  8
0
  5
B075
 10
143.025
 20
73.2849
 30
0.000000
  70
    32
  0
VERTEX
  8
0
  5
B076
 10
143.062
 20
73.2953
 30
0.000000
  70
    32
  0
VERTEX
  8
0
  5
B077
 10
143.100
 20
73.3057
 30
0.000000
  70
    32
  0
VERTEX
  8
0
  5
B078
 10
143.138
 20
73.3161
 30
0.000000
  70
    32
  0
VERTEX
  8
0
  5
B079
 10
143.175
 20
73.3266
 30
0.000000
  70
    32
  0
VERTEX
  8
0
  5
B07A
 10
143.213
 20
73.3371
 30
0.000000
  70
    32
  0
SEQEND
  8
0
  5
B07B
  0
LINE
  5
ABEE
  8
0
 10
124.66531606109299
 20
71.967780879788833
 30
0.0
 11
135.83468393890749
 21
71.967780879788791
 31
0.0
  0
LINE
  5
ABEF
  8
0
 10
137.0000000000002
 20
50.0
 30
0.0
 11
137.0000000000002
 21
55.499999999999972
 31
0.0
  0
LINE
  5
ABF0
  8
0
 10
123.5000000000002
 20
55.499999999999972
 30
0.0
 11
123.5000000000002
 21
50.0
 31
0.0
  0
LINE
  5
ABF1
  8
0
 10
123.5000000000002
 20
50.0
 30
0.0
 11
137.0000000000002
 21
50.0
 31
0.0
  0
LINE
  5
ABF2
  8
1
 10
130.25000000000011
 20
112.2500000000001
 30
0.0
 11
130.25000000000011
 21
135.75000000000011
 31
0.0
  0
LINE
  5
ABF3
  8
1
 10
158.7500000000004
 20
124.0000000000001
 30
0.0
 11
101.7499999999999
 21
124.0000000000001
 31
0.0
  0
CIRCLE
  5
ABF5
  8
0
 10
130.25000000000011
 20
124.0000000000001
 30
0.0
 40
4.25
  0
LINE
  5
ABF6
  8
0
 10
138.33801506788271
 20
121.42980783789579
 30
0.0
 11
152.25000000000011
 21
120.5000000000001
 31
0.0
  0
LINE
  5
ABF7
  8
0
 10
122.1619849321176
 20
126.57019216210441
 30
0.0
 11
108.2500000000002
 21
127.5000000000001
 31
0.0
  0
LINE
  5
ABF8
  8
0
 10
108.24999997913859
 20
120.5000000000001
 30
0.0
 11
122.1619849321176
 21
121.42980783789579
 31
0.0
  0
LINE
  5
ABF9
  8
0
 10
152.2500000000002
 20
127.5000000000001
 30
0.0
 11
138.33801506788279
 21
126.57019216210441
 31
0.0
  0
CIRCLE
  5
ABFA
  8
0
 10
130.25000000000011
 20
124.0000000000001
 30
0.0
 40
5.0
  0
POLYLINE
  5
ABFB
  8
0
 66
     1
 10
0.0
 20
0.0
 30
0.0
  0
VERTEX
  5
AD83
  8
0
 10
122.1619849321176
 20
126.57019216210441
 30
0.0
  0
VERTEX
  5
AD84
  8
0
 10
122.3936594560227
 20
126.56433625861079
 30
0.0
  0
VERTEX
  5
AD85
  8
0
 10
122.62537175940371
 20
126.577661391996
 30
0.0
  0
VERTEX
  5
AD86
  8
0
 10
122.8621060565189
 20
126.6114484180124
 30
0.0
  0
VERTEX
  5
AD87
  8
0
 10
123.0954799681399
 20
126.6653802248269
 30
0.0
  0
VERTEX
  5
AD88
  8
0
 10
123.3175511710667
 20
126.7369376753158
 30
0.0
  0
VERTEX
  5
AD89
  8
0
 10
123.5332272529198
 20
126.82685264575851
 30
0.0
  0
VERTEX
  5
AD8A
  8
0
 10
123.74699168111511
 20
126.9381222784109
 30
0.0
  0
VERTEX
  5
AD8B
  8
0
 10
123.9506745535277
 20
127.0675059679286
 30
0.0
  0
VERTEX
  5
AD8C
  8
0
 10
124.1497953780554
 20
127.2201441155443
 30
0.0
  0
VERTEX
  5
AD8D
  8
0
 10
124.33464540659349
 20
127.3901188341643
 30
0.0
  0
VERTEX
  5
AD8E
  8
0
 10
124.5092624064812
 20
127.58299316249391
 30
0.0
  0
VERTEX
  5
AD8F
  8
0
 10
124.66531606109289
 20
127.79128016671309
 30
0.0
  0
SEQEND
  5
AD90
  8
0
  0
POLYLINE
  5
ABFC
  8
0
 66
     1
 10
0.0
 20
0.0
 30
0.0
  0
VERTEX
  5
AD91
  8
0
 10
124.66531606109289
 20
120.20871983328711
 30
0.0
  0
VERTEX
  5
AD92
  8
0
 10
124.47718798662611
 20
120.454916085042
 30
0.0
  0
VERTEX
  5
AD93
  8
0
 10
124.2625476505853
 20
120.67955541544219
 30
0.0
  0
VERTEX
  5
AD94
  8
0
 10
124.0255026693459
 20
120.87843989540499
 30
0.0
  0
VERTEX
  5
AD95
  8
0
 10
123.76811414312741
 20
121.0493538118786
 30
0.0
  0
VERTEX
  5
AD96
  8
0
 10
123.49312891702409
 20
121.1912498132761
 30
0.0
  0
VERTEX
  5
AD97
  8
0
 10
123.20570775885579
 20
121.3016641668539
 30
0.0
  0
VERTEX
  5
AD98
  8
0
 10
122.9059599152546
 20
121.3798177938605
 30
0.0
  0
VERTEX
  5
AD99
  8
0
 10
122.5991369946793
 20
121.4246113527105
 30
0.0
  0
VERTEX
  5
AD9A
  8
0
 10
122.2908296411733
 20
121.4354424244075
 30
0.0
  0
VERTEX
  5
AD9B
  8
0
 10
122.1619849321176
 20
121.42980783789579
 30
0.0
  0
SEQEND
  5
AD9C
  8
0
  0
ARC
  5
ABFD
  8
0
 10
130.25000000000011
 20
124.0000000000001
 30
0.0
 40
6.75
 50
214.17144687970429
 51
325.82855312029568
  0
POLYLINE
  5
ABFE
  8
0
 66
     1
 10
0.0
 20
0.0
 30
0.0
  0
VERTEX
  5
AD9D
  8
0
 10
138.33801506788271
 20
121.42980783789579
 30
0.0
  0
VERTEX
  5
AD9E
  8
0
 10
138.10634054397761
 20
121.4356637413894
 30
0.0
  0
VERTEX
  5
AD9F
  8
0
 10
137.87462824059671
 20
121.4223386080041
 30
0.0
  0
VERTEX
  5
ADA0
  8
0
 10
137.6378939434814
 20
121.3885515819878
 30
0.0
  0
VERTEX
  5
ADA1
  8
0
 10
137.4045200318605
 20
121.33461977517329
 30
0.0
  0
VERTEX
  5
ADA2
  8
0
 10
137.18244882893359
 20
121.2630623246844
 30
0.0
  0
VERTEX
  5
ADA3
  8
0
 10
136.9667727470806
 20
121.17314735424161
 30
0.0
  0
VERTEX
  5
ADA4
  8
0
 10
136.75300831888521
 20
121.0618777215892
 30
0.0
  0
VERTEX
  5
ADA5
  8
0
 10
136.54932544647261
 20
120.9324940320716
 30
0.0
  0
VERTEX
  5
ADA6
  8
0
 10
136.3502046219449
 20
120.7798558844559
 30
0.0
  0
VERTEX
  5
ADA7
  8
0
 10
136.16535459340679
 20
120.6098811658359
 30
0.0
  0
VERTEX
  5
ADA8
  8
0
 10
135.9907375935191
 20
120.41700683750631
 30
0.0
  0
VERTEX
  5
ADA9
  8
0
 10
135.8346839389074
 20
120.20871983328711
 30
0.0
  0
SEQEND
  5
ADAA
  8
0
  0
POLYLINE
  5
ABFF
  8
0
 66
     1
 10
0.0
 20
0.0
 30
0.0
  0
VERTEX
  5
ADAB
  8
0
 10
135.8346839389074
 20
127.79128016671309
 30
0.0
  0
VERTEX
  5
ADAC
  8
0
 10
136.02281201337411
 20
127.5450839149582
 30
0.0
  0
VERTEX
  5
ADAD
  8
0
 10
136.23745234941509
 20
127.320444584558
 30
0.0
  0
VERTEX
  5
ADAE
  8
0
 10
136.4744973306544
 20
127.1215601045952
 30
0.0
  0
VERTEX
  5
ADAF
  8
0
 10
136.73188585687299
 20
126.9506461881216
 30
0.0
  0
VERTEX
  5
ADB0
  8
0
 10
137.0068710829762
 20
126.808750186724
 30
0.0
  0
VERTEX
  5
ADB1
  8
0
 10
137.2942922411446
 20
126.6983358331463
 30
0.0
  0
VERTEX
  5
ADB2
  8
0
 10
137.59404008474581
 20
126.6201822061397
 30
0.0
  0
VERTEX
  5
ADB3
  8
0
 10
137.90086300532101
 20
126.5753886472896
 30
0.0
  0
VERTEX
  5
ADB4
  8
0
 10
138.20917035882709
 20
126.5645575755927
 30
0.0
  0
VERTEX
  5
ADB5
  8
0
 10
138.33801506788279
 20
126.57019216210441
 30
0.0
  0
SEQEND
  5
ADB6
  8
0
  0
ARC
  5
AC00
  8
0
 10
130.25000000000011
 20
124.0000000000001
 30
0.0
 40
6.7499999999999991
 50
34.171446879704241
 51
145.82855312029571
  0
POLYLINE
  5
AC01
  8
0
 66
     1
 10
0.0
 20
0.0
 30
0.0
  0
VERTEX
  5
ADB7
  8
0
 10
153.64366515203889
 20
121.76696825945351
 30
0.0
  0
VERTEX
  5
ADB8
  8
0
 10
153.64298012149911
 20
121.7599772121799
 30
0.0
  0
VERTEX
  5
ADB9
  8
0
 10
153.62251864575279
 20
121.62397528362941
 30
0.0
  0
VERTEX
  5
ADBA
  8
0
 10
153.5886966864295
 20
121.49025473554541
 30
0.0
  0
VERTEX
  5
ADBB
  8
0
 10
153.541204064797
 20
121.3588993359204
 30
0.0
  0
VERTEX
  5
ADBC
  8
0
 10
153.48028310513439
 20
121.23186567127451
 30
0.0
  0
VERTEX
  5
ADBD
  8
0
 10
153.40410676620121
 20
121.1075118668826
 30
0.0
  0
VERTEX
  5
ADBE
  8
0
 10
153.31396089645759
 20
120.9900619741931
 30
0.0
  0
VERTEX
  5
ADBF
  8
0
 10
153.2088716371758
 20
120.8799169513188
 30
0.0
  0
VERTEX
  5
ADC0
  8
0
 10
153.08966302762721
 20
120.779747349909
 30
0.0
  0
VERTEX
  5
ADC1
  8
0
 10
152.9168488670372
 20
120.6690196636293
 30
0.0
  0
VERTEX
  5
ADC2
  8
0
 10
152.7203469414668
 20
120.58137429319289
 30
0.0
  0
VERTEX
  5
ADC3
  8
0
 10
152.61149981053649
 20
120.5474753050252
 30
0.0
  0
VERTEX
  5
ADC4
  8
0
 10
152.49706522532401
 20
120.52197286875931
 30
0.0
  0
VERTEX
  5
ADC5
  8
0
 10
152.37610533409759
 20
120.5056881859278
 30
0.0
  0
VERTEX
  5
ADC6
  8
0
 10
152.25000000000011
 20
120.5000000000001
 30
0.0
  0
SEQEND
  5
ADC7
  8
0
  0
POLYLINE
  5
AC02
  8
0
 66
     1
 10
0.0
 20
0.0
 30
0.0
  0
VERTEX
  5
ADC8
  8
0
 10
152.2500000000002
 20
127.5000000000001
 30
0.0
  0
VERTEX
  5
ADC9
  8
0
 10
152.44120355041679
 20
127.4868818270885
 30
0.0
  0
VERTEX
  5
ADCA
  8
0
 10
152.62097992964979
 20
127.4499532924503
 30
0.0
  0
VERTEX
  5
ADCB
  8
0
 10
152.78977281368009
 20
127.3917605465459
 30
0.0
  0
VERTEX
  5
ADCC
  8
0
 10
152.94461334836751
 20
127.3155296361135
 30
0.0
  0
VERTEX
  5
ADCD
  8
0
 10
153.0571126576377
 20
127.2439288726414
 30
0.0
  0
VERTEX
  5
ADCE
  8
0
 10
153.15998099071919
 20
127.1639241498012
 30
0.0
  0
VERTEX
  5
ADCF
  8
0
 10
153.25381528846751
 20
127.0758874879229
 30
0.0
  0
VERTEX
  5
ADD0
  8
0
 10
153.33776130094731
 20
126.9813485985477
 30
0.0
  0
VERTEX
  5
ADD1
  8
0
 10
153.4132030588766
 20
126.87907540262511
 30
0.0
  0
VERTEX
  5
ADD2
  8
0
 10
153.4782881346211
 20
126.77179480376191
 30
0.0
  0
VERTEX
  5
ADD3
  8
0
 10
153.5332822263716
 20
126.6596297673719
 30
0.0
  0
VERTEX
  5
ADD4
  8
0
 10
153.57774362822499
 20
126.5439559186546
 30
0.0
  0
VERTEX
  5
ADD5
  8
0
 10
153.61884917570029
 20
126.39368679606871
 30
0.0
  0
VERTEX
  5
ADD6
  8
0
 10
153.64298012149911
 20
126.2400227878195
 30
0.0
  0
VERTEX
  5
ADD7
  8
0
 10
153.6436651583852
 20
126.2330316742096
 30
0.0
  0
SEQEND
  5
ADD8
  8
0
  0
ARC
  5
AC03
  8
0
 10
130.24999999999989
 20
124.0000000000001
 30
0.0
 40
23.500000000000529
 50
354.54742122499681
 51
5.4525747012138783
  0
POLYLINE
  5
AC04
  8
0
 66
     1
 10
0.0
 20
0.0
 30
0.0
  0
VERTEX
  5
ADD9
  8
0
 10
106.85633484796141
 20
126.23303174054671
 30
0.0
  0
VERTEX
  5
ADDA
  8
0
 10
106.8570198785013
 20
126.24002278782029
 30
0.0
  0
VERTEX
  5
ADDB
  8
0
 10
106.87748135424761
 20
126.37602471637079
 30
0.0
  0
VERTEX
  5
ADDC
  8
0
 10
106.9113033135708
 20
126.50974526445481
 30
0.0
  0
VERTEX
  5
ADDD
  8
0
 10
106.9587959352032
 20
126.6411006640798
 30
0.0
  0
VERTEX
  5
ADDE
  8
0
 10
107.01971689486599
 20
126.76813432872569
 30
0.0
  0
VERTEX
  5
ADDF
  8
0
 10
107.095893233799
 20
126.8924881331176
 30
0.0
  0
VERTEX
  5
ADE0
  8
0
 10
107.1860391035428
 20
127.0099380258071
 30
0.0
  0
VERTEX
  5
ADE1
  8
0
 10
107.29112836282449
 20
127.12008304868129
 30
0.0
  0
VERTEX
  5
ADE2
  8
0
 10
107.4103369723731
 20
127.2202526500912
 30
0.0
  0
VERTEX
  5
ADE3
  8
0
 10
107.58315113296329
 20
127.3309803363709
 30
0.0
  0
VERTEX
  5
ADE4
  8
0
 10
107.7796530585334
 20
127.4186257068073
 30
0.0
  0
VERTEX
  5
ADE5
  8
0
 10
107.8885001894638
 20
127.452524694975
 30
0.0
  0
VERTEX
  5
ADE6
  8
0
 10
108.00293477467631
 20
127.47802713124091
 30
0.0
  0
VERTEX
  5
ADE7
  8
0
 10
108.1238946659028
 20
127.4943118140724
 30
0.0
  0
VERTEX
  5
ADE8
  8
0
 10
108.2500000000002
 20
127.5000000000001
 30
0.0
  0
SEQEND
  5
ADE9
  8
0
  0
POLYLINE
  5
AC05
  8
0
 66
     1
 10
0.0
 20
0.0
 30
0.0
  0
VERTEX
  5
ADEA
  8
0
 10
108.24999997913859
 20
120.5000000000001
 30
0.0
  0
VERTEX
  5
ADEB
  8
0
 10
108.05879642998811
 20
120.5131181756132
 30
0.0
  0
VERTEX
  5
ADEC
  8
0
 10
107.879020052177
 20
120.5500467125442
 30
0.0
  0
VERTEX
  5
ADED
  8
0
 10
107.7102271697217
 20
120.6082394603901
 30
0.0
  0
VERTEX
  5
ADEE
  8
0
 10
107.55538663665629
 20
120.68447037244501
 30
0.0
  0
VERTEX
  5
ADEF
  8
0
 10
107.4428873278945
 20
120.75607113756701
 30
0.0
  0
VERTEX
  5
ADF0
  8
0
 10
107.3400189954602
 20
120.8360758620201
 30
0.0
  0
VERTEX
  5
ADF1
  8
0
 10
107.2461846985023
 20
120.92411252548089
 30
0.0
  0
VERTEX
  5
ADF2
  8
0
 10
107.16223868694949
 20
121.0186514163907
 30
0.0
  0
VERTEX
  5
ADF3
  8
0
 10
107.0867969301039
 20
121.12092461382829
 30
0.0
  0
VERTEX
  5
ADF4
  8
0
 10
107.02171185558539
 20
121.22820521414501
 30
0.0
  0
VERTEX
  5
ADF5
  8
0
 10
106.966717765211
 20
121.3403702519312
 30
0.0
  0
VERTEX
  5
ADF6
  8
0
 10
106.92225636488
 20
121.45604410196729
 30
0.0
  0
VERTEX
  5
ADF7
  8
0
 10
106.88115082202449
 20
121.60631321453771
 30
0.0
  0
VERTEX
  5
ADF8
  8
0
 10
106.85701987850111
 20
121.7599772121813
 30
0.0
  0
VERTEX
  5
ADF9
  8
0
 10
106.85633484161509
 20
121.7669683257906
 30
0.0
  0
SEQEND
  5
ADFA
  8
0
  0
ARC
  5
AC06
  8
0
 10
130.2500000000004
 20
124.0000000000001
 30
0.0
 40
23.50000000000049
 50
174.54734649757251
 51
185.45267901805829
  0
LINE
  5
AC08
  8
1
 10
56.749999999999943
 20
45.0
 30
0.0
 11
56.749999999999943
 21
79.000000000000114
 31
0.0
  0
LINE
  5
AC09
  8
0
 10
63.499999999999943
 20
50.0
 30
0.0
 11
63.499999999999943
 21
71.967780879788833
 31
0.0
  0
LINE
  5
AC0A
  8
0
 10
50.0
 20
71.967780879788833
 30
0.0
 11
50.0
 21
50.0
 31
0.0
  0
LINE
  5
AC0B
  8
0
 10
50.0
 20
50.0
 30
0.0
 11
63.499999999999943
 21
50.0
 31
0.0
  0
LINE
  5
AC0C
  8
0
 10
52.958719833286978
 20
71.967780879788791
 30
0.0
 11
52.958719833286978
 21
55.499999999999972
 31
0.0
  0
POLYLINE
  5
AC0D
  8
0
 66
     1
 10
0.0
 20
0.0
 30
0.0
  0
VERTEX
  5
ADFB
  8
0
 10
54.186040652968359
 20
55.916895017365313
 30
0.0
  0
VERTEX
  5
ADFC
  8
0
 10
54.185656140295009
 20
55.904700366110148
 30
0.0
  0
VERTEX
  5
ADFD
  8
0
 10
54.172193085792337
 20
55.84408059268668
 30
0.0
  0
VERTEX
  5
ADFE
  8
0
 10
54.138044261690879
 20
55.785133927344589
 30
0.0
  0
VERTEX
  5
ADFF
  8
0
 10
54.083389551177902
 20
55.730165381120912
 30
0.0
  0
VERTEX
  5
AE00
  8
0
 10
54.010577197458701
 20
55.681043842498923
 30
0.0
  0
VERTEX
  5
AE01
  8
0
 10
53.918768704447132
 20
55.636771210501472
 30
0.0
  0
VERTEX
  5
AE02
  8
0
 10
53.804565485056571
 20
55.59676535222227
 30
0.0
  0
VERTEX
  5
AE03
  8
0
 10
53.671307911307331
 20
55.563034761646747
 30
0.0
  0
VERTEX
  5
AE04
  8
0
 10
53.520828079459648
 20
55.536268899408718
 30
0.0
  0
VERTEX
  5
AE05
  8
0
 10
53.353508747102858
 20
55.516628841329293
 30
0.0
  0
VERTEX
  5
AE06
  8
0
 10
53.163611601199811
 20
55.504190654992946
 30
0.0
  0
VERTEX
  5
AE07
  8
0
 10
52.9587198332855
 20
55.499999999999723
 30
0.0
  0
SEQEND
  5
AE08
  8
0
  0
LINE
  5
AC0E
  8
0
 10
60.541280166712909
 20
71.967780879788791
 30
0.0
 11
60.541280166712909
 21
55.499999999999972
 31
0.0
  0
LINE
  5
AC0F
  8
0
 10
59.313959346986508
 20
55.91689212759465
 30
0.0
 11
59.320192162104028
 21
55.968049536206543
 31
0.0
  0
LINE
  5
AC10
  8
0
 10
60.185391743033961
 20
71.967780879788791
 30
0.0
 11
63.499999999999943
 21
71.967780879788833
 31
0.0
  0
LINE
  5
AC11
  8
0
 10
50.0
 20
71.967780879788833
 30
0.0
 11
53.314518968153493
 21
71.967780879788791
 31
0.0
  0
POLYLINE
  5
AC12
  8
0
 66
     1
 10
0.0
 20
0.0
 30
0.0
  0
VERTEX
  5
AE09
  8
0
 10
60.01984937233965
 20
60.063786161782559
 30
0.0
  0
VERTEX
  5
AE0A
  8
0
 10
59.936091011850287
 20
59.442196695028649
 30
0.0
  0
VERTEX
  5
AE0B
  8
0
 10
59.851335782314777
 20
58.851774875409937
 30
0.0
  0
VERTEX
  5
AE0C
  8
0
 10
59.765422685887977
 20
58.291598128933572
 30
0.0
  0
VERTEX
  5
AE0D
  8
0
 10
59.678609532266819
 20
57.763547465051552
 30
0.0
  0
VERTEX
  5
AE0E
  8
0
 10
59.590284002454553
 20
57.264427721745449
 30
0.0
  0
VERTEX
  5
AE0F
  8
0
 10
59.501149310114101
 20
56.798781054031991
 30
0.0
  0
VERTEX
  5
AE10
  8
0
 10
59.411025536196227
 20
56.366029637233403
 30
0.0
  0
VERTEX
  5
AE11
  8
0
 10
59.320192162104263
 20
55.968049536206557
 30
0.0
  0
SEQEND
  5
AE12
  8
0
  0
POLYLINE
  5
AC13
  8
0
 66
     1
 10
0.0
 20
0.0
 30
0.0
  0
VERTEX
  5
AE13
  8
0
 10
54.17980783789563
 20
55.968049536206543
 30
0.0
  0
VERTEX
  5
AE14
  8
0
 10
54.087409454062588
 20
56.373205721900831
 30
0.0
  0
VERTEX
  5
AE15
  8
0
 10
53.99573106188739
 20
56.814423045617332
 30
0.0
  0
VERTEX
  5
AE16
  8
0
 10
53.904857602321158
 20
57.290899093604757
 30
0.0
  0
VERTEX
  5
AE17
  8
0
 10
53.814287827631688
 20
57.805347383797113
 30
0.0
  0
VERTEX
  5
AE18
  8
0
 10
53.72461482717631
 20
58.354623318338838
 30
0.0
  0
VERTEX
  5
AE19
  8
0
 10
53.635924792324261
 20
58.938093482462868
 30
0.0
  0
VERTEX
  5
AE1A
  8
0
 10
53.557629672488993
 20
59.487464519815603
 30
0.0
  0
VERTEX
  5
AE1B
  8
0
 10
53.48015062766023
 20
60.063786161782588
 30
0.0
  0
SEQEND
  5
AE1C
  8
0
  0
LINE
  5
AC14
  8
0
 10
52.958719833286978
 20
55.499999999999972
 30
0.0
 11
60.541280166712909
 21
55.499999999999972
 31
0.0
  0
POLYLINE
  5
AC15
  8
0
 66
     1
 10
0.0
 20
0.0
 30
0.0
  0
VERTEX
  5
AE1D
  8
0
 10
60.541280166712909
 20
55.5
 30
0.0
  0
VERTEX
  5
AE1E
  8
0
 10
60.301425545924758
 20
55.50589709900234
 30
0.0
  0
VERTEX
  5
AE1F
  8
0
 10
60.082068194322353
 20
55.52321653727995
 30
0.0
  0
VERTEX
  5
AE20
  8
0
 10
59.887277222832431
 20
55.551400526738632
 30
0.0
  0
VERTEX
  5
AE21
  8
0
 10
59.719219367420692
 20
55.589974324156479
 30
0.0
  0
VERTEX
  5
AE22
  8
0
 10
59.578457285121651
 20
55.638042962459231
 30
0.0
  0
VERTEX
  5
AE23
  8
0
 10
59.467068857466423
 20
55.694341752659618
 30
0.0
  0
VERTEX
  5
AE24
  8
0
 10
59.384137953707459
 20
55.759934919190641
 30
0.0
  0
VERTEX
  5
AE25
  8
0
 10
59.333004760187691
 20
55.832360246471147
 30
0.0
  0
VERTEX
  5
AE26
  8
0
 10
59.314073635718557
 20
55.910098517775388
 30
0.0
  0
VERTEX
  5
AE27
  8
0
 10
59.313959346986508
 20
55.91689212759465
 30
0.0
  0
SEQEND
  5
AE28
  8
0
  0
LINE
  5
AC16
  8
0
 10
54.17980783789563
 20
55.968049536206557
 30
0.0
 11
54.186040652968359
 21
55.916895017365313
 31
0.0
  0
LINE
  5
AC17
  8
0
 10
53.249999999999943
 20
70.814900093928429
 30
0.0
 11
53.249999999999943
 21
62.785099906061141
 31
0.0
  0
LINE
  5
AC18
  8
0
 10
60.24999999999995
 20
70.814900093928429
 30
0.0
 11
60.24999999999995
 21
62.785099906050931
 31
0.0
  0
POLYLINE
  5
AC19
  8
0
 66
     1
 10
0.0
 20
0.0
 30
0.0
  0
VERTEX
  5
AE29
  8
0
 10
53.249999999999943
 20
70.814900093928429
 30
0.0
  0
VERTEX
  5
AE2A
  8
0
 10
53.26147485679445
 20
71.058910226001046
 30
0.0
  0
VERTEX
  5
AE2B
  8
0
 10
53.273636392278938
 20
71.295974357992066
 30
0.0
  0
VERTEX
  5
AE2C
  8
0
 10
53.286512760742312
 20
71.52643736991655
 30
0.0
  0
VERTEX
  5
AE2D
  8
0
 10
53.300043471057343
 20
71.749022139025158
 30
0.0
  0
VERTEX
  5
AE2E
  8
0
 10
53.314471530286092
 20
71.967122473658776
 30
0.0
  0
VERTEX
  5
AE2F
  8
0
 10
53.329533998079278
 20
72.176179534371727
 30
0.0
  0
VERTEX
  5
AE30
  8
0
 10
53.34526531254744
 20
72.376484372832465
 30
0.0
  0
VERTEX
  5
AE31
  8
0
 10
53.36158524753705
 20
72.566834720074496
 30
0.0
  0
VERTEX
  5
AE32
  8
0
 10
53.377805213772199
 20
72.740082732966641
 30
0.0
  0
VERTEX
  5
AE33
  8
0
 10
53.39451752869337
 20
72.903406091518889
 30
0.0
  0
VERTEX
  5
AE34
  8
0
 10
53.411755928274602
 20
73.056991519840096
 30
0.0
  0
VERTEX
  5
AE35
  8
0
 10
53.429435765790117
 20
73.199945008722466
 30
0.0
  0
VERTEX
  5
AE36
  8
0
 10
53.447857988046451
 20
73.334248145232607
 30
0.0
  0
VERTEX
  5
AE37
  8
0
 10
53.466677282866272
 20
73.456936467109301
 30
0.0
  0
VERTEX
  5
AE38
  8
0
 10
53.485931995896181
 20
73.568116220997808
 30
0.0
  0
VERTEX
  5
AE39
  8
0
 10
53.50552100537891
 20
73.667061632383025
 30
0.0
  0
VERTEX
  5
AE3A
  8
0
 10
53.524716465104461
 20
73.750750739814464
 30
0.0
  0
VERTEX
  5
AE3B
  8
0
 10
53.544158863976122
 20
73.822618446216083
 30
0.0
  0
VERTEX
  5
AE3C
  8
0
 10
53.56388405667542
 20
73.882676768668304
 30
0.0
  0
VERTEX
  5
AE3D
  8
0
 10
53.583792559966639
 20
73.930502813733028
 30
0.0
  0
VERTEX
  5
AE3E
  8
0
 10
53.604211355587488
 20
73.966483322725537
 30
0.0
  0
VERTEX
  5
AE3F
  8
0
 10
53.624750041086493
 20
73.989529355404102
 30
0.0
  0
VERTEX
  5
AE40
  8
0
 10
53.645447026520863
 20
73.999554066653161
 30
0.0
  0
VERTEX
  5
AE41
  8
0
 10
53.651086611887187
 20
73.999999005578104
 30
0.0
  0
SEQEND
  5
AE42
  8
0
  0
POLYLINE
  5
AC1A
  8
0
 66
     1
 10
0.0
 20
0.0
 30
0.0
  0
VERTEX
  5
AE43
  8
0
 10
53.48015062766023
 20
60.063786161782588
 30
0.0
  0
VERTEX
  5
AE44
  8
0
 10
53.455426770209669
 20
60.21473073156838
 30
0.0
  0
VERTEX
  5
AE45
  8
0
 10
53.431276957090972
 20
60.386013349113
 30
0.0
  0
VERTEX
  5
AE46
  8
0
 10
53.407812195226427
 20
60.5768713135121
 30
0.0
  0
VERTEX
  5
AE47
  8
0
 10
53.38444376420324
 20
60.793313429786707
 30
0.0
  0
VERTEX
  5
AE48
  8
0
 10
53.361915831229112
 20
61.029528535128243
 30
0.0
  0
VERTEX
  5
AE49
  8
0
 10
53.340338812121502
 20
61.284384307146979
 30
0.0
  0
VERTEX
  5
AE4A
  8
0
 10
53.315409483133458
 20
61.619357037620581
 30
0.0
  0
VERTEX
  5
AE4B
  8
0
 10
53.292092712383862
 20
61.97949677962341
 30
0.0
  0
VERTEX
  5
AE4C
  8
0
 10
53.270091578662509
 20
62.371080759221769
 30
0.0
  0
VERTEX
  5
AE4D
  8
0
 10
53.249999999999943
 20
62.785099906061141
 30
0.0
  0
SEQEND
  5
AE4E
  8
0
  0
POLYLINE
  5
AC1B
  8
0
 66
     1
 10
0.0
 20
0.0
 30
0.0
  0
VERTEX
  5
AE4F
  8
0
 10
60.24999999999995
 20
62.785099906050931
 30
0.0
  0
VERTEX
  5
AE50
  8
0
 10
60.234483816772808
 20
62.460087318800163
 30
0.0
  0
VERTEX
  5
AE51
  8
0
 10
60.21777671293318
 20
62.148236069434972
 30
0.0
  0
VERTEX
  5
AE52
  8
0
 10
60.199956528942153
 20
61.850977860968499
 30
0.0
  0
VERTEX
  5
AE53
  8
0
 10
60.180495184428423
 20
61.561067247272462
 30
0.0
  0
VERTEX
  5
AE54
  8
0
 10
60.159947633633131
 20
61.288024363491218
 30
0.0
  0
VERTEX
  5
AE55
  8
0
 10
60.138414752462893
 20
61.033165279925747
 30
0.0
  0
VERTEX
  5
AE56
  8
0
 10
60.110831756801637
 20
60.747296002899098
 30
0.0
  0
VERTEX
  5
AE57
  8
0
 10
60.081992073253787
 20
60.490824263814773
 30
0.0
  0
VERTEX
  5
AE58
  8
0
 10
60.051424138583222
 20
60.260833363005247
 30
0.0
  0
VERTEX
  5
AE59
  8
0
 10
60.01984937233965
 20
60.063786161782559
 30
0.0
  0
SEQEND
  5
AE5A
  8
0
  0
LINE
  5
AC1C
  8
0
 10
59.849636560684758
 20
74.000000000000114
 30
0.0
 11
53.65033242402091
 21
74.000000000000114
 31
0.0
  0
POLYLINE
  5
AC1D
  8
0
 66
     1
 10
0.0
 20
0.0
 30
0.0
  0
VERTEX
  5
AE5B
  8
0
 10
59.848930600121371
 20
73.999999135624805
 30
0.0
  0
VERTEX
  5
AE5C
  8
0
 10
59.868205413674438
 20
73.994424000078027
 30
0.0
  0
VERTEX
  5
AE5D
  8
0
 10
59.888619068403841
 20
73.976017548595451
 30
0.0
  0
VERTEX
  5
AE5E
  8
0
 10
59.909372849404967
 20
73.944008408238744
 30
0.0
  0
VERTEX
  5
AE5F
  8
0
 10
59.930053970675431
 20
73.898586440460349
 30
0.0
  0
VERTEX
  5
AE60
  8
0
 10
59.950700351743471
 20
73.839503551963105
 30
0.0
  0
VERTEX
  5
AE61
  8
0
 10
59.971195105912791
 20
73.766926580071242
 30
0.0
  0
VERTEX
  5
AE62
  8
0
 10
59.990588208167878
 20
73.685069001941258
 30
0.0
  0
VERTEX
  5
AE63
  8
0
 10
60.009770639687581
 20
73.591022785035705
 30
0.0
  0
VERTEX
  5
AE64
  8
0
 10
60.028773764535913
 20
73.484483891000124
 30
0.0
  0
VERTEX
  5
AE65
  8
0
 10
60.047495008400908
 20
73.365873690439571
 30
0.0
  0
VERTEX
  5
AE66
  8
0
 10
60.066234865082833
 20
73.23281625966564
 30
0.0
  0
VERTEX
  5
AE67
  8
0
 10
60.084610214983051
 20
73.087543995944884
 30
0.0
  0
VERTEX
  5
AE68
  8
0
 10
60.102651191505281
 20
72.929637540830456
 30
0.0
  0
VERTEX
  5
AE69
  8
0
 10
60.12025192472975
 20
72.759836570785922
 30
0.0
  0
VERTEX
  5
AE6A
  8
0
 10
60.136604553676932
 20
72.586929786418807
 30
0.0
  0
VERTEX
  5
AE6B
  8
0
 10
60.15249123403288
 20
72.403663600457662
 30
0.0
  0
VERTEX
  5
AE6C
  8
0
 10
60.167934680440908
 20
72.209600818355852
 30
0.0
  0
VERTEX
  5
AE6D
  8
0
 10
60.182848425502243
 20
72.005645639387524
 30
0.0
  0
VERTEX
  5
AE6E
  8
0
 10
60.197460943662797
 20
71.788095341247526
 30
0.0
  0
VERTEX
  5
AE6F
  8
0
 10
60.211463747662833
 20
71.560932675203787
 30
0.0
  0
VERTEX
  5
AE70
  8
0
 10
60.224875887314049
 20
71.323620237600153
 30
0.0
  0
VERTEX
  5
AE71
  8
0
 10
60.237615034843941
 20
71.077373293659548
 30
0.0
  0
VERTEX
  5
AE72
  8
0
 10
60.24999999999995
 20
70.814900093928429
 30
0.0
  0
SEQEND
  5
AE73
  8
0
  0
CIRCLE
  5
AC6F
  8
0
 10
130.25000000000011
 20
124.0000000000001
 30
0.0
 40
3.3235000000000001
  0
CIRCLE
  5
AC82
  8
3
 10
130.25000000000011
 20
124.0000000000001
 30
0.0
 40
4.0
  0
LINE
  5
AC83
  8
2
 10
133.57350000000019
 20
50.676499999999997
 30
0.0
 11
133.57350000000019
 21
61.323499999999967
 31
0.0
  0
LINE
  5
AC84
  8
2
 10
126.9265000000001
 20
61.323499999999967
 30
0.0
 11
126.9265000000001
 21
50.676499999999997
 31
0.0
  0
LINE
  5
AC86
  8
2
 10
133.57350000000019
 20
61.323499999999967
 30
0.0
 11
134.25000000000011
 21
62.0
 31
0.0
  0
LINE
  5
AC87
  8
2
 10
126.2500000000001
 20
62.0
 30
0.0
 11
126.9265000000001
 21
61.323499999999967
 31
0.0
  0
LINE
  5
AC88
  8
2
 10
126.9265000000001
 20
61.323499999999967
 30
0.0
 11
133.57350000000019
 21
61.323499999999967
 31
0.0
  0
LINE
  5
AC89
  8
2
 10
126.9265000000001
 20
50.676499999999997
 30
0.0
 11
126.2500000000001
 21
50.0
 31
0.0
  0
LINE
  5
AC8A
  8
2
 10
134.25000000000011
 20
50.0
 30
0.0
 11
133.57350000000019
 21
50.676499999999997
 31
0.0
  0
LINE
  5
AC8B
  8
2
 10
126.9265000000001
 20
50.676499999999997
 30
0.0
 11
133.57350000000019
 21
50.676499999999997
 31
0.0
  0
LINE
  5
AC8C
  8
2
 10
134.50000000000011
 20
62.0
 30
0.0
 11
134.50000000000011
 21
63.199999999999989
 31
0.0
  0
LINE
  5
AC8D
  8
2
 10
126.0000000000001
 20
63.199999999999989
 30
0.0
 11
126.0000000000001
 21
62.0
 31
0.0
  0
LINE
  5
AC8E
  8
2
 10
126.0000000000001
 20
62.0
 30
0.0
 11
134.50000000000011
 21
62.0
 31
0.0
  0
LINE
  5
AC8F
  8
2
 10
135.25000000000011
 20
63.199999999999989
 30
0.0
 11
135.25000000000011
 21
71.967780879788805
 31
0.0
  0
LINE
  5
AC90
  8
2
 10
125.2500000000001
 20
71.967780879788833
 30
0.0
 11
125.2500000000001
 21
63.199999999999989
 31
0.0
  0
LINE
  5
AC91
  8
2
 10
125.2500000000001
 20
63.199999999999989
 30
0.0
 11
135.25000000000011
 21
63.199999999999989
 31
0.0
  0
LINE
  5
AC93
  8
2
 10
126.2500000000001
 20
62.0
 30
0.0
 11
126.2500000000001
 21
50.0
 31
0.0
  0
LINE
  5
AC94
  8
2
 10
134.25000000000011
 20
62.0
 30
0.0
 11
134.25000000000011
 21
50.0
 31
0.0
  0
ENDSEC
  0
EOF
