  0
SECTION
  2
HEADER
  9
$ACADVER
  1
AC1009
  9
$INSBASE
 10
0.0
 20
0.0
 30
0.0
  9
$EXTMIN
 10
0.0
 20
-2.960436562073669
 30
0.0
  9
$EXTMAX
 10
177.49999999999949
 20
146.49999999999989
 30
0.0
  9
$LIMMIN
 10
0.0
 20
0.0
  9
$LIMMAX
 10
187.5
 20
135.0
  9
$ORTHOMODE
 70
     1
  9
$REGENMODE
 70
     1
  9
$FILLMODE
 70
     1
  9
$QTEXTMODE
 70
     0
  9
$MIRRTEXT
 70
     0
  9
$DRAGMODE
 70
     2
  9
$LTSCALE
 40
5.0
  9
$OSMODE
 70
    37
  9
$ATTMODE
 70
     1
  9
$TEXTSIZE
 40
0.2
  9
$TRACEWID
 40
0.05
  9
$TEXTSTYLE
  7
STANDARD
  9
$CLAYER
  8
0
  9
$CELTYPE
  6
BYLAYER
  9
$CECOLOR
 62
     4
  9
$DIMSCALE
 40
1.0
  9
$DIMASZ
 40
3.0
  9
$DIMEXO
 40
2.0
  9
$DIMDLI
 40
0.3799999999999999
  9
$DIMRND
 40
0.0
  9
$DIMDLE
 40
0.0
  9
$DIMEXE
 40
2.0
  9
$DIMTP
 40
0.0
  9
$DIMTM
 40
0.0
  9
$DIMTXT
 40
3.2000000000000002
  9
$DIMCEN
 40
0.09
  9
$DIMTSZ
 40
0.0
  9
$DIMTOL
 70
     0
  9
$DIMLIM
 70
     0
  9
$DIMTIH
 70
     0
  9
$DIMTOH
 70
     0
  9
$DIMSE1
 70
     0
  9
$DIMSE2
 70
     0
  9
$DIMTAD
 70
     1
  9
$DIMZIN
 70
     8
  9
$DIMBLK
  1

  9
$DIMASO
 70
     0
  9
$DIMSHO
 70
     0
  9
$DIMPOST
  1

  9
$DIMAPOST
  1

  9
$DIMALT
 70
     0
  9
$DIMALTD
 70
     2
  9
$DIMALTF
 40
25.399999999999999
  9
$DIMLFAC
 40
1.0
  9
$DIMTOFL
 70
     0
  9
$DIMTVP
 40
1.6000000000000001
  9
$DIMTIX
 70
     1
  9
$DIMSOXD
 70
     0
  9
$DIMSAH
 70
     0
  9
$DIMBLK1
  1

  9
$DIMBLK2
  1

  9
$DIMSTYLE
  2
STANDARD
  9
$DIMCLRD
 70
     0
  9
$DIMCLRE
 70
     0
  9
$DIMCLRT
 70
     0
  9
$DIMTFAC
 40
1.0
  9
$DIMGAP
 40
1.0
  9
$LUNITS
 70
     2
  9
$LUPREC
 70
     1
  9
$SKETCHINC
 40
0.1
  9
$FILLETRAD
 40
0.4
  9
$AUNITS
 70
     0
  9
$AUPREC
 70
     1
  9
$MENU
  1
E:\r13\win\SUPPORT\ACAD
  9
$ELEVATION
 40
0.0
  9
$PELEVATION
 40
0.0
  9
$THICKNESS
 40
0.0
  9
$LIMCHECK
 70
     0
  9
$BLIPMODE
 70
     0
  9
$CHAMFERA
 40
0.0
  9
$CHAMFERB
 40
0.0
  9
$SKPOLY
 70
     0
  9
$TDCREATE
 40
2456129.6740617128
  9
$TDUPDATE
 40
2457892.4257859839
  9
$TDINDWG
 40
0.5967774653
  9
$TDUSRTIMER
 40
0.5967772917000001
  9
$USRTIMER
 70
     1
  9
$ANGBASE
 50
0.0
  9
$ANGDIR
 70
     0
  9
$PDMODE
 70
     0
  9
$PDSIZE
 40
0.0
  9
$PLINEWID
 40
0.0
  9
$COORDS
 70
     1
  9
$SPLFRAME
 70
     0
  9
$SPLINETYPE
 70
     6
  9
$SPLINESEGS
 70
     8
  9
$ATTDIA
 70
     0
  9
$ATTREQ
 70
     1
  9
$HANDLING
 70
     1
  9
$HANDSEED
  5
B6E5
  9
$SURFTAB1
 70
     6
  9
$SURFTAB2
 70
     6
  9
$SURFTYPE
 70
     6
  9
$SURFU
 70
     6
  9
$SURFV
 70
     6
  9
$UCSNAME
  2

  9
$UCSORG
 10
0.0
 20
0.0
 30
0.0
  9
$UCSXDIR
 10
1.0
 20
0.0
 30
0.0
  9
$UCSYDIR
 10
0.0
 20
1.0
 30
0.0
  9
$PUCSNAME
  2

  9
$PUCSORG
 10
0.0
 20
0.0
 30
0.0
  9
$PUCSXDIR
 10
1.0
 20
0.0
 30
0.0
  9
$PUCSYDIR
 10
0.0
 20
1.0
 30
0.0
  9
$USERI1
 70
     0
  9
$USERI2
 70
     1
  9
$USERI3
 70
     0
  9
$USERI4
 70
     0
  9
$USERI5
 70
     0
  9
$USERR1
 40
0.0
  9
$USERR2
 40
0.0
  9
$USERR3
 40
0.0
  9
$USERR4
 40
0.0
  9
$USERR5
 40
0.0
  9
$WORLDVIEW
 70
     1
  9
$SHADEDGE
 70
     3
  9
$SHADEDIF
 70
    70
  9
$TILEMODE
 70
     1
  9
$MAXACTVP
 70
    16
  9
$PLIMCHECK
 70
     0
  9
$PEXTMIN
 10
1.0000000000000000E+020
 20
1.0000000000000000E+020
 30
1.0000000000000000E+020
  9
$PEXTMAX
 10
-1.0000000000000000E+020
 20
-1.0000000000000000E+020
 30
-1.0000000000000000E+020
  9
$PLIMMIN
 10
0.0
 20
0.0
  9
$PLIMMAX
 10
12.0
 20
9.0
  9
$UNITMODE
 70
     0
  9
$VISRETAIN
 70
     0
  9
$PLINEGEN
 70
     0
  9
$PSLTSCALE
 70
     0
  0
ENDSEC
  0
SECTION
  2
TABLES
  0
TABLE
  2
VPORT
 70
     1
  0
VPORT
  2
*ACTIVE
 70
     0
 10
0.0
 20
0.0
 11
1.0
 21
1.0
 12
181.62393162393161
 22
100.0
 13
0.0
 23
0.0
 14
5.0
 24
5.0
 15
5.0
 25
5.0
 16
0.0
 26
0.0
 36
1.0
 17
0.0
 27
0.0
 37
0.0
 40
200.0
 41
1.816239316239316
 42
50.0
 43
0.0
 44
0.0
 50
0.0
 51
0.0
 71
     0
 72
   500
 73
     1
 74
     0
 75
     0
 76
     0
 77
     0
 78
     2
  0
ENDTAB
  0
TABLE
  2
LTYPE
 70
     4
  0
LTYPE
  2
CONTINUOUS
 70
     0
  3
Solid Line
 72
    65
 73
     0
 40
0.0
  0
LTYPE
  2
CENTER
 70
     0
  3
____ _ ____ _ ____ _ ____ _ ____ _ ____ _ ____
 72
    65
 73
     4
 40
2.0
 49
1.25
 49
-0.25
 49
0.25
 49
-0.25
  0
LTYPE
  2
HIDDEN
 70
     0
  3
__ __ __ __ __ __ __ __ __ __ __ __ __ __ __ __
 72
    65
 73
     2
 40
0.375
 49
0.25
 49
-0.125
  0
LTYPE
  2
PHANTOM2
 70
     0
  3
___ _ _ ___ _ _ ___ _ _ ___ _ _
 72
    65
 73
     6
 40
1.25
 49
0.625
 49
-0.125
 49
0.125
 49
-0.125
 49
0.125
 49
-0.125
  0
ENDTAB
  0
TABLE
  2
LAYER
 70
     5
  0
LAYER
  2
0
 70
     0
 62
     7
  6
CONTINUOUS
  0
LAYER
  2
1
 70
     0
 62
     1
  6
CENTER
  0
LAYER
  2
2
 70
     0
 62
     2
  6
HIDDEN
  0
LAYER
  2
3
 70
     0
 62
     3
  6
CONTINUOUS
  0
LAYER
  2
DEFPOINTS
 70
     0
 62
     7
  6
CONTINUOUS
  0
ENDTAB
  0
TABLE
  2
STYLE
 70
     2
  0
STYLE
  2
STANDARD
 70
     0
 40
0.0
 41
1.0
 50
0.0
 71
     0
 42
0.2
  3
TXT
  4
BIGFONT
  0
STYLE
  2
STANDARD1
 70
     0
 40
0.0
 41
1.0
 50
0.0
 71
     0
 42
3.0
  3
txt
  4

  0
ENDTAB
  0
TABLE
  2
VIEW
 70
     0
  0
ENDTAB
  0
TABLE
  2
UCS
 70
     0
  0
ENDTAB
  0
TABLE
  2
APPID
 70
     7
  0
APPID
  2
ACAD
 70
     0
  0
APPID
  2
ACAD_MLEADERVER
 70
     0
  0
APPID
  2
ACAD_PSEXT
 70
     0
  0
APPID
  2
ACAD_EXEMPT_FROM_CAD_STANDARDS
 70
     0
  0
APPID
  2
ACAD_DSTYLE_DIMJAG
 70
     0
  0
APPID
  2
ACAD_DSTYLE_DIMTALN
 70
     0
  0
APPID
  2
ACAD_NAV_VCDISPLAY
 70
     0
  0
ENDTAB
  0
TABLE
  2
DIMSTYLE
 70
     1
  0
DIMSTYLE
  2
STANDARD
 70
     0
  3

  4

  5

  6

  7

 40
1.0
 41
0.18
 42
0.0625
 43
0.38
 44
0.18
 45
0.0
 46
0.0
 47
0.0
 48
0.0
140
0.18
141
0.09
142
0.0
143
25.399999999999999
144
1.0
145
0.0
146
1.0
147
0.09
 71
     0
 72
     0
 73
     1
 74
     1
 75
     0
 76
     0
 77
     0
 78
     0
170
     0
171
     2
172
     0
173
     0
174
     0
175
     0
176
     0
177
     0
178
     0
  0
ENDTAB
  0
ENDSEC
  0
SECTION
  2
BLOCKS
  0
BLOCK
  8
0
  2
$MODEL_SPACE
 70
     0
 10
0.0
 20
0.0
 30
0.0
  3
$MODEL_SPACE
  1

  0
ENDBLK
  5
9
  8
0
  0
BLOCK
 67
     1
  8
0
  2
$PAPER_SPACE
 70
     0
 10
0.0
 20
0.0
 30
0.0
  3
$PAPER_SPACE
  1

  0
ENDBLK
  5
E
 67
     1
  8
0
  0
ENDSEC
  0
SECTION
  2
ENTITIES
  0
TEXT
  5
A62B
  8
0
 62
     3
 10
0.0
 20
0.0
 30
0.0
 40
10.0
  1
ENWN63A
  7
STANDARD1
  0
LINE
  5
B186
  8
1
 10
140.99999999999969
 20
117.4999999999999
 30
0.0
 11
140.99999999999969
 21
146.49999999999989
 31
0.0
  0
LINE
  5
B187
  8
1
 10
177.49999999999949
 20
131.99999999999989
 30
0.0
 11
104.5
 21
131.99999999999989
 31
0.0
  0
CIRCLE
  5
B189
  8
0
 10
140.99999999999969
 20
131.99999999999989
 30
0.0
 40
5.25
  0
LINE
  5
B18A
  8
0
 10
152.37077291243941
 20
128.6922909687205
 30
0.0
 11
170.57701810527871
 21
127.4999999999999
 31
0.0
  0
LINE
  5
B18B
  8
0
 10
129.62922708756011
 20
135.30770903127919
 30
0.0
 11
111.42298189472081
 21
136.49999999999989
 31
0.0
  0
LINE
  5
B18C
  8
0
 10
111.4229818678986
 20
127.4999999999999
 30
0.0
 11
129.62922708756011
 21
128.6922909687205
 31
0.0
  0
LINE
  5
B18D
  8
0
 10
170.57701810527871
 20
136.49999999999989
 30
0.0
 11
152.37077291243941
 21
135.30770903127919
 31
0.0
  0
CIRCLE
  5
B18E
  8
0
 10
140.99999999999969
 20
131.99999999999989
 30
0.0
 40
7.0
  0
POLYLINE
  5
B18F
  8
0
 66
     1
 10
0.0
 20
0.0
 30
0.0
  0
VERTEX
  5
B3C8
  8
0
 10
129.62922708756011
 20
135.30770903127919
 30
0.0
  0
VERTEX
  5
B3C9
  8
0
 10
130.03257154649941
 20
135.30422228291189
 30
0.0
  0
VERTEX
  5
B3CA
  8
0
 10
130.43570773570411
 20
135.34590718723041
 30
0.0
  0
VERTEX
  5
B3CB
  8
0
 10
130.8310969952708
 20
135.43221201025349
 30
0.0
  0
VERTEX
  5
B3CC
  8
0
 10
131.21508710485131
 20
135.56329417194451
 30
0.0
  0
VERTEX
  5
B3CD
  8
0
 10
131.58377274135199
 20
135.73743995033789
 30
0.0
  0
VERTEX
  5
B3CE
  8
0
 10
131.92996583922849
 20
135.95149444839581
 30
0.0
  0
VERTEX
  5
B3CF
  8
0
 10
132.2463975606945
 20
136.2010679704789
 30
0.0
  0
VERTEX
  5
B3D0
  8
0
 10
132.53430365938351
 20
136.4854986778038
 30
0.0
  0
VERTEX
  5
B3D1
  8
0
 10
132.78806942440019
 20
136.7993892130041
 30
0.0
  0
VERTEX
  5
B3D2
  8
0
 10
132.92462301906701
 20
137.0038271968385
 30
0.0
  0
SEQEND
  5
B3D3
  8
0
  0
POLYLINE
  5
B190
  8
0
 66
     1
 10
0.0
 20
0.0
 30
0.0
  0
VERTEX
  5
B3D4
  8
0
 10
132.92462300389639
 20
126.9961728276443
 30
0.0
  0
VERTEX
  5
B3D5
  8
0
 10
132.6954930968017
 20
127.3233364394269
 30
0.0
  0
VERTEX
  5
B3D6
  8
0
 10
132.4309516804733
 20
127.6240985697804
 30
0.0
  0
VERTEX
  5
B3D7
  8
0
 10
132.136050296539
 20
127.8928282348607
 30
0.0
  0
VERTEX
  5
B3D8
  8
0
 10
131.8133073708247
 20
128.12654708163711
 30
0.0
  0
VERTEX
  5
B3D9
  8
0
 10
131.46619607105569
 20
128.32372651520339
 30
0.0
  0
VERTEX
  5
B3DA
  8
0
 10
131.10124160589589
 20
128.4808763906276
 30
0.0
  0
VERTEX
  5
B3DB
  8
0
 10
130.71909079935739
 20
128.5967992465846
 30
0.0
  0
VERTEX
  5
B3DC
  8
0
 10
130.32595047282069
 20
128.67001458789139
 30
0.0
  0
VERTEX
  5
B3DD
  8
0
 10
129.92903343746141
 20
128.69940703637721
 30
0.0
  0
VERTEX
  5
B3DE
  8
0
 10
129.62922708756011
 20
128.6922909687205
 30
0.0
  0
SEQEND
  5
B3DF
  8
0
  0
ARC
  5
B191
  8
0
 10
140.99999999999969
 20
131.99999999999989
 30
0.0
 40
9.5000000000000018
 50
211.7840141265213
 51
328.21598671654272
  0
POLYLINE
  5
B192
  8
0
 66
     1
 10
0.0
 20
0.0
 30
0.0
  0
VERTEX
  5
B3E0
  8
0
 10
152.37077291243941
 20
128.6922909687205
 30
0.0
  0
VERTEX
  5
B3E1
  8
0
 10
151.9674284535001
 20
128.69577771708791
 30
0.0
  0
VERTEX
  5
B3E2
  8
0
 10
151.56429226429529
 20
128.65409281276931
 30
0.0
  0
VERTEX
  5
B3E3
  8
0
 10
151.16890300472841
 20
128.56778798974619
 30
0.0
  0
VERTEX
  5
B3E4
  8
0
 10
150.78491289514821
 20
128.43670582805521
 30
0.0
  0
VERTEX
  5
B3E5
  8
0
 10
150.4162272586475
 20
128.26256004966189
 30
0.0
  0
VERTEX
  5
B3E6
  8
0
 10
150.070034160771
 20
128.04850555160391
 30
0.0
  0
VERTEX
  5
B3E7
  8
0
 10
149.75360243930481
 20
127.7989320295208
 30
0.0
  0
VERTEX
  5
B3E8
  8
0
 10
149.46569634061589
 20
127.5145013221959
 30
0.0
  0
VERTEX
  5
B3E9
  8
0
 10
149.2119305755993
 20
127.2006107869957
 30
0.0
  0
VERTEX
  5
B3EA
  8
0
 10
149.07537706973059
 20
126.9961729464673
 30
0.0
  0
SEQEND
  5
B3EB
  8
0
  0
POLYLINE
  5
B193
  8
0
 66
     1
 10
0.0
 20
0.0
 30
0.0
  0
VERTEX
  5
B3EC
  8
0
 10
149.07537711412959
 20
137.0038269818794
 30
0.0
  0
VERTEX
  5
B3ED
  8
0
 10
149.30450704190159
 20
136.67666338396069
 30
0.0
  0
VERTEX
  5
B3EE
  8
0
 10
149.56904847729149
 20
136.37590126980709
 30
0.0
  0
VERTEX
  5
B3EF
  8
0
 10
149.86394987828999
 20
136.1071716229406
 30
0.0
  0
VERTEX
  5
B3F0
  8
0
 10
150.1866928188465
 20
135.87345279622991
 30
0.0
  0
VERTEX
  5
B3F1
  8
0
 10
150.5338041311484
 20
135.67627338432951
 30
0.0
  0
VERTEX
  5
B3F2
  8
0
 10
150.89875860631651
 20
135.51912353174259
 30
0.0
  0
VERTEX
  5
B3F3
  8
0
 10
151.2809094206867
 20
135.4032006996363
 30
0.0
  0
VERTEX
  5
B3F4
  8
0
 10
151.67404975239481
 20
135.32998538299589
 30
0.0
  0
VERTEX
  5
B3F5
  8
0
 10
152.07096679019179
 20
135.30059295953981
 30
0.0
  0
VERTEX
  5
B3F6
  8
0
 10
152.37077291243941
 20
135.30770903127919
 30
0.0
  0
SEQEND
  5
B3F7
  8
0
  0
ARC
  5
B194
  8
0
 10
140.99999999999969
 20
131.99999999999989
 30
0.0
 40
9.5000000000000089
 50
31.784012775064031
 51
148.21598569977289
  0
POLYLINE
  5
B195
  8
0
 66
     1
 10
0.0
 20
0.0
 30
0.0
  0
VERTEX
  5
B3F8
  8
0
 10
109.6304353428857
 20
134.8636363636362
 30
0.0
  0
VERTEX
  5
B3F9
  8
0
 10
109.6311785091529
 20
134.87158271319601
 30
0.0
  0
VERTEX
  5
B3FA
  8
0
 10
109.6572469018147
 20
135.0495354098843
 30
0.0
  0
VERTEX
  5
B3FB
  8
0
 10
109.7010970472457
 20
135.22451174632781
 30
0.0
  0
VERTEX
  5
B3FC
  8
0
 10
109.76313852336349
 20
135.3963594838487
 30
0.0
  0
VERTEX
  5
B3FD
  8
0
 10
109.8430604623788
 20
135.56246638637509
 30
0.0
  0
VERTEX
  5
B3FE
  8
0
 10
109.9432824266507
 20
135.7249340670466
 30
0.0
  0
VERTEX
  5
B3FF
  8
0
 10
110.0621178665253
 20
135.8781549544791
 30
0.0
  0
VERTEX
  5
B400
  8
0
 10
110.2008693657716
 20
136.02153307232831
 30
0.0
  0
VERTEX
  5
B401
  8
0
 10
110.3584434355173
 20
136.15146748805341
 30
0.0
  0
VERTEX
  5
B402
  8
0
 10
110.5786591994766
 20
136.28969153809641
 30
0.0
  0
VERTEX
  5
B403
  8
0
 10
110.8282606859463
 20
136.3989133832639
 30
0.0
  0
VERTEX
  5
B404
  8
0
 10
111.11091253718151
 20
136.47274158186821
 30
0.0
  0
VERTEX
  5
B405
  8
0
 10
111.263747753142
 20
136.4929466612985
 30
0.0
  0
VERTEX
  5
B406
  8
0
 10
111.42298189472081
 20
136.49999999999989
 30
0.0
  0
SEQEND
  5
B407
  8
0
  0
POLYLINE
  5
B196
  8
0
 66
     1
 10
0.0
 20
0.0
 30
0.0
  0
VERTEX
  5
B408
  8
0
 10
111.4229818678986
 20
127.4999999999999
 30
0.0
  0
VERTEX
  5
B409
  8
0
 10
111.17991723809931
 20
127.5164678584793
 30
0.0
  0
VERTEX
  5
B40A
  8
0
 10
110.95254882242079
 20
127.5625614472774
 30
0.0
  0
VERTEX
  5
B40B
  8
0
 10
110.7379488343022
 20
127.6354379844808
 30
0.0
  0
VERTEX
  5
B40C
  8
0
 10
110.5415531975973
 20
127.7305786251336
 30
0.0
  0
VERTEX
  5
B40D
  8
0
 10
110.3471019858443
 20
127.8568906734797
 30
0.0
  0
VERTEX
  5
B40E
  8
0
 10
110.17533391176831
 20
128.00253211338651
 30
0.0
  0
VERTEX
  5
B40F
  8
0
 10
110.0266999848056
 20
128.16404365046711
 30
0.0
  0
VERTEX
  5
B410
  8
0
 10
109.8981129113526
 20
128.34356531945679
 30
0.0
  0
VERTEX
  5
B411
  8
0
 10
109.7939222892341
 20
128.53440025581421
 30
0.0
  0
VERTEX
  5
B412
  8
0
 10
109.71433743087231
 20
128.73384269309651
 30
0.0
  0
VERTEX
  5
B413
  8
0
 10
109.6616398852009
 20
128.928955089645
 30
0.0
  0
VERTEX
  5
B414
  8
0
 10
109.631178509153
 20
129.1284172868026
 30
0.0
  0
VERTEX
  5
B415
  8
0
 10
109.6304353428859
 20
129.13636363636351
 30
0.0
  0
SEQEND
  5
B416
  8
0
  0
ARC
  5
B197
  8
0
 10
140.9999999999979
 20
131.99999999999989
 30
0.0
 40
31.4999999999979
 50
174.78413699482101
 51
185.2159727318714
  0
POLYLINE
  5
B198
  8
0
 66
     1
 10
0.0
 20
0.0
 30
0.0
  0
VERTEX
  5
B417
  8
0
 10
172.3695646571139
 20
129.13636363636351
 30
0.0
  0
VERTEX
  5
B418
  8
0
 10
172.36882149084639
 20
129.12841728680289
 30
0.0
  0
VERTEX
  5
B419
  8
0
 10
172.3427837719635
 20
128.9506125211758
 30
0.0
  0
VERTEX
  5
B41A
  8
0
 10
172.29890295275121
 20
128.77548825366381
 30
0.0
  0
VERTEX
  5
B41B
  8
0
 10
172.2369267232865
 20
128.6037935795579
 30
0.0
  0
VERTEX
  5
B41C
  8
0
 10
172.15693953761229
 20
128.4375336136095
 30
0.0
  0
VERTEX
  5
B41D
  8
0
 10
172.05683500758121
 20
128.27523566823311
 30
0.0
  0
VERTEX
  5
B41E
  8
0
 10
171.9378821334567
 20
128.12184504550049
 30
0.0
  0
VERTEX
  5
B41F
  8
0
 10
171.7993245550978
 20
127.9786495761029
 30
0.0
  0
VERTEX
  5
B420
  8
0
 10
171.641556564452
 20
127.84853251192411
 30
0.0
  0
VERTEX
  5
B421
  8
0
 10
171.42134080049479
 20
127.7103084618884
 30
0.0
  0
VERTEX
  5
B422
  8
0
 10
171.1717393140288
 20
127.6010866167273
 30
0.0
  0
VERTEX
  5
B423
  8
0
 10
170.88908746279961
 20
127.5272584181283
 30
0.0
  0
VERTEX
  5
B424
  8
0
 10
170.73646091358111
 20
127.5070755758033
 30
0.0
  0
VERTEX
  5
B425
  8
0
 10
170.57701810527871
 20
127.4999999999999
 30
0.0
  0
SEQEND
  5
B426
  8
0
  0
POLYLINE
  5
B199
  8
0
 66
     1
 10
0.0
 20
0.0
 30
0.0
  0
VERTEX
  5
B427
  8
0
 10
170.57701810527871
 20
136.49999999999989
 30
0.0
  0
VERTEX
  5
B428
  8
0
 10
170.82008273671019
 20
136.48353214495401
 30
0.0
  0
VERTEX
  5
B429
  8
0
 10
171.04745115416861
 20
136.43743855906101
 30
0.0
  0
VERTEX
  5
B42A
  8
0
 10
171.26205114428649
 20
136.3645620243307
 30
0.0
  0
VERTEX
  5
B42B
  8
0
 10
171.45844678302541
 20
136.26942138574859
 30
0.0
  0
VERTEX
  5
B42C
  8
0
 10
171.65289799568339
 20
136.14310934029211
 30
0.0
  0
VERTEX
  5
B42D
  8
0
 10
171.82466607099599
 20
135.9974679031875
 30
0.0
  0
VERTEX
  5
B42E
  8
0
 10
171.97329999951819
 20
135.83595636880071
 30
0.0
  0
VERTEX
  5
B42F
  8
0
 10
172.10188707490121
 20
135.65643470245919
 30
0.0
  0
VERTEX
  5
B430
  8
0
 10
172.2060776992916
 20
135.4655997686009
 30
0.0
  0
VERTEX
  5
B431
  8
0
 10
172.28566256026829
 20
135.26615733363931
 30
0.0
  0
VERTEX
  5
B432
  8
0
 10
172.3383601119026
 20
135.07104492410261
 30
0.0
  0
VERTEX
  5
B433
  8
0
 10
172.36882149084639
 20
134.8715827131966
 30
0.0
  0
VERTEX
  5
B434
  8
0
 10
172.36956465711361
 20
134.8636363636362
 30
0.0
  0
SEQEND
  5
B435
  8
0
  0
ARC
  5
B19A
  8
0
 10
141.00000000000159
 20
131.99999999999989
 30
0.0
 40
31.499999999997939
 50
354.7840261710104
 51
5.2158656981300151
  0
LINE
  5
B1AC
  8
1
 10
140.99999999999969
 20
45.0
 30
0.0
 11
140.9999999999996
 21
84.610908026839624
 31
0.0
  0
POLYLINE
  5
B1AD
  8
0
 10
119.4058821529952
 20
66.144002877238492
 30
0.0
 66
     1
 70
     8
  0
VERTEX
  8
0
  5
B4DD
 10
119.406
 20
66.1440
 30
0.000000
  70
    32
  0
VERTEX
  8
0
  5
B4DE
 10
119.712
 20
66.1515
 30
0.000000
  70
    32
  0
VERTEX
  8
0
  5
B4DF
 10
120.018
 20
66.1741
 30
0.000000
  70
    32
  0
VERTEX
  8
0
  5
B4E0
 10
120.322
 20
66.2117
 30
0.000000
  70
    32
  0
VERTEX
  8
0
  5
B4E1
 10
120.624
 20
66.2642
 30
0.000000
  70
    32
  0
VERTEX
  8
0
  5
B4E2
 10
120.923
 20
66.3315
 30
0.000000
  70
    32
  0
VERTEX
  8
0
  5
B4E3
 10
121.218
 20
66.4134
 30
0.000000
  70
    32
  0
VERTEX
  8
0
  5
B4E4
 10
121.509
 20
66.5097
 30
0.000000
  70
    32
  0
VERTEX
  8
0
  5
B4E5
 10
121.795
 20
66.6202
 30
0.000000
  70
    32
  0
VERTEX
  8
0
  5
B4E6
 10
122.075
 20
66.7446
 30
0.000000
  70
    32
  0
VERTEX
  8
0
  5
B4E7
 10
122.349
 20
66.8827
 30
0.000000
  70
    32
  0
VERTEX
  8
0
  5
B4E8
 10
122.615
 20
67.0341
 30
0.000000
  70
    32
  0
VERTEX
  8
0
  5
B4E9
 10
122.874
 20
67.1983
 30
0.000000
  70
    32
  0
VERTEX
  8
0
  5
B4EA
 10
123.125
 20
67.3751
 30
0.000000
  70
    32
  0
VERTEX
  8
0
  5
B4EB
 10
123.366
 20
67.5640
 30
0.000000
  70
    32
  0
VERTEX
  8
0
  5
B4EC
 10
123.598
 20
67.7646
 30
0.000000
  70
    32
  0
VERTEX
  8
0
  5
B4ED
 10
123.820
 20
67.9763
 30
0.000000
  70
    32
  0
VERTEX
  8
0
  5
B4EE
 10
124.031
 20
68.1987
 30
0.000000
  70
    32
  0
VERTEX
  8
0
  5
B4EF
 10
124.231
 20
68.4312
 30
0.000000
  70
    32
  0
VERTEX
  8
0
  5
B4F0
 10
124.420
 20
68.6733
 30
0.000000
  70
    32
  0
VERTEX
  8
0
  5
B4F1
 10
124.596
 20
68.9244
 30
0.000000
  70
    32
  0
VERTEX
  8
0
  5
B4F2
 10
124.760
 20
69.1838
 30
0.000000
  70
    32
  0
VERTEX
  8
0
  5
B4F3
 10
124.911
 20
69.4509
 30
0.000000
  70
    32
  0
VERTEX
  8
0
  5
B4F4
 10
125.049
 20
69.7252
 30
0.000000
  70
    32
  0
VERTEX
  8
0
  5
B4F5
 10
125.173
 20
70.0059
 30
0.000000
  70
    32
  0
VERTEX
  8
0
  5
B4F6
 10
125.284
 20
70.2924
 30
0.000000
  70
    32
  0
VERTEX
  8
0
  5
B4F7
 10
125.380
 20
70.5840
 30
0.000000
  70
    32
  0
VERTEX
  8
0
  5
B4F8
 10
125.461
 20
70.8799
 30
0.000000
  70
    32
  0
VERTEX
  8
0
  5
B4F9
 10
125.529
 20
71.1795
 30
0.000000
  70
    32
  0
VERTEX
  8
0
  5
B4FA
 10
125.581
 20
71.4821
 30
0.000000
  70
    32
  0
VERTEX
  8
0
  5
B4FB
 10
125.618
 20
71.7868
 30
0.000000
  70
    32
  0
VERTEX
  8
0
  5
B4FC
 10
125.641
 20
72.0930
 30
0.000000
  70
    32
  0
VERTEX
  8
0
  5
B4FD
 10
125.649
 20
72.4000
 30
0.000000
  70
    32
  0
VERTEX
  8
0
  5
B4FE
 10
125.641
 20
72.7070
 30
0.000000
  70
    32
  0
VERTEX
  8
0
  5
B4FF
 10
125.618
 20
73.0132
 30
0.000000
  70
    32
  0
VERTEX
  8
0
  5
B500
 10
125.581
 20
73.3179
 30
0.000000
  70
    32
  0
VERTEX
  8
0
  5
B501
 10
125.529
 20
73.6205
 30
0.000000
  70
    32
  0
VERTEX
  8
0
  5
B502
 10
125.461
 20
73.9201
 30
0.000000
  70
    32
  0
VERTEX
  8
0
  5
B503
 10
125.380
 20
74.2160
 30
0.000000
  70
    32
  0
VERTEX
  8
0
  5
B504
 10
125.284
 20
74.5076
 30
0.000000
  70
    32
  0
VERTEX
  8
0
  5
B505
 10
125.173
 20
74.7941
 30
0.000000
  70
    32
  0
VERTEX
  8
0
  5
B506
 10
125.049
 20
75.0748
 30
0.000000
  70
    32
  0
VERTEX
  8
0
  5
B507
 10
124.911
 20
75.3491
 30
0.000000
  70
    32
  0
VERTEX
  8
0
  5
B508
 10
124.760
 20
75.6162
 30
0.000000
  70
    32
  0
VERTEX
  8
0
  5
B509
 10
124.596
 20
75.8756
 30
0.000000
  70
    32
  0
VERTEX
  8
0
  5
B50A
 10
124.420
 20
76.1267
 30
0.000000
  70
    32
  0
VERTEX
  8
0
  5
B50B
 10
124.231
 20
76.3688
 30
0.000000
  70
    32
  0
VERTEX
  8
0
  5
B50C
 10
124.031
 20
76.6013
 30
0.000000
  70
    32
  0
VERTEX
  8
0
  5
B50D
 10
123.820
 20
76.8237
 30
0.000000
  70
    32
  0
VERTEX
  8
0
  5
B50E
 10
123.598
 20
77.0354
 30
0.000000
  70
    32
  0
VERTEX
  8
0
  5
B50F
 10
123.366
 20
77.2360
 30
0.000000
  70
    32
  0
VERTEX
  8
0
  5
B510
 10
123.125
 20
77.4249
 30
0.000000
  70
    32
  0
VERTEX
  8
0
  5
B511
 10
122.874
 20
77.6017
 30
0.000000
  70
    32
  0
VERTEX
  8
0
  5
B512
 10
122.615
 20
77.7659
 30
0.000000
  70
    32
  0
VERTEX
  8
0
  5
B513
 10
122.349
 20
77.9173
 30
0.000000
  70
    32
  0
VERTEX
  8
0
  5
B514
 10
122.075
 20
78.0554
 30
0.000000
  70
    32
  0
VERTEX
  8
0
  5
B515
 10
121.795
 20
78.1798
 30
0.000000
  70
    32
  0
VERTEX
  8
0
  5
B516
 10
121.509
 20
78.2903
 30
0.000000
  70
    32
  0
VERTEX
  8
0
  5
B517
 10
121.218
 20
78.3866
 30
0.000000
  70
    32
  0
VERTEX
  8
0
  5
B518
 10
120.923
 20
78.4685
 30
0.000000
  70
    32
  0
VERTEX
  8
0
  5
B519
 10
120.624
 20
78.5358
 30
0.000000
  70
    32
  0
VERTEX
  8
0
  5
B51A
 10
120.322
 20
78.5883
 30
0.000000
  70
    32
  0
VERTEX
  8
0
  5
B51B
 10
120.018
 20
78.6259
 30
0.000000
  70
    32
  0
VERTEX
  8
0
  5
B51C
 10
119.712
 20
78.6485
 30
0.000000
  70
    32
  0
VERTEX
  8
0
  5
B51D
 10
119.406
 20
78.6560
 30
0.000000
  70
    32
  0
VERTEX
  8
0
  5
B51E
 10
119.100
 20
78.6485
 30
0.000000
  70
    32
  0
VERTEX
  8
0
  5
B51F
 10
118.794
 20
78.6259
 30
0.000000
  70
    32
  0
VERTEX
  8
0
  5
B520
 10
118.490
 20
78.5883
 30
0.000000
  70
    32
  0
VERTEX
  8
0
  5
B521
 10
118.188
 20
78.5358
 30
0.000000
  70
    32
  0
VERTEX
  8
0
  5
B522
 10
117.889
 20
78.4685
 30
0.000000
  70
    32
  0
VERTEX
  8
0
  5
B523
 10
117.594
 20
78.3866
 30
0.000000
  70
    32
  0
VERTEX
  8
0
  5
B524
 10
117.303
 20
78.2903
 30
0.000000
  70
    32
  0
VERTEX
  8
0
  5
B525
 10
117.017
 20
78.1798
 30
0.000000
  70
    32
  0
VERTEX
  8
0
  5
B526
 10
116.737
 20
78.0554
 30
0.000000
  70
    32
  0
VERTEX
  8
0
  5
B527
 10
116.463
 20
77.9173
 30
0.000000
  70
    32
  0
VERTEX
  8
0
  5
B528
 10
116.197
 20
77.7659
 30
0.000000
  70
    32
  0
VERTEX
  8
0
  5
B529
 10
115.938
 20
77.6017
 30
0.000000
  70
    32
  0
VERTEX
  8
0
  5
B52A
 10
115.687
 20
77.4249
 30
0.000000
  70
    32
  0
VERTEX
  8
0
  5
B52B
 10
115.446
 20
77.2360
 30
0.000000
  70
    32
  0
VERTEX
  8
0
  5
B52C
 10
115.214
 20
77.0354
 30
0.000000
  70
    32
  0
VERTEX
  8
0
  5
B52D
 10
114.992
 20
76.8237
 30
0.000000
  70
    32
  0
VERTEX
  8
0
  5
B52E
 10
114.780
 20
76.6013
 30
0.000000
  70
    32
  0
VERTEX
  8
0
  5
B52F
 10
114.580
 20
76.3688
 30
0.000000
  70
    32
  0
VERTEX
  8
0
  5
B530
 10
114.392
 20
76.1267
 30
0.000000
  70
    32
  0
VERTEX
  8
0
  5
B531
 10
114.215
 20
75.8756
 30
0.000000
  70
    32
  0
VERTEX
  8
0
  5
B532
 10
114.051
 20
75.6162
 30
0.000000
  70
    32
  0
VERTEX
  8
0
  5
B533
 10
113.900
 20
75.3491
 30
0.000000
  70
    32
  0
VERTEX
  8
0
  5
B534
 10
113.763
 20
75.0748
 30
0.000000
  70
    32
  0
VERTEX
  8
0
  5
B535
 10
113.638
 20
74.7941
 30
0.000000
  70
    32
  0
VERTEX
  8
0
  5
B536
 10
113.528
 20
74.5076
 30
0.000000
  70
    32
  0
VERTEX
  8
0
  5
B537
 10
113.432
 20
74.2160
 30
0.000000
  70
    32
  0
VERTEX
  8
0
  5
B538
 10
113.350
 20
73.9201
 30
0.000000
  70
    32
  0
VERTEX
  8
0
  5
B539
 10
113.283
 20
73.6205
 30
0.000000
  70
    32
  0
VERTEX
  8
0
  5
B53A
 10
113.231
 20
73.3179
 30
0.000000
  70
    32
  0
VERTEX
  8
0
  5
B53B
 10
113.193
 20
73.0132
 30
0.000000
  70
    32
  0
VERTEX
  8
0
  5
B53C
 10
113.171
 20
72.7070
 30
0.000000
  70
    32
  0
VERTEX
  8
0
  5
B53D
 10
113.163
 20
72.4000
 30
0.000000
  70
    32
  0
VERTEX
  8
0
  5
B53E
 10
113.171
 20
72.0930
 30
0.000000
  70
    32
  0
VERTEX
  8
0
  5
B53F
 10
113.193
 20
71.7868
 30
0.000000
  70
    32
  0
VERTEX
  8
0
  5
B540
 10
113.231
 20
71.4821
 30
0.000000
  70
    32
  0
VERTEX
  8
0
  5
B541
 10
113.283
 20
71.1795
 30
0.000000
  70
    32
  0
VERTEX
  8
0
  5
B542
 10
113.350
 20
70.8799
 30
0.000000
  70
    32
  0
VERTEX
  8
0
  5
B543
 10
113.432
 20
70.5840
 30
0.000000
  70
    32
  0
VERTEX
  8
0
  5
B544
 10
113.528
 20
70.2924
 30
0.000000
  70
    32
  0
VERTEX
  8
0
  5
B545
 10
113.638
 20
70.0059
 30
0.000000
  70
    32
  0
VERTEX
  8
0
  5
B546
 10
113.763
 20
69.7252
 30
0.000000
  70
    32
  0
VERTEX
  8
0
  5
B547
 10
113.900
 20
69.4509
 30
0.000000
  70
    32
  0
VERTEX
  8
0
  5
B548
 10
114.051
 20
69.1838
 30
0.000000
  70
    32
  0
VERTEX
  8
0
  5
B549
 10
114.215
 20
68.9244
 30
0.000000
  70
    32
  0
VERTEX
  8
0
  5
B54A
 10
114.392
 20
68.6733
 30
0.000000
  70
    32
  0
VERTEX
  8
0
  5
B54B
 10
114.580
 20
68.4312
 30
0.000000
  70
    32
  0
VERTEX
  8
0
  5
B54C
 10
114.780
 20
68.1987
 30
0.000000
  70
    32
  0
VERTEX
  8
0
  5
B54D
 10
114.992
 20
67.9763
 30
0.000000
  70
    32
  0
VERTEX
  8
0
  5
B54E
 10
115.214
 20
67.7646
 30
0.000000
  70
    32
  0
VERTEX
  8
0
  5
B54F
 10
115.446
 20
67.5640
 30
0.000000
  70
    32
  0
VERTEX
  8
0
  5
B550
 10
115.687
 20
67.3751
 30
0.000000
  70
    32
  0
VERTEX
  8
0
  5
B551
 10
115.938
 20
67.1983
 30
0.000000
  70
    32
  0
VERTEX
  8
0
  5
B552
 10
116.197
 20
67.0341
 30
0.000000
  70
    32
  0
VERTEX
  8
0
  5
B553
 10
116.463
 20
66.8827
 30
0.000000
  70
    32
  0
VERTEX
  8
0
  5
B554
 10
116.737
 20
66.7446
 30
0.000000
  70
    32
  0
VERTEX
  8
0
  5
B555
 10
117.017
 20
66.6202
 30
0.000000
  70
    32
  0
VERTEX
  8
0
  5
B556
 10
117.303
 20
66.5097
 30
0.000000
  70
    32
  0
VERTEX
  8
0
  5
B557
 10
117.594
 20
66.4134
 30
0.000000
  70
    32
  0
VERTEX
  8
0
  5
B558
 10
117.889
 20
66.3315
 30
0.000000
  70
    32
  0
VERTEX
  8
0
  5
B559
 10
118.188
 20
66.2642
 30
0.000000
  70
    32
  0
VERTEX
  8
0
  5
B55A
 10
118.490
 20
66.2117
 30
0.000000
  70
    32
  0
VERTEX
  8
0
  5
B55B
 10
118.794
 20
66.1741
 30
0.000000
  70
    32
  0
VERTEX
  8
0
  5
B55C
 10
119.100
 20
66.1515
 30
0.000000
  70
    32
  0
VERTEX
  8
0
  5
B55D
 10
119.406
 20
66.1440
 30
0.000000
  70
    32
  0
SEQEND
  8
0
  5
B55E
  0
POLYLINE
  5
B1AE
  8
0
 10
162.5941178470043
 20
66.144002877238492
 30
0.0
 66
     1
 70
     8
  0
VERTEX
  8
0
  5
B55F
 10
162.594
 20
66.1440
 30
0.000000
  70
    32
  0
VERTEX
  8
0
  5
B560
 10
162.900
 20
66.1515
 30
0.000000
  70
    32
  0
VERTEX
  8
0
  5
B561
 10
163.206
 20
66.1741
 30
0.000000
  70
    32
  0
VERTEX
  8
0
  5
B562
 10
163.510
 20
66.2117
 30
0.000000
  70
    32
  0
VERTEX
  8
0
  5
B563
 10
163.812
 20
66.2642
 30
0.000000
  70
    32
  0
VERTEX
  8
0
  5
B564
 10
164.111
 20
66.3315
 30
0.000000
  70
    32
  0
VERTEX
  8
0
  5
B565
 10
164.406
 20
66.4134
 30
0.000000
  70
    32
  0
VERTEX
  8
0
  5
B566
 10
164.697
 20
66.5097
 30
0.000000
  70
    32
  0
VERTEX
  8
0
  5
B567
 10
164.983
 20
66.6202
 30
0.000000
  70
    32
  0
VERTEX
  8
0
  5
B568
 10
165.263
 20
66.7446
 30
0.000000
  70
    32
  0
VERTEX
  8
0
  5
B569
 10
165.537
 20
66.8827
 30
0.000000
  70
    32
  0
VERTEX
  8
0
  5
B56A
 10
165.803
 20
67.0341
 30
0.000000
  70
    32
  0
VERTEX
  8
0
  5
B56B
 10
166.062
 20
67.1983
 30
0.000000
  70
    32
  0
VERTEX
  8
0
  5
B56C
 10
166.313
 20
67.3751
 30
0.000000
  70
    32
  0
VERTEX
  8
0
  5
B56D
 10
166.554
 20
67.5640
 30
0.000000
  70
    32
  0
VERTEX
  8
0
  5
B56E
 10
166.786
 20
67.7646
 30
0.000000
  70
    32
  0
VERTEX
  8
0
  5
B56F
 10
167.008
 20
67.9763
 30
0.000000
  70
    32
  0
VERTEX
  8
0
  5
B570
 10
167.220
 20
68.1987
 30
0.000000
  70
    32
  0
VERTEX
  8
0
  5
B571
 10
167.420
 20
68.4312
 30
0.000000
  70
    32
  0
VERTEX
  8
0
  5
B572
 10
167.608
 20
68.6733
 30
0.000000
  70
    32
  0
VERTEX
  8
0
  5
B573
 10
167.785
 20
68.9244
 30
0.000000
  70
    32
  0
VERTEX
  8
0
  5
B574
 10
167.949
 20
69.1838
 30
0.000000
  70
    32
  0
VERTEX
  8
0
  5
B575
 10
168.100
 20
69.4509
 30
0.000000
  70
    32
  0
VERTEX
  8
0
  5
B576
 10
168.237
 20
69.7252
 30
0.000000
  70
    32
  0
VERTEX
  8
0
  5
B577
 10
168.362
 20
70.0059
 30
0.000000
  70
    32
  0
VERTEX
  8
0
  5
B578
 10
168.472
 20
70.2924
 30
0.000000
  70
    32
  0
VERTEX
  8
0
  5
B579
 10
168.568
 20
70.5840
 30
0.000000
  70
    32
  0
VERTEX
  8
0
  5
B57A
 10
168.650
 20
70.8799
 30
0.000000
  70
    32
  0
VERTEX
  8
0
  5
B57B
 10
168.717
 20
71.1795
 30
0.000000
  70
    32
  0
VERTEX
  8
0
  5
B57C
 10
168.769
 20
71.4821
 30
0.000000
  70
    32
  0
VERTEX
  8
0
  5
B57D
 10
168.807
 20
71.7868
 30
0.000000
  70
    32
  0
VERTEX
  8
0
  5
B57E
 10
168.829
 20
72.0930
 30
0.000000
  70
    32
  0
VERTEX
  8
0
  5
B57F
 10
168.837
 20
72.4000
 30
0.000000
  70
    32
  0
VERTEX
  8
0
  5
B580
 10
168.829
 20
72.7070
 30
0.000000
  70
    32
  0
VERTEX
  8
0
  5
B581
 10
168.807
 20
73.0132
 30
0.000000
  70
    32
  0
VERTEX
  8
0
  5
B582
 10
168.769
 20
73.3179
 30
0.000000
  70
    32
  0
VERTEX
  8
0
  5
B583
 10
168.717
 20
73.6205
 30
0.000000
  70
    32
  0
VERTEX
  8
0
  5
B584
 10
168.650
 20
73.9201
 30
0.000000
  70
    32
  0
VERTEX
  8
0
  5
B585
 10
168.568
 20
74.2160
 30
0.000000
  70
    32
  0
VERTEX
  8
0
  5
B586
 10
168.472
 20
74.5076
 30
0.000000
  70
    32
  0
VERTEX
  8
0
  5
B587
 10
168.362
 20
74.7941
 30
0.000000
  70
    32
  0
VERTEX
  8
0
  5
B588
 10
168.237
 20
75.0748
 30
0.000000
  70
    32
  0
VERTEX
  8
0
  5
B589
 10
168.100
 20
75.3491
 30
0.000000
  70
    32
  0
VERTEX
  8
0
  5
B58A
 10
167.949
 20
75.6162
 30
0.000000
  70
    32
  0
VERTEX
  8
0
  5
B58B
 10
167.785
 20
75.8756
 30
0.000000
  70
    32
  0
VERTEX
  8
0
  5
B58C
 10
167.608
 20
76.1267
 30
0.000000
  70
    32
  0
VERTEX
  8
0
  5
B58D
 10
167.420
 20
76.3688
 30
0.000000
  70
    32
  0
VERTEX
  8
0
  5
B58E
 10
167.220
 20
76.6013
 30
0.000000
  70
    32
  0
VERTEX
  8
0
  5
B58F
 10
167.008
 20
76.8237
 30
0.000000
  70
    32
  0
VERTEX
  8
0
  5
B590
 10
166.786
 20
77.0354
 30
0.000000
  70
    32
  0
VERTEX
  8
0
  5
B591
 10
166.554
 20
77.2360
 30
0.000000
  70
    32
  0
VERTEX
  8
0
  5
B592
 10
166.313
 20
77.4249
 30
0.000000
  70
    32
  0
VERTEX
  8
0
  5
B593
 10
166.062
 20
77.6017
 30
0.000000
  70
    32
  0
VERTEX
  8
0
  5
B594
 10
165.803
 20
77.7659
 30
0.000000
  70
    32
  0
VERTEX
  8
0
  5
B595
 10
165.537
 20
77.9173
 30
0.000000
  70
    32
  0
VERTEX
  8
0
  5
B596
 10
165.263
 20
78.0554
 30
0.000000
  70
    32
  0
VERTEX
  8
0
  5
B597
 10
164.983
 20
78.1798
 30
0.000000
  70
    32
  0
VERTEX
  8
0
  5
B598
 10
164.697
 20
78.2903
 30
0.000000
  70
    32
  0
VERTEX
  8
0
  5
B599
 10
164.406
 20
78.3866
 30
0.000000
  70
    32
  0
VERTEX
  8
0
  5
B59A
 10
164.111
 20
78.4685
 30
0.000000
  70
    32
  0
VERTEX
  8
0
  5
B59B
 10
163.812
 20
78.5358
 30
0.000000
  70
    32
  0
VERTEX
  8
0
  5
B59C
 10
163.510
 20
78.5883
 30
0.000000
  70
    32
  0
VERTEX
  8
0
  5
B59D
 10
163.206
 20
78.6259
 30
0.000000
  70
    32
  0
VERTEX
  8
0
  5
B59E
 10
162.900
 20
78.6485
 30
0.000000
  70
    32
  0
VERTEX
  8
0
  5
B59F
 10
162.594
 20
78.6560
 30
0.000000
  70
    32
  0
VERTEX
  8
0
  5
B5A0
 10
162.288
 20
78.6485
 30
0.000000
  70
    32
  0
VERTEX
  8
0
  5
B5A1
 10
161.982
 20
78.6259
 30
0.000000
  70
    32
  0
VERTEX
  8
0
  5
B5A2
 10
161.678
 20
78.5883
 30
0.000000
  70
    32
  0
VERTEX
  8
0
  5
B5A3
 10
161.376
 20
78.5358
 30
0.000000
  70
    32
  0
VERTEX
  8
0
  5
B5A4
 10
161.077
 20
78.4685
 30
0.000000
  70
    32
  0
VERTEX
  8
0
  5
B5A5
 10
160.782
 20
78.3866
 30
0.000000
  70
    32
  0
VERTEX
  8
0
  5
B5A6
 10
160.491
 20
78.2903
 30
0.000000
  70
    32
  0
VERTEX
  8
0
  5
B5A7
 10
160.205
 20
78.1798
 30
0.000000
  70
    32
  0
VERTEX
  8
0
  5
B5A8
 10
159.925
 20
78.0554
 30
0.000000
  70
    32
  0
VERTEX
  8
0
  5
B5A9
 10
159.651
 20
77.9173
 30
0.000000
  70
    32
  0
VERTEX
  8
0
  5
B5AA
 10
159.385
 20
77.7659
 30
0.000000
  70
    32
  0
VERTEX
  8
0
  5
B5AB
 10
159.126
 20
77.6017
 30
0.000000
  70
    32
  0
VERTEX
  8
0
  5
B5AC
 10
158.875
 20
77.4249
 30
0.000000
  70
    32
  0
VERTEX
  8
0
  5
B5AD
 10
158.634
 20
77.2360
 30
0.000000
  70
    32
  0
VERTEX
  8
0
  5
B5AE
 10
158.402
 20
77.0354
 30
0.000000
  70
    32
  0
VERTEX
  8
0
  5
B5AF
 10
158.180
 20
76.8237
 30
0.000000
  70
    32
  0
VERTEX
  8
0
  5
B5B0
 10
157.969
 20
76.6013
 30
0.000000
  70
    32
  0
VERTEX
  8
0
  5
B5B1
 10
157.769
 20
76.3688
 30
0.000000
  70
    32
  0
VERTEX
  8
0
  5
B5B2
 10
157.580
 20
76.1267
 30
0.000000
  70
    32
  0
VERTEX
  8
0
  5
B5B3
 10
157.404
 20
75.8756
 30
0.000000
  70
    32
  0
VERTEX
  8
0
  5
B5B4
 10
157.240
 20
75.6162
 30
0.000000
  70
    32
  0
VERTEX
  8
0
  5
B5B5
 10
157.089
 20
75.3491
 30
0.000000
  70
    32
  0
VERTEX
  8
0
  5
B5B6
 10
156.951
 20
75.0748
 30
0.000000
  70
    32
  0
VERTEX
  8
0
  5
B5B7
 10
156.827
 20
74.7941
 30
0.000000
  70
    32
  0
VERTEX
  8
0
  5
B5B8
 10
156.716
 20
74.5076
 30
0.000000
  70
    32
  0
VERTEX
  8
0
  5
B5B9
 10
156.620
 20
74.2160
 30
0.000000
  70
    32
  0
VERTEX
  8
0
  5
B5BA
 10
156.539
 20
73.9201
 30
0.000000
  70
    32
  0
VERTEX
  8
0
  5
B5BB
 10
156.471
 20
73.6205
 30
0.000000
  70
    32
  0
VERTEX
  8
0
  5
B5BC
 10
156.419
 20
73.3179
 30
0.000000
  70
    32
  0
VERTEX
  8
0
  5
B5BD
 10
156.382
 20
73.0132
 30
0.000000
  70
    32
  0
VERTEX
  8
0
  5
B5BE
 10
156.359
 20
72.7070
 30
0.000000
  70
    32
  0
VERTEX
  8
0
  5
B5BF
 10
156.351
 20
72.4000
 30
0.000000
  70
    32
  0
VERTEX
  8
0
  5
B5C0
 10
156.359
 20
72.0930
 30
0.000000
  70
    32
  0
VERTEX
  8
0
  5
B5C1
 10
156.382
 20
71.7868
 30
0.000000
  70
    32
  0
VERTEX
  8
0
  5
B5C2
 10
156.419
 20
71.4821
 30
0.000000
  70
    32
  0
VERTEX
  8
0
  5
B5C3
 10
156.471
 20
71.1795
 30
0.000000
  70
    32
  0
VERTEX
  8
0
  5
B5C4
 10
156.539
 20
70.8799
 30
0.000000
  70
    32
  0
VERTEX
  8
0
  5
B5C5
 10
156.620
 20
70.5840
 30
0.000000
  70
    32
  0
VERTEX
  8
0
  5
B5C6
 10
156.716
 20
70.2924
 30
0.000000
  70
    32
  0
VERTEX
  8
0
  5
B5C7
 10
156.827
 20
70.0059
 30
0.000000
  70
    32
  0
VERTEX
  8
0
  5
B5C8
 10
156.951
 20
69.7252
 30
0.000000
  70
    32
  0
VERTEX
  8
0
  5
B5C9
 10
157.089
 20
69.4509
 30
0.000000
  70
    32
  0
VERTEX
  8
0
  5
B5CA
 10
157.240
 20
69.1838
 30
0.000000
  70
    32
  0
VERTEX
  8
0
  5
B5CB
 10
157.404
 20
68.9244
 30
0.000000
  70
    32
  0
VERTEX
  8
0
  5
B5CC
 10
157.580
 20
68.6733
 30
0.000000
  70
    32
  0
VERTEX
  8
0
  5
B5CD
 10
157.769
 20
68.4312
 30
0.000000
  70
    32
  0
VERTEX
  8
0
  5
B5CE
 10
157.969
 20
68.1987
 30
0.000000
  70
    32
  0
VERTEX
  8
0
  5
B5CF
 10
158.180
 20
67.9763
 30
0.000000
  70
    32
  0
VERTEX
  8
0
  5
B5D0
 10
158.402
 20
67.7646
 30
0.000000
  70
    32
  0
VERTEX
  8
0
  5
B5D1
 10
158.634
 20
67.5640
 30
0.000000
  70
    32
  0
VERTEX
  8
0
  5
B5D2
 10
158.875
 20
67.3751
 30
0.000000
  70
    32
  0
VERTEX
  8
0
  5
B5D3
 10
159.126
 20
67.1983
 30
0.000000
  70
    32
  0
VERTEX
  8
0
  5
B5D4
 10
159.385
 20
67.0341
 30
0.000000
  70
    32
  0
VERTEX
  8
0
  5
B5D5
 10
159.651
 20
66.8827
 30
0.000000
  70
    32
  0
VERTEX
  8
0
  5
B5D6
 10
159.925
 20
66.7446
 30
0.000000
  70
    32
  0
VERTEX
  8
0
  5
B5D7
 10
160.205
 20
66.6202
 30
0.000000
  70
    32
  0
VERTEX
  8
0
  5
B5D8
 10
160.491
 20
66.5097
 30
0.000000
  70
    32
  0
VERTEX
  8
0
  5
B5D9
 10
160.782
 20
66.4134
 30
0.000000
  70
    32
  0
VERTEX
  8
0
  5
B5DA
 10
161.077
 20
66.3315
 30
0.000000
  70
    32
  0
VERTEX
  8
0
  5
B5DB
 10
161.376
 20
66.2642
 30
0.000000
  70
    32
  0
VERTEX
  8
0
  5
B5DC
 10
161.678
 20
66.2117
 30
0.000000
  70
    32
  0
VERTEX
  8
0
  5
B5DD
 10
161.982
 20
66.1741
 30
0.000000
  70
    32
  0
VERTEX
  8
0
  5
B5DE
 10
162.288
 20
66.1515
 30
0.000000
  70
    32
  0
VERTEX
  8
0
  5
B5DF
 10
162.594
 20
66.1440
 30
0.000000
  70
    32
  0
SEQEND
  8
0
  5
B5E0
  0
LINE
  5
B1AF
  8
0
 10
162.89999999999941
 20
81.999999999999886
 30
0.0
 11
162.52442568985049
 21
81.999992451905086
 31
0.0
  0
ARC
  5
B1B0
  8
0
 10
162.89999999999941
 20
72.399999999999864
 30
0.0
 40
9.5999999999999996
 50
290.54711163620237
 51
90.0
  0
POLYLINE
  5
B1B1
  8
0
 66
     1
 10
0.0
 20
0.0
 30
0.0
  0
VERTEX
  5
B436
  8
0
 10
162.52442568985049
 20
81.999992451905086
 30
0.0
  0
VERTEX
  5
B437
  8
0
 10
162.31761804685419
 20
81.997527746841456
 30
0.0
  0
VERTEX
  5
B438
  8
0
 10
161.51433676266041
 20
81.945919449268217
 30
0.0
  0
VERTEX
  5
B439
  8
0
 10
160.71804188052371
 20
81.828060492591931
 30
0.0
  0
VERTEX
  5
B43A
  8
0
 10
159.91191652766969
 20
81.638389103770749
 30
0.0
  0
VERTEX
  5
B43B
  8
0
 10
159.12470956182909
 20
81.380996438476643
 30
0.0
  0
VERTEX
  5
B43C
  8
0
 10
158.87212485686271
 20
81.282300001394148
 30
0.0
  0
SEQEND
  5
B43D
  8
0
  0
POLYLINE
  5
B1B2
  8
0
 66
     1
 10
0.0
 20
0.0
 30
0.0
  0
VERTEX
  5
B43E
  8
0
 10
123.12787514313681
 20
81.282300001394148
 30
0.0
  0
VERTEX
  5
B43F
  8
0
 10
122.45339471289979
 20
81.528147606226639
 30
0.0
  0
VERTEX
  5
B440
  8
0
 10
121.7627264993391
 20
81.723714049322538
 30
0.0
  0
VERTEX
  5
B441
  8
0
 10
121.04359092395811
 20
81.870408296439734
 30
0.0
  0
VERTEX
  5
B442
  8
0
 10
120.31548575446099
 20
81.962495195519963
 30
0.0
  0
VERTEX
  5
B443
  8
0
 10
119.5059910373711
 20
81.999847993936612
 30
0.0
  0
VERTEX
  5
B444
  8
0
 10
119.4635850901785
 20
81.999999999999886
 30
0.0
  0
SEQEND
  5
B445
  8
0
  0
LINE
  5
B1B3
  8
0
 10
119.4635850901785
 20
81.999999999999886
 30
0.0
 11
119.10000000000009
 21
81.999999999999886
 31
0.0
  0
ARC
  5
B1B4
  8
0
 10
119.10000000000009
 20
72.399999999999864
 30
0.0
 40
9.6000000000000032
 50
90.0
 51
249.4528883637976
  0
ARC
  5
B1B5
  8
0
 10
133.58725783871449
 20
126.6132216644266
 30
0.0
 40
71.15250000000195
 50
283.7506604802175
 51
297.34356279218463
  0
ARC
  5
B1B6
  8
0
 10
148.41274216128531
 20
126.6132216644274
 30
0.0
 40
71.152500000002917
 50
242.6564372078154
 51
256.2493395197825
  0
LINE
  5
B1B7
  8
0
 10
150.49999999999969
 20
50.0
 30
0.0
 11
150.49999999999969
 21
57.5
 31
0.0
  0
LINE
  5
B1B8
  8
0
 10
131.49999999999969
 20
57.5
 30
0.0
 11
131.49999999999969
 21
50.0
 31
0.0
  0
LINE
  5
B1B9
  8
0
 10
131.49999999999969
 20
50.0
 30
0.0
 11
150.49999999999969
 21
50.0
 31
0.0
  0
POLYLINE
  5
B1BA
  8
0
 10
123.12787514313665
 20
81.282300001394205
 30
0.0
 66
     1
 70
     8
  0
VERTEX
  8
0
  5
B5E1
 10
123.128
 20
81.2823
 30
0.000000
  70
    32
  0
VERTEX
  8
0
  5
B5E2
 10
123.178
 20
81.2696
 30
0.000000
  70
    32
  0
VERTEX
  8
0
  5
B5E3
 10
123.228
 20
81.2570
 30
0.000000
  70
    32
  0
VERTEX
  8
0
  5
B5E4
 10
123.279
 20
81.2444
 30
0.000000
  70
    32
  0
VERTEX
  8
0
  5
B5E5
 10
123.329
 20
81.2319
 30
0.000000
  70
    32
  0
VERTEX
  8
0
  5
B5E6
 10
123.379
 20
81.2194
 30
0.000000
  70
    32
  0
VERTEX
  8
0
  5
B5E7
 10
123.430
 20
81.2069
 30
0.000000
  70
    32
  0
VERTEX
  8
0
  5
B5E8
 10
123.480
 20
81.1944
 30
0.000000
  70
    32
  0
VERTEX
  8
0
  5
B5E9
 10
123.530
 20
81.1820
 30
0.000000
  70
    32
  0
VERTEX
  8
0
  5
B5EA
 10
123.581
 20
81.1697
 30
0.000000
  70
    32
  0
VERTEX
  8
0
  5
B5EB
 10
123.631
 20
81.1573
 30
0.000000
  70
    32
  0
VERTEX
  8
0
  5
B5EC
 10
123.682
 20
81.1450
 30
0.000000
  70
    32
  0
VERTEX
  8
0
  5
B5ED
 10
123.732
 20
81.1328
 30
0.000000
  70
    32
  0
VERTEX
  8
0
  5
B5EE
 10
123.782
 20
81.1205
 30
0.000000
  70
    32
  0
VERTEX
  8
0
  5
B5EF
 10
123.833
 20
81.1083
 30
0.000000
  70
    32
  0
VERTEX
  8
0
  5
B5F0
 10
123.883
 20
81.0962
 30
0.000000
  70
    32
  0
VERTEX
  8
0
  5
B5F1
 10
123.934
 20
81.0840
 30
0.000000
  70
    32
  0
VERTEX
  8
0
  5
B5F2
 10
123.984
 20
81.0720
 30
0.000000
  70
    32
  0
VERTEX
  8
0
  5
B5F3
 10
124.035
 20
81.0599
 30
0.000000
  70
    32
  0
VERTEX
  8
0
  5
B5F4
 10
124.085
 20
81.0479
 30
0.000000
  70
    32
  0
VERTEX
  8
0
  5
B5F5
 10
124.135
 20
81.0359
 30
0.000000
  70
    32
  0
VERTEX
  8
0
  5
B5F6
 10
124.186
 20
81.0239
 30
0.000000
  70
    32
  0
VERTEX
  8
0
  5
B5F7
 10
124.236
 20
81.0120
 30
0.000000
  70
    32
  0
VERTEX
  8
0
  5
B5F8
 10
124.287
 20
81.0002
 30
0.000000
  70
    32
  0
VERTEX
  8
0
  5
B5F9
 10
124.337
 20
80.9883
 30
0.000000
  70
    32
  0
VERTEX
  8
0
  5
B5FA
 10
124.388
 20
80.9765
 30
0.000000
  70
    32
  0
VERTEX
  8
0
  5
B5FB
 10
124.438
 20
80.9647
 30
0.000000
  70
    32
  0
VERTEX
  8
0
  5
B5FC
 10
124.489
 20
80.9530
 30
0.000000
  70
    32
  0
VERTEX
  8
0
  5
B5FD
 10
124.539
 20
80.9413
 30
0.000000
  70
    32
  0
VERTEX
  8
0
  5
B5FE
 10
124.590
 20
80.9296
 30
0.000000
  70
    32
  0
VERTEX
  8
0
  5
B5FF
 10
124.641
 20
80.9180
 30
0.000000
  70
    32
  0
VERTEX
  8
0
  5
B600
 10
124.691
 20
80.9064
 30
0.000000
  70
    32
  0
VERTEX
  8
0
  5
B601
 10
124.742
 20
80.8949
 30
0.000000
  70
    32
  0
VERTEX
  8
0
  5
B602
 10
124.792
 20
80.8833
 30
0.000000
  70
    32
  0
VERTEX
  8
0
  5
B603
 10
124.843
 20
80.8718
 30
0.000000
  70
    32
  0
VERTEX
  8
0
  5
B604
 10
124.893
 20
80.8604
 30
0.000000
  70
    32
  0
VERTEX
  8
0
  5
B605
 10
124.944
 20
80.8490
 30
0.000000
  70
    32
  0
VERTEX
  8
0
  5
B606
 10
124.995
 20
80.8376
 30
0.000000
  70
    32
  0
VERTEX
  8
0
  5
B607
 10
125.045
 20
80.8263
 30
0.000000
  70
    32
  0
VERTEX
  8
0
  5
B608
 10
125.096
 20
80.8149
 30
0.000000
  70
    32
  0
VERTEX
  8
0
  5
B609
 10
125.146
 20
80.8037
 30
0.000000
  70
    32
  0
VERTEX
  8
0
  5
B60A
 10
125.197
 20
80.7924
 30
0.000000
  70
    32
  0
VERTEX
  8
0
  5
B60B
 10
125.248
 20
80.7812
 30
0.000000
  70
    32
  0
VERTEX
  8
0
  5
B60C
 10
125.298
 20
80.7701
 30
0.000000
  70
    32
  0
VERTEX
  8
0
  5
B60D
 10
125.349
 20
80.7589
 30
0.000000
  70
    32
  0
VERTEX
  8
0
  5
B60E
 10
125.400
 20
80.7478
 30
0.000000
  70
    32
  0
VERTEX
  8
0
  5
B60F
 10
125.450
 20
80.7368
 30
0.000000
  70
    32
  0
VERTEX
  8
0
  5
B610
 10
125.501
 20
80.7257
 30
0.000000
  70
    32
  0
VERTEX
  8
0
  5
B611
 10
125.552
 20
80.7148
 30
0.000000
  70
    32
  0
VERTEX
  8
0
  5
B612
 10
125.602
 20
80.7038
 30
0.000000
  70
    32
  0
VERTEX
  8
0
  5
B613
 10
125.653
 20
80.6929
 30
0.000000
  70
    32
  0
VERTEX
  8
0
  5
B614
 10
125.704
 20
80.6820
 30
0.000000
  70
    32
  0
VERTEX
  8
0
  5
B615
 10
125.754
 20
80.6712
 30
0.000000
  70
    32
  0
VERTEX
  8
0
  5
B616
 10
125.805
 20
80.6603
 30
0.000000
  70
    32
  0
VERTEX
  8
0
  5
B617
 10
125.856
 20
80.6496
 30
0.000000
  70
    32
  0
VERTEX
  8
0
  5
B618
 10
125.907
 20
80.6388
 30
0.000000
  70
    32
  0
VERTEX
  8
0
  5
B619
 10
125.957
 20
80.6281
 30
0.000000
  70
    32
  0
VERTEX
  8
0
  5
B61A
 10
126.008
 20
80.6175
 30
0.000000
  70
    32
  0
VERTEX
  8
0
  5
B61B
 10
126.059
 20
80.6068
 30
0.000000
  70
    32
  0
VERTEX
  8
0
  5
B61C
 10
126.110
 20
80.5962
 30
0.000000
  70
    32
  0
VERTEX
  8
0
  5
B61D
 10
126.160
 20
80.5857
 30
0.000000
  70
    32
  0
VERTEX
  8
0
  5
B61E
 10
126.211
 20
80.5751
 30
0.000000
  70
    32
  0
VERTEX
  8
0
  5
B61F
 10
126.262
 20
80.5647
 30
0.000000
  70
    32
  0
VERTEX
  8
0
  5
B620
 10
126.313
 20
80.5542
 30
0.000000
  70
    32
  0
VERTEX
  8
0
  5
B621
 10
126.364
 20
80.5438
 30
0.000000
  70
    32
  0
VERTEX
  8
0
  5
B622
 10
126.414
 20
80.5334
 30
0.000000
  70
    32
  0
VERTEX
  8
0
  5
B623
 10
126.465
 20
80.5231
 30
0.000000
  70
    32
  0
VERTEX
  8
0
  5
B624
 10
126.516
 20
80.5127
 30
0.000000
  70
    32
  0
VERTEX
  8
0
  5
B625
 10
126.567
 20
80.5025
 30
0.000000
  70
    32
  0
VERTEX
  8
0
  5
B626
 10
126.618
 20
80.4922
 30
0.000000
  70
    32
  0
VERTEX
  8
0
  5
B627
 10
126.669
 20
80.4820
 30
0.000000
  70
    32
  0
VERTEX
  8
0
  5
B628
 10
126.719
 20
80.4719
 30
0.000000
  70
    32
  0
VERTEX
  8
0
  5
B629
 10
126.770
 20
80.4617
 30
0.000000
  70
    32
  0
VERTEX
  8
0
  5
B62A
 10
126.821
 20
80.4516
 30
0.000000
  70
    32
  0
VERTEX
  8
0
  5
B62B
 10
126.872
 20
80.4416
 30
0.000000
  70
    32
  0
VERTEX
  8
0
  5
B62C
 10
126.923
 20
80.4315
 30
0.000000
  70
    32
  0
VERTEX
  8
0
  5
B62D
 10
126.974
 20
80.4215
 30
0.000000
  70
    32
  0
VERTEX
  8
0
  5
B62E
 10
127.025
 20
80.4116
 30
0.000000
  70
    32
  0
VERTEX
  8
0
  5
B62F
 10
127.076
 20
80.4017
 30
0.000000
  70
    32
  0
VERTEX
  8
0
  5
B630
 10
127.127
 20
80.3918
 30
0.000000
  70
    32
  0
VERTEX
  8
0
  5
B631
 10
127.178
 20
80.3819
 30
0.000000
  70
    32
  0
VERTEX
  8
0
  5
B632
 10
127.228
 20
80.3721
 30
0.000000
  70
    32
  0
VERTEX
  8
0
  5
B633
 10
127.279
 20
80.3624
 30
0.000000
  70
    32
  0
VERTEX
  8
0
  5
B634
 10
127.330
 20
80.3526
 30
0.000000
  70
    32
  0
VERTEX
  8
0
  5
B635
 10
127.381
 20
80.3429
 30
0.000000
  70
    32
  0
VERTEX
  8
0
  5
B636
 10
127.432
 20
80.3332
 30
0.000000
  70
    32
  0
VERTEX
  8
0
  5
B637
 10
127.483
 20
80.3236
 30
0.000000
  70
    32
  0
VERTEX
  8
0
  5
B638
 10
127.534
 20
80.3140
 30
0.000000
  70
    32
  0
VERTEX
  8
0
  5
B639
 10
127.585
 20
80.3045
 30
0.000000
  70
    32
  0
VERTEX
  8
0
  5
B63A
 10
127.636
 20
80.2949
 30
0.000000
  70
    32
  0
VERTEX
  8
0
  5
B63B
 10
127.687
 20
80.2854
 30
0.000000
  70
    32
  0
VERTEX
  8
0
  5
B63C
 10
127.738
 20
80.2760
 30
0.000000
  70
    32
  0
VERTEX
  8
0
  5
B63D
 10
127.789
 20
80.2666
 30
0.000000
  70
    32
  0
VERTEX
  8
0
  5
B63E
 10
127.840
 20
80.2572
 30
0.000000
  70
    32
  0
VERTEX
  8
0
  5
B63F
 10
127.891
 20
80.2478
 30
0.000000
  70
    32
  0
VERTEX
  8
0
  5
B640
 10
127.942
 20
80.2385
 30
0.000000
  70
    32
  0
VERTEX
  8
0
  5
B641
 10
127.993
 20
80.2293
 30
0.000000
  70
    32
  0
VERTEX
  8
0
  5
B642
 10
128.044
 20
80.2200
 30
0.000000
  70
    32
  0
VERTEX
  8
0
  5
B643
 10
128.095
 20
80.2108
 30
0.000000
  70
    32
  0
VERTEX
  8
0
  5
B644
 10
128.146
 20
80.2017
 30
0.000000
  70
    32
  0
VERTEX
  8
0
  5
B645
 10
128.197
 20
80.1925
 30
0.000000
  70
    32
  0
VERTEX
  8
0
  5
B646
 10
128.248
 20
80.1834
 30
0.000000
  70
    32
  0
VERTEX
  8
0
  5
B647
 10
128.299
 20
80.1744
 30
0.000000
  70
    32
  0
VERTEX
  8
0
  5
B648
 10
128.350
 20
80.1654
 30
0.000000
  70
    32
  0
VERTEX
  8
0
  5
B649
 10
128.402
 20
80.1564
 30
0.000000
  70
    32
  0
VERTEX
  8
0
  5
B64A
 10
128.453
 20
80.1474
 30
0.000000
  70
    32
  0
VERTEX
  8
0
  5
B64B
 10
128.504
 20
80.1385
 30
0.000000
  70
    32
  0
VERTEX
  8
0
  5
B64C
 10
128.555
 20
80.1296
 30
0.000000
  70
    32
  0
VERTEX
  8
0
  5
B64D
 10
128.606
 20
80.1208
 30
0.000000
  70
    32
  0
VERTEX
  8
0
  5
B64E
 10
128.657
 20
80.1120
 30
0.000000
  70
    32
  0
VERTEX
  8
0
  5
B64F
 10
128.708
 20
80.1032
 30
0.000000
  70
    32
  0
VERTEX
  8
0
  5
B650
 10
128.759
 20
80.0945
 30
0.000000
  70
    32
  0
VERTEX
  8
0
  5
B651
 10
128.810
 20
80.0858
 30
0.000000
  70
    32
  0
VERTEX
  8
0
  5
B652
 10
128.862
 20
80.0771
 30
0.000000
  70
    32
  0
VERTEX
  8
0
  5
B653
 10
128.913
 20
80.0685
 30
0.000000
  70
    32
  0
VERTEX
  8
0
  5
B654
 10
128.964
 20
80.0599
 30
0.000000
  70
    32
  0
VERTEX
  8
0
  5
B655
 10
129.015
 20
80.0513
 30
0.000000
  70
    32
  0
VERTEX
  8
0
  5
B656
 10
129.066
 20
80.0428
 30
0.000000
  70
    32
  0
VERTEX
  8
0
  5
B657
 10
129.117
 20
80.0343
 30
0.000000
  70
    32
  0
VERTEX
  8
0
  5
B658
 10
129.168
 20
80.0259
 30
0.000000
  70
    32
  0
VERTEX
  8
0
  5
B659
 10
129.220
 20
80.0175
 30
0.000000
  70
    32
  0
VERTEX
  8
0
  5
B65A
 10
129.271
 20
80.0091
 30
0.000000
  70
    32
  0
VERTEX
  8
0
  5
B65B
 10
129.322
 20
80.0007
 30
0.000000
  70
    32
  0
VERTEX
  8
0
  5
B65C
 10
129.373
 20
79.9924
 30
0.000000
  70
    32
  0
VERTEX
  8
0
  5
B65D
 10
129.424
 20
79.9842
 30
0.000000
  70
    32
  0
VERTEX
  8
0
  5
B65E
 10
129.476
 20
79.9759
 30
0.000000
  70
    32
  0
VERTEX
  8
0
  5
B65F
 10
129.527
 20
79.9677
 30
0.000000
  70
    32
  0
VERTEX
  8
0
  5
B660
 10
129.578
 20
79.9596
 30
0.000000
  70
    32
  0
VERTEX
  8
0
  5
B661
 10
129.629
 20
79.9515
 30
0.000000
  70
    32
  0
SEQEND
  8
0
  5
B662
  0
POLYLINE
  5
B1BB
  8
0
 66
     1
 10
0.0
 20
0.0
 30
0.0
  0
VERTEX
  5
B446
  8
0
 10
132.92462300389639
 20
79.610908026839638
 30
0.0
  0
VERTEX
  5
B447
  8
0
 10
132.56733310593989
 20
79.619857845682404
 30
0.0
  0
VERTEX
  5
B448
  8
0
 10
132.136050296539
 20
79.646183369830396
 30
0.0
  0
VERTEX
  5
B449
  8
0
 10
131.6423899421556
 20
79.689327093302381
 30
0.0
  0
VERTEX
  5
B44A
  8
0
 10
131.10124160589589
 20
79.747792103913284
 30
0.0
  0
VERTEX
  5
B44B
  8
0
 10
130.52344352539029
 20
79.820616315497034
 30
0.0
  0
VERTEX
  5
B44C
  8
0
 10
129.92903343746141
 20
79.905203999296873
 30
0.0
  0
VERTEX
  5
B44D
  8
0
 10
129.62922708756011
 20
79.951455790993919
 30
0.0
  0
SEQEND
  5
B44E
  8
0
  0
LINE
  5
B1BC
  8
0
 10
132.92462300389639
 20
79.610908026839638
 30
0.0
 11
149.07537706973059
 21
79.610908026839581
 31
0.0
  0
POLYLINE
  5
B1BD
  8
0
 66
     1
 10
0.0
 20
0.0
 30
0.0
  0
VERTEX
  5
B44F
  8
0
 10
152.37077291243941
 20
79.951455790993805
 30
0.0
  0
VERTEX
  5
B450
  8
0
 10
151.9674284535001
 20
79.889811261603541
 30
0.0
  0
VERTEX
  5
B451
  8
0
 10
151.56429226429529
 20
79.832499565090416
 30
0.0
  0
VERTEX
  5
B452
  8
0
 10
151.16890300472841
 20
79.780602583379732
 30
0.0
  0
VERTEX
  5
B453
  8
0
 10
150.78491289514821
 20
79.734678155596782
 30
0.0
  0
VERTEX
  5
B454
  8
0
 10
150.4162272586475
 20
79.69514564944626
 30
0.0
  0
VERTEX
  5
B455
  8
0
 10
150.070034160771
 20
79.662787576396511
 30
0.0
  0
VERTEX
  5
B456
  8
0
 10
149.75360243930481
 20
79.63828284757642
 30
0.0
  0
VERTEX
  5
B457
  8
0
 10
149.46569634061589
 20
79.621375167373458
 30
0.0
  0
VERTEX
  5
B458
  8
0
 10
149.2119305755993
 20
79.612403016136113
 30
0.0
  0
VERTEX
  5
B459
  8
0
 10
149.07537706973059
 20
79.610908026839581
 30
0.0
  0
SEQEND
  5
B45A
  8
0
  0
POLYLINE
  5
B1BE
  8
0
 10
152.37077291255261
 20
79.95145579027438
 30
0.0
 66
     1
 70
     8
  0
VERTEX
  8
0
  5
B663
 10
152.371
 20
79.9515
 30
0.000000
  70
    32
  0
VERTEX
  8
0
  5
B664
 10
152.422
 20
79.9596
 30
0.000000
  70
    32
  0
VERTEX
  8
0
  5
B665
 10
152.473
 20
79.9677
 30
0.000000
  70
    32
  0
VERTEX
  8
0
  5
B666
 10
152.524
 20
79.9759
 30
0.000000
  70
    32
  0
VERTEX
  8
0
  5
B667
 10
152.576
 20
79.9842
 30
0.000000
  70
    32
  0
VERTEX
  8
0
  5
B668
 10
152.627
 20
79.9924
 30
0.000000
  70
    32
  0
VERTEX
  8
0
  5
B669
 10
152.678
 20
80.0007
 30
0.000000
  70
    32
  0
VERTEX
  8
0
  5
B66A
 10
152.729
 20
80.0091
 30
0.000000
  70
    32
  0
VERTEX
  8
0
  5
B66B
 10
152.780
 20
80.0175
 30
0.000000
  70
    32
  0
VERTEX
  8
0
  5
B66C
 10
152.832
 20
80.0259
 30
0.000000
  70
    32
  0
VERTEX
  8
0
  5
B66D
 10
152.883
 20
80.0343
 30
0.000000
  70
    32
  0
VERTEX
  8
0
  5
B66E
 10
152.934
 20
80.0428
 30
0.000000
  70
    32
  0
VERTEX
  8
0
  5
B66F
 10
152.985
 20
80.0513
 30
0.000000
  70
    32
  0
VERTEX
  8
0
  5
B670
 10
153.036
 20
80.0599
 30
0.000000
  70
    32
  0
VERTEX
  8
0
  5
B671
 10
153.087
 20
80.0685
 30
0.000000
  70
    32
  0
VERTEX
  8
0
  5
B672
 10
153.138
 20
80.0771
 30
0.000000
  70
    32
  0
VERTEX
  8
0
  5
B673
 10
153.190
 20
80.0858
 30
0.000000
  70
    32
  0
VERTEX
  8
0
  5
B674
 10
153.241
 20
80.0945
 30
0.000000
  70
    32
  0
VERTEX
  8
0
  5
B675
 10
153.292
 20
80.1032
 30
0.000000
  70
    32
  0
VERTEX
  8
0
  5
B676
 10
153.343
 20
80.1120
 30
0.000000
  70
    32
  0
VERTEX
  8
0
  5
B677
 10
153.394
 20
80.1208
 30
0.000000
  70
    32
  0
VERTEX
  8
0
  5
B678
 10
153.445
 20
80.1296
 30
0.000000
  70
    32
  0
VERTEX
  8
0
  5
B679
 10
153.496
 20
80.1385
 30
0.000000
  70
    32
  0
VERTEX
  8
0
  5
B67A
 10
153.547
 20
80.1474
 30
0.000000
  70
    32
  0
VERTEX
  8
0
  5
B67B
 10
153.598
 20
80.1564
 30
0.000000
  70
    32
  0
VERTEX
  8
0
  5
B67C
 10
153.650
 20
80.1654
 30
0.000000
  70
    32
  0
VERTEX
  8
0
  5
B67D
 10
153.701
 20
80.1744
 30
0.000000
  70
    32
  0
VERTEX
  8
0
  5
B67E
 10
153.752
 20
80.1834
 30
0.000000
  70
    32
  0
VERTEX
  8
0
  5
B67F
 10
153.803
 20
80.1925
 30
0.000000
  70
    32
  0
VERTEX
  8
0
  5
B680
 10
153.854
 20
80.2017
 30
0.000000
  70
    32
  0
VERTEX
  8
0
  5
B681
 10
153.905
 20
80.2108
 30
0.000000
  70
    32
  0
VERTEX
  8
0
  5
B682
 10
153.956
 20
80.2200
 30
0.000000
  70
    32
  0
VERTEX
  8
0
  5
B683
 10
154.007
 20
80.2293
 30
0.000000
  70
    32
  0
VERTEX
  8
0
  5
B684
 10
154.058
 20
80.2385
 30
0.000000
  70
    32
  0
VERTEX
  8
0
  5
B685
 10
154.109
 20
80.2478
 30
0.000000
  70
    32
  0
VERTEX
  8
0
  5
B686
 10
154.160
 20
80.2572
 30
0.000000
  70
    32
  0
VERTEX
  8
0
  5
B687
 10
154.211
 20
80.2666
 30
0.000000
  70
    32
  0
VERTEX
  8
0
  5
B688
 10
154.262
 20
80.2760
 30
0.000000
  70
    32
  0
VERTEX
  8
0
  5
B689
 10
154.313
 20
80.2854
 30
0.000000
  70
    32
  0
VERTEX
  8
0
  5
B68A
 10
154.364
 20
80.2949
 30
0.000000
  70
    32
  0
VERTEX
  8
0
  5
B68B
 10
154.415
 20
80.3045
 30
0.000000
  70
    32
  0
VERTEX
  8
0
  5
B68C
 10
154.466
 20
80.3140
 30
0.000000
  70
    32
  0
VERTEX
  8
0
  5
B68D
 10
154.517
 20
80.3236
 30
0.000000
  70
    32
  0
VERTEX
  8
0
  5
B68E
 10
154.568
 20
80.3332
 30
0.000000
  70
    32
  0
VERTEX
  8
0
  5
B68F
 10
154.619
 20
80.3429
 30
0.000000
  70
    32
  0
VERTEX
  8
0
  5
B690
 10
154.670
 20
80.3526
 30
0.000000
  70
    32
  0
VERTEX
  8
0
  5
B691
 10
154.721
 20
80.3624
 30
0.000000
  70
    32
  0
VERTEX
  8
0
  5
B692
 10
154.772
 20
80.3721
 30
0.000000
  70
    32
  0
VERTEX
  8
0
  5
B693
 10
154.822
 20
80.3819
 30
0.000000
  70
    32
  0
VERTEX
  8
0
  5
B694
 10
154.873
 20
80.3918
 30
0.000000
  70
    32
  0
VERTEX
  8
0
  5
B695
 10
154.924
 20
80.4017
 30
0.000000
  70
    32
  0
VERTEX
  8
0
  5
B696
 10
154.975
 20
80.4116
 30
0.000000
  70
    32
  0
VERTEX
  8
0
  5
B697
 10
155.026
 20
80.4215
 30
0.000000
  70
    32
  0
VERTEX
  8
0
  5
B698
 10
155.077
 20
80.4315
 30
0.000000
  70
    32
  0
VERTEX
  8
0
  5
B699
 10
155.128
 20
80.4416
 30
0.000000
  70
    32
  0
VERTEX
  8
0
  5
B69A
 10
155.179
 20
80.4516
 30
0.000000
  70
    32
  0
VERTEX
  8
0
  5
B69B
 10
155.230
 20
80.4617
 30
0.000000
  70
    32
  0
VERTEX
  8
0
  5
B69C
 10
155.281
 20
80.4719
 30
0.000000
  70
    32
  0
VERTEX
  8
0
  5
B69D
 10
155.331
 20
80.4820
 30
0.000000
  70
    32
  0
VERTEX
  8
0
  5
B69E
 10
155.382
 20
80.4922
 30
0.000000
  70
    32
  0
VERTEX
  8
0
  5
B69F
 10
155.433
 20
80.5025
 30
0.000000
  70
    32
  0
VERTEX
  8
0
  5
B6A0
 10
155.484
 20
80.5127
 30
0.000000
  70
    32
  0
VERTEX
  8
0
  5
B6A1
 10
155.535
 20
80.5231
 30
0.000000
  70
    32
  0
VERTEX
  8
0
  5
B6A2
 10
155.586
 20
80.5334
 30
0.000000
  70
    32
  0
VERTEX
  8
0
  5
B6A3
 10
155.636
 20
80.5438
 30
0.000000
  70
    32
  0
VERTEX
  8
0
  5
B6A4
 10
155.687
 20
80.5542
 30
0.000000
  70
    32
  0
VERTEX
  8
0
  5
B6A5
 10
155.738
 20
80.5647
 30
0.000000
  70
    32
  0
VERTEX
  8
0
  5
B6A6
 10
155.789
 20
80.5751
 30
0.000000
  70
    32
  0
VERTEX
  8
0
  5
B6A7
 10
155.840
 20
80.5857
 30
0.000000
  70
    32
  0
VERTEX
  8
0
  5
B6A8
 10
155.890
 20
80.5962
 30
0.000000
  70
    32
  0
VERTEX
  8
0
  5
B6A9
 10
155.941
 20
80.6068
 30
0.000000
  70
    32
  0
VERTEX
  8
0
  5
B6AA
 10
155.992
 20
80.6175
 30
0.000000
  70
    32
  0
VERTEX
  8
0
  5
B6AB
 10
156.043
 20
80.6281
 30
0.000000
  70
    32
  0
VERTEX
  8
0
  5
B6AC
 10
156.093
 20
80.6388
 30
0.000000
  70
    32
  0
VERTEX
  8
0
  5
B6AD
 10
156.144
 20
80.6496
 30
0.000000
  70
    32
  0
VERTEX
  8
0
  5
B6AE
 10
156.195
 20
80.6603
 30
0.000000
  70
    32
  0
VERTEX
  8
0
  5
B6AF
 10
156.246
 20
80.6712
 30
0.000000
  70
    32
  0
VERTEX
  8
0
  5
B6B0
 10
156.296
 20
80.6820
 30
0.000000
  70
    32
  0
VERTEX
  8
0
  5
B6B1
 10
156.347
 20
80.6929
 30
0.000000
  70
    32
  0
VERTEX
  8
0
  5
B6B2
 10
156.398
 20
80.7038
 30
0.000000
  70
    32
  0
VERTEX
  8
0
  5
B6B3
 10
156.448
 20
80.7148
 30
0.000000
  70
    32
  0
VERTEX
  8
0
  5
B6B4
 10
156.499
 20
80.7257
 30
0.000000
  70
    32
  0
VERTEX
  8
0
  5
B6B5
 10
156.550
 20
80.7368
 30
0.000000
  70
    32
  0
VERTEX
  8
0
  5
B6B6
 10
156.600
 20
80.7478
 30
0.000000
  70
    32
  0
VERTEX
  8
0
  5
B6B7
 10
156.651
 20
80.7589
 30
0.000000
  70
    32
  0
VERTEX
  8
0
  5
B6B8
 10
156.702
 20
80.7701
 30
0.000000
  70
    32
  0
VERTEX
  8
0
  5
B6B9
 10
156.752
 20
80.7812
 30
0.000000
  70
    32
  0
VERTEX
  8
0
  5
B6BA
 10
156.803
 20
80.7924
 30
0.000000
  70
    32
  0
VERTEX
  8
0
  5
B6BB
 10
156.854
 20
80.8037
 30
0.000000
  70
    32
  0
VERTEX
  8
0
  5
B6BC
 10
156.904
 20
80.8149
 30
0.000000
  70
    32
  0
VERTEX
  8
0
  5
B6BD
 10
156.955
 20
80.8263
 30
0.000000
  70
    32
  0
VERTEX
  8
0
  5
B6BE
 10
157.005
 20
80.8376
 30
0.000000
  70
    32
  0
VERTEX
  8
0
  5
B6BF
 10
157.056
 20
80.8490
 30
0.000000
  70
    32
  0
VERTEX
  8
0
  5
B6C0
 10
157.107
 20
80.8604
 30
0.000000
  70
    32
  0
VERTEX
  8
0
  5
B6C1
 10
157.157
 20
80.8718
 30
0.000000
  70
    32
  0
VERTEX
  8
0
  5
B6C2
 10
157.208
 20
80.8833
 30
0.000000
  70
    32
  0
VERTEX
  8
0
  5
B6C3
 10
157.258
 20
80.8949
 30
0.000000
  70
    32
  0
VERTEX
  8
0
  5
B6C4
 10
157.309
 20
80.9064
 30
0.000000
  70
    32
  0
VERTEX
  8
0
  5
B6C5
 10
157.359
 20
80.9180
 30
0.000000
  70
    32
  0
VERTEX
  8
0
  5
B6C6
 10
157.410
 20
80.9296
 30
0.000000
  70
    32
  0
VERTEX
  8
0
  5
B6C7
 10
157.461
 20
80.9413
 30
0.000000
  70
    32
  0
VERTEX
  8
0
  5
B6C8
 10
157.511
 20
80.9530
 30
0.000000
  70
    32
  0
VERTEX
  8
0
  5
B6C9
 10
157.562
 20
80.9647
 30
0.000000
  70
    32
  0
VERTEX
  8
0
  5
B6CA
 10
157.612
 20
80.9765
 30
0.000000
  70
    32
  0
VERTEX
  8
0
  5
B6CB
 10
157.663
 20
80.9883
 30
0.000000
  70
    32
  0
VERTEX
  8
0
  5
B6CC
 10
157.713
 20
81.0002
 30
0.000000
  70
    32
  0
VERTEX
  8
0
  5
B6CD
 10
157.764
 20
81.0120
 30
0.000000
  70
    32
  0
VERTEX
  8
0
  5
B6CE
 10
157.814
 20
81.0239
 30
0.000000
  70
    32
  0
VERTEX
  8
0
  5
B6CF
 10
157.865
 20
81.0359
 30
0.000000
  70
    32
  0
VERTEX
  8
0
  5
B6D0
 10
157.915
 20
81.0479
 30
0.000000
  70
    32
  0
VERTEX
  8
0
  5
B6D1
 10
157.965
 20
81.0599
 30
0.000000
  70
    32
  0
VERTEX
  8
0
  5
B6D2
 10
158.016
 20
81.0720
 30
0.000000
  70
    32
  0
VERTEX
  8
0
  5
B6D3
 10
158.066
 20
81.0840
 30
0.000000
  70
    32
  0
VERTEX
  8
0
  5
B6D4
 10
158.117
 20
81.0962
 30
0.000000
  70
    32
  0
VERTEX
  8
0
  5
B6D5
 10
158.167
 20
81.1083
 30
0.000000
  70
    32
  0
VERTEX
  8
0
  5
B6D6
 10
158.218
 20
81.1205
 30
0.000000
  70
    32
  0
VERTEX
  8
0
  5
B6D7
 10
158.268
 20
81.1328
 30
0.000000
  70
    32
  0
VERTEX
  8
0
  5
B6D8
 10
158.318
 20
81.1450
 30
0.000000
  70
    32
  0
VERTEX
  8
0
  5
B6D9
 10
158.369
 20
81.1573
 30
0.000000
  70
    32
  0
VERTEX
  8
0
  5
B6DA
 10
158.419
 20
81.1697
 30
0.000000
  70
    32
  0
VERTEX
  8
0
  5
B6DB
 10
158.470
 20
81.1820
 30
0.000000
  70
    32
  0
VERTEX
  8
0
  5
B6DC
 10
158.520
 20
81.1944
 30
0.000000
  70
    32
  0
VERTEX
  8
0
  5
B6DD
 10
158.570
 20
81.2069
 30
0.000000
  70
    32
  0
VERTEX
  8
0
  5
B6DE
 10
158.621
 20
81.2194
 30
0.000000
  70
    32
  0
VERTEX
  8
0
  5
B6DF
 10
158.671
 20
81.2319
 30
0.000000
  70
    32
  0
VERTEX
  8
0
  5
B6E0
 10
158.721
 20
81.2444
 30
0.000000
  70
    32
  0
VERTEX
  8
0
  5
B6E1
 10
158.772
 20
81.2570
 30
0.000000
  70
    32
  0
VERTEX
  8
0
  5
B6E2
 10
158.822
 20
81.2696
 30
0.000000
  70
    32
  0
VERTEX
  8
0
  5
B6E3
 10
158.872
 20
81.2823
 30
0.000000
  70
    32
  0
SEQEND
  8
0
  5
B6E4
  0
LINE
  5
B1BF
  8
1
 10
59.5
 20
45.0
 30
0.0
 11
59.5
 21
86.999999999999886
 31
0.0
  0
LINE
  5
B1C0
  8
0
 10
69.0
 20
50.0
 30
0.0
 11
69.0
 21
79.610908026839638
 31
0.0
  0
LINE
  5
B1C1
  8
0
 10
50.0
 20
79.610908026839638
 30
0.0
 11
50.0
 21
50.0
 31
0.0
  0
LINE
  5
B1C2
  8
0
 10
50.0
 20
50.0
 30
0.0
 11
69.0
 21
50.0
 31
0.0
  0
LINE
  5
B1C3
  8
0
 10
54.496172946467368
 20
79.610908026839581
 30
0.0
 11
54.496172946467368
 21
57.5
 31
0.0
  0
POLYLINE
  5
B1C4
  8
0
 66
     1
 10
0.0
 20
0.0
 30
0.0
  0
VERTEX
  5
B45B
  8
0
 10
55.11524282475682
 20
79.626197132708342
 30
0.0
  0
VERTEX
  5
B45C
  8
0
 10
55.01450132219599
 20
79.621375167373458
 30
0.0
  0
VERTEX
  5
B45D
  8
0
 10
54.70061078699576
 20
79.612403016136113
 30
0.0
  0
VERTEX
  5
B45E
  8
0
 10
54.496172946467603
 20
79.610908026839525
 30
0.0
  0
SEQEND
  5
B45F
  8
0
  0
POLYLINE
  5
B1C5
  8
0
 66
     1
 10
0.0
 20
0.0
 30
0.0
  0
VERTEX
  5
B460
  8
0
 10
56.199985849580457
 20
58.051949650006911
 30
0.0
  0
VERTEX
  5
B461
  8
0
 10
56.195735240716317
 20
58.007445396497467
 30
0.0
  0
VERTEX
  5
B462
  8
0
 10
56.153572739456081
 20
57.905492009983618
 30
0.0
  0
VERTEX
  5
B463
  8
0
 10
56.065978071473978
 20
57.811843341755832
 30
0.0
  0
VERTEX
  5
B464
  8
0
 10
55.932161168899029
 20
57.727692543427793
 30
0.0
  0
VERTEX
  5
B465
  8
0
 10
55.753528591209488
 20
57.654409465452488
 30
0.0
  0
VERTEX
  5
B466
  8
0
 10
55.533034238764337
 20
57.593983924212068
 30
0.0
  0
VERTEX
  5
B467
  8
0
 10
55.281672719461092
 20
57.54918020585302
 30
0.0
  0
VERTEX
  5
B468
  8
0
 10
54.995099421167872
 20
57.518282499025979
 30
0.0
  0
VERTEX
  5
B469
  8
0
 10
54.67891776946567
 20
57.502251899832338
 30
0.0
  0
VERTEX
  5
B46A
  8
0
 10
54.496172946467482
 20
57.5
 30
0.0
  0
SEQEND
  5
B46B
  8
0
  0
LINE
  5
B1C6
  8
0
 10
64.50382698187957
 20
79.610908026839581
 30
0.0
 11
64.50382698187957
 21
57.5
 31
0.0
  0
LINE
  5
B1C7
  8
0
 10
62.800014150193192
 20
58.05194812056169
 30
0.0
 11
62.807709031279387
 21
58.115563498401507
 31
0.0
  0
POLYLINE
  5
B1C8
  8
0
 66
     1
 10
0.0
 20
0.0
 30
0.0
  0
VERTEX
  5
B46C
  8
0
 10
64.50382698187957
 20
79.610908026839581
 30
0.0
  0
VERTEX
  5
B46D
  8
0
 10
64.176663383960772
 20
79.614905132824958
 30
0.0
  0
VERTEX
  5
B46E
  8
0
 10
63.887597542823642
 20
79.626044084856005
 30
0.0
  0
SEQEND
  5
B46F
  8
0
  0
LINE
  5
B1C9
  8
0
 10
64.50382698187957
 20
79.610908026839581
 30
0.0
 11
69.0
 21
79.610908026839638
 31
0.0
  0
LINE
  5
B1CA
  8
0
 10
50.0
 20
79.610908026839638
 30
0.0
 11
54.496172946467368
 21
79.610908026839581
 31
0.0
  0
POLYLINE
  5
B1CB
  8
0
 66
     1
 10
0.0
 20
0.0
 30
0.0
  0
VERTEX
  5
B470
  8
0
 10
56.192290968720613
 20
58.11556349840145
 30
0.0
  0
VERTEX
  5
B471
  8
0
 10
56.0974998834198
 20
58.530710683916368
 30
0.0
  0
VERTEX
  5
B472
  8
0
 10
56.003318272523749
 20
58.977166000701907
 30
0.0
  0
VERTEX
  5
B473
  8
0
 10
55.909612641253261
 20
59.455470750248757
 30
0.0
  0
VERTEX
  5
B474
  8
0
 10
55.816600479587457
 20
59.964488277140042
 30
0.0
  0
VERTEX
  5
B475
  8
0
 10
55.72380743823782
 20
60.507020749990033
 30
0.0
  0
VERTEX
  5
B476
  8
0
 10
55.63179887784554
 20
61.079987829646598
 30
0.0
  0
VERTEX
  5
B477
  8
0
 10
55.540448020038859
 20
61.68423588059273
 30
0.0
  0
VERTEX
  5
B478
  8
0
 10
55.449967663486397
 20
62.318414147378689
 30
0.0
  0
VERTEX
  5
B479
  8
0
 10
55.377202954621573
 20
62.854897284188041
 30
0.0
  0
VERTEX
  5
B47A
  8
0
 10
55.305060598644332
 20
63.41071443030296
 30
0.0
  0
SEQEND
  5
B47B
  8
0
  0
POLYLINE
  5
B1CC
  8
0
 66
     1
 10
0.0
 20
0.0
 30
0.0
  0
VERTEX
  5
B47C
  8
0
 10
63.694939401355548
 20
63.41071443030296
 30
0.0
  0
VERTEX
  5
B47D
  8
0
 10
63.588922190373289
 20
62.602168446379778
 30
0.0
  0
VERTEX
  5
B47E
  8
0
 10
63.481588389884671
 20
61.835377941999809
 30
0.0
  0
VERTEX
  5
B47F
  8
0
 10
63.372719288196322
 20
61.109040664509912
 30
0.0
  0
VERTEX
  5
B480
  8
0
 10
63.262666609723283
 20
60.425749075056501
 30
0.0
  0
VERTEX
  5
B481
  8
0
 10
63.150598855274673
 20
59.781047540178633
 30
0.0
  0
VERTEX
  5
B482
  8
0
 10
63.037473405307082
 20
59.181164856777507
 30
0.0
  0
VERTEX
  5
B483
  8
0
 10
62.923049548628107
 20
58.625216796209202
 30
0.0
  0
VERTEX
  5
B484
  8
0
 10
62.807709031279387
 20
58.115563498401507
 30
0.0
  0
SEQEND
  5
B485
  8
0
  0
LINE
  5
B1CD
  8
0
 10
54.496172946467368
 20
57.5
 30
0.0
 11
64.50382698187957
 21
57.5
 31
0.0
  0
POLYLINE
  5
B1CE
  8
0
 66
     1
 10
0.0
 20
0.0
 30
0.0
  0
VERTEX
  5
B486
  8
0
 10
64.50382698187957
 20
57.5
 30
0.0
  0
VERTEX
  5
B487
  8
0
 10
64.184796851565807
 20
57.507204571642319
 30
0.0
  0
VERTEX
  5
B488
  8
0
 10
63.89092547798316
 20
57.528401157770531
 30
0.0
  0
VERTEX
  5
B489
  8
0
 10
63.627681320624099
 20
57.56296407438316
 30
0.0
  0
VERTEX
  5
B48A
  8
0
 10
63.39798965012438
 20
57.61039326995455
 30
0.0
  0
VERTEX
  5
B48B
  8
0
 10
63.202784576100051
 20
57.669680179599823
 30
0.0
  0
VERTEX
  5
B48C
  8
0
 10
63.045062739930472
 20
57.739350487772533
 30
0.0
  0
VERTEX
  5
B48D
  8
0
 10
62.923754789844111
 20
57.820545318130662
 30
0.0
  0
VERTEX
  5
B48E
  8
0
 10
62.843134798544838
 20
57.910492942069538
 30
0.0
  0
VERTEX
  5
B48F
  8
0
 10
62.804008817656502
 20
58.007350550764379
 30
0.0
  0
VERTEX
  5
B490
  8
0
 10
62.800014150193192
 20
58.05194812056169
 30
0.0
  0
SEQEND
  5
B491
  8
0
  0
LINE
  5
B1CF
  8
0
 10
56.192290968720613
 20
58.11556349840145
 30
0.0
 11
56.199985849580457
 21
58.051949650006911
 31
0.0
  0
LINE
  5
B1D0
  8
0
 10
64.0
 20
77.680295231026093
 30
0.0
 11
64.0
 21
67.119704768952303
 31
0.0
  0
LINE
  5
B1D1
  8
0
 10
55.0
 20
77.68029523104758
 30
0.0
 11
55.0
 21
67.119704768950442
 31
0.0
  0
POLYLINE
  5
B1D2
  8
0
 66
     1
 10
0.0
 20
0.0
 30
0.0
  0
VERTEX
  5
B492
  8
0
 10
55.000000000000682
 20
77.680295231041043
 30
0.0
  0
VERTEX
  5
B493
  8
0
 10
55.014788302018701
 20
78.00767123997764
 30
0.0
  0
VERTEX
  5
B494
  8
0
 10
55.030478860813218
 20
78.325920507310911
 30
0.0
  0
VERTEX
  5
B495
  8
0
 10
55.047108194886619
 20
78.635507275201576
 30
0.0
  0
VERTEX
  5
B496
  8
0
 10
55.064598431335178
 20
78.934718333084675
 30
0.0
  0
VERTEX
  5
B497
  8
0
 10
55.083264123181941
 20
79.22812053356472
 30
0.0
  0
VERTEX
  5
B498
  8
0
 10
55.102765747884519
 20
79.509589633740006
 30
0.0
  0
VERTEX
  5
B499
  8
0
 10
55.123148104122031
 20
79.779519196768547
 30
0.0
  0
VERTEX
  5
B49A
  8
0
 10
55.144307458136829
 20
80.036290823309344
 30
0.0
  0
VERTEX
  5
B49B
  8
0
 10
55.165349876054499
 20
80.270242147629062
 30
0.0
  0
VERTEX
  5
B49C
  8
0
 10
55.187043588367601
 20
80.491055647232088
 30
0.0
  0
VERTEX
  5
B49D
  8
0
 10
55.209432584472999
 20
80.698985559543928
 30
0.0
  0
VERTEX
  5
B49E
  8
0
 10
55.232407035194001
 20
80.892822587031915
 30
0.0
  0
VERTEX
  5
B49F
  8
0
 10
55.256358783267039
 20
81.075264975420282
 30
0.0
  0
VERTEX
  5
B4A0
  8
0
 10
55.280838908506887
 20
81.242292021950334
 30
0.0
  0
VERTEX
  5
B4A1
  8
0
 10
55.30589753174069
 20
81.394051079057022
 30
0.0
  0
VERTEX
  5
B4A2
  8
0
 10
55.331403043156222
 20
81.529552982527889
 30
0.0
  0
VERTEX
  5
B4A3
  8
0
 10
55.356394407512653
 20
81.644579327711554
 30
0.0
  0
VERTEX
  5
B4A4
  8
0
 10
55.38171780291804
 20
81.74389533344754
 30
0.0
  0
VERTEX
  5
B4A5
  8
0
 10
55.407420119302166
 20
81.827521904130677
 30
0.0
  0
VERTEX
  5
B4A6
  8
0
 10
55.433371706535688
 20
81.894874921726455
 30
0.0
  0
VERTEX
  5
B4A7
  8
0
 10
55.459999818938627
 20
81.946528083559656
 30
0.0
  0
VERTEX
  5
B4A8
  8
0
 10
55.486794894359043
 20
81.980954873025794
 30
0.0
  0
VERTEX
  5
B4A9
  8
0
 10
55.51380727555113
 20
81.998044238770774
 30
0.0
  0
VERTEX
  5
B4AA
  8
0
 10
55.526954240528987
 20
81.999998094306477
 30
0.0
  0
SEQEND
  5
B4AB
  8
0
  0
POLYLINE
  5
B1D3
  8
0
 66
     1
 10
0.0
 20
0.0
 30
0.0
  0
VERTEX
  5
B4AC
  8
0
 10
55.305060598644332
 20
63.41071443030296
 30
0.0
  0
VERTEX
  5
B4AD
  8
0
 10
55.27274131768911
 20
63.610902814240369
 30
0.0
  0
VERTEX
  5
B4AE
  8
0
 10
55.241168544294283
 20
63.838234110279529
 30
0.0
  0
VERTEX
  5
B4AF
  8
0
 10
55.210487413138139
 20
64.091692354208362
 30
0.0
  0
VERTEX
  5
B4B0
  8
0
 10
55.179927454257829
 20
64.379264484434827
 30
0.0
  0
VERTEX
  5
B4B1
  8
0
 10
55.150462025595289
 20
64.693228051947017
 30
0.0
  0
VERTEX
  5
B4B2
  8
0
 10
55.122235441212297
 20
65.032075399762903
 30
0.0
  0
VERTEX
  5
B4B3
  8
0
 10
55.088366720631598
 20
65.495931913613049
 30
0.0
  0
VERTEX
  5
B4B4
  8
0
 10
55.056775585491089
 20
65.996006153335202
 30
0.0
  0
VERTEX
  5
B4B5
  8
0
 10
55.027029316974669
 20
66.541782971880764
 30
0.0
  0
VERTEX
  5
B4B6
  8
0
 10
55.0
 20
67.119704768950442
 30
0.0
  0
SEQEND
  5
B4B7
  8
0
  0
POLYLINE
  5
B1D4
  8
0
 66
     1
 10
0.0
 20
0.0
 30
0.0
  0
VERTEX
  5
B4B8
  8
0
 10
64.0
 20
67.119704768952303
 30
0.0
  0
VERTEX
  5
B4B9
  8
0
 10
63.979999495230913
 20
66.683608619491224
 30
0.0
  0
VERTEX
  5
B4BA
  8
0
 10
63.958433240308523
 20
66.264826503349752
 30
0.0
  0
VERTEX
  5
B4BB
  8
0
 10
63.935401568664822
 20
65.865281666915166
 30
0.0
  0
VERTEX
  5
B4BC
  8
0
 10
63.910220797526677
 20
65.475222430290501
 30
0.0
  0
VERTEX
  5
B4BD
  8
0
 10
63.883607607751181
 20
65.107439837912409
 30
0.0
  0
VERTEX
  5
B4BE
  8
0
 10
63.855692541863156
 20
64.76370917669044
 30
0.0
  0
VERTEX
  5
B4BF
  8
0
 10
63.818449748822097
 20
64.36303764676677
 30
0.0
  0
VERTEX
  5
B4C0
  8
0
 10
63.779414649181717
 20
64.004533819653773
 30
0.0
  0
VERTEX
  5
B4C1
  8
0
 10
63.737891576491961
 20
63.68382234464309
 30
0.0
  0
VERTEX
  5
B4C2
  8
0
 10
63.694939401355548
 20
63.41071443030296
 30
0.0
  0
SEQEND
  5
B4C3
  8
0
  0
LINE
  5
B1D5
  8
0
 10
63.474206519697411
 20
81.999999999999886
 30
0.0
 11
55.525809549939481
 21
81.999999999999886
 31
0.0
  0
POLYLINE
  5
B1D6
  8
0
 66
     1
 10
0.0
 20
0.0
 30
0.0
  0
VERTEX
  5
B4C4
  8
0
 10
63.47298918378101
 20
81.99999751402504
 30
0.0
  0
VERTEX
  5
B4C5
  8
0
 10
63.497080156218992
 20
81.993275175853213
 30
0.0
  0
VERTEX
  5
B4C6
  8
0
 10
63.52369100108001
 20
81.969564161451785
 30
0.0
  0
VERTEX
  5
B4C7
  8
0
 10
63.55074666278653
 20
81.927789006254599
 30
0.0
  0
VERTEX
  5
B4C8
  8
0
 10
63.577709940865468
 20
81.8681884661043
 30
0.0
  0
VERTEX
  5
B4C9
  8
0
 10
63.604630202505398
 20
81.790436947801936
 30
0.0
  0
VERTEX
  5
B4CA
  8
0
 10
63.631355418419503
 20
81.694753378742405
 30
0.0
  0
VERTEX
  5
B4CB
  8
0
 10
63.65666914216456
 20
81.586599418185244
 30
0.0
  0
VERTEX
  5
B4CC
  8
0
 10
63.681710419409342
 20
81.462219547882114
 30
0.0
  0
VERTEX
  5
B4CD
  8
0
 10
63.706520196018118
 20
81.321212554165299
 30
0.0
  0
VERTEX
  5
B4CE
  8
0
 10
63.730964784671869
 20
81.164135908297837
 30
0.0
  0
VERTEX
  5
B4CF
  8
0
 10
63.755436042352812
 20
80.987846918764262
 30
0.0
  0
VERTEX
  5
B4D0
  8
0
 10
63.779434619772587
 20
80.795297486370416
 30
0.0
  0
VERTEX
  5
B4D1
  8
0
 10
63.802999868833119
 20
80.585933509281389
 30
0.0
  0
VERTEX
  5
B4D2
  8
0
 10
63.825993877371502
 20
80.360734220690802
 30
0.0
  0
VERTEX
  5
B4D3
  8
0
 10
63.847379850906577
 20
80.131149968747081
 30
0.0
  0
VERTEX
  5
B4D4
  8
0
 10
63.868159900649061
 20
79.88774719210295
 30
0.0
  0
VERTEX
  5
B4D5
  8
0
 10
63.888363789295681
 20
79.629946097444872
 30
0.0
  0
VERTEX
  5
B4D6
  8
0
 10
63.907878590078433
 20
79.358946967788015
 30
0.0
  0
VERTEX
  5
B4D7
  8
0
 10
63.927003082030858
 20
79.06983493455931
 30
0.0
  0
VERTEX
  5
B4D8
  8
0
 10
63.945334202042773
 20
78.767895548080787
 30
0.0
  0
VERTEX
  5
B4D9
  8
0
 10
63.962896949996662
 20
78.452415742162543
 30
0.0
  0
VERTEX
  5
B4DA
  8
0
 10
63.979583791000778
 20
78.125008680803035
 30
0.0
  0
VERTEX
  5
B4DB
  8
0
 10
64.0
 20
77.680295231026207
 30
0.0
  0
SEQEND
  5
B4DC
  8
0
  0
CIRCLE
  5
B228
  8
0
 10
140.99999999999969
 20
131.99999999999989
 30
0.0
 40
4.1879999999999988
  0
CIRCLE
  5
B23B
  8
3
 10
140.99999999999969
 20
131.99999999999989
 30
0.0
 40
5.0
  0
LINE
  5
B23C
  8
2
 10
145.18799999999979
 20
50.812000000000012
 30
0.0
 11
145.18799999999979
 21
69.187999999999988
 31
0.0
  0
LINE
  5
B23D
  8
2
 10
136.81199999999981
 20
69.187999999999988
 30
0.0
 11
136.81199999999981
 21
50.812000000000012
 31
0.0
  0
LINE
  5
B23E
  8
2
 10
136.81199999999981
 20
50.812000000000012
 30
0.0
 11
135.99999999999969
 21
50.0
 31
0.0
  0
LINE
  5
B23F
  8
2
 10
145.9999999999998
 20
50.0
 30
0.0
 11
145.18799999999979
 21
50.812000000000012
 31
0.0
  0
LINE
  5
B240
  8
2
 10
136.81199999999981
 20
50.812000000000012
 30
0.0
 11
145.18799999999979
 21
50.812000000000012
 31
0.0
  0
LINE
  5
B241
  8
2
 10
145.18799999999979
 20
69.187999999999988
 30
0.0
 11
145.9999999999998
 21
70.0
 31
0.0
  0
LINE
  5
B242
  8
2
 10
135.99999999999969
 20
70.0
 30
0.0
 11
136.81199999999981
 21
69.187999999999988
 31
0.0
  0
LINE
  5
B243
  8
2
 10
136.81199999999981
 20
69.187999999999988
 30
0.0
 11
145.18799999999979
 21
69.187999999999988
 31
0.0
  0
LINE
  5
B244
  8
2
 10
146.24999999999969
 20
70.0
 30
0.0
 11
146.24999999999969
 21
72.0
 31
0.0
  0
LINE
  5
B245
  8
2
 10
135.74999999999969
 20
72.0
 30
0.0
 11
135.74999999999969
 21
70.0
 31
0.0
  0
LINE
  5
B246
  8
2
 10
135.74999999999969
 20
70.0
 30
0.0
 11
146.24999999999969
 21
70.0
 31
0.0
  0
LINE
  5
B247
  8
2
 10
147.99999999999969
 20
72.0
 30
0.0
 11
147.99999999999969
 21
79.610908026839581
 31
0.0
  0
LINE
  5
B248
  8
2
 10
133.99999999999989
 20
79.610908026839638
 30
0.0
 11
133.9999999999998
 21
72.0
 31
0.0
  0
LINE
  5
B249
  8
2
 10
133.9999999999998
 20
72.0
 30
0.0
 11
147.99999999999969
 21
72.0
 31
0.0
  0
LINE
  5
B24A
  8
2
 10
135.99999999999969
 20
70.0
 30
0.0
 11
135.99999999999969
 21
50.0
 31
0.0
  0
LINE
  5
B24B
  8
2
 10
145.9999999999998
 20
70.0
 30
0.0
 11
145.9999999999998
 21
50.0
 31
0.0
  0
ENDSEC
  0
EOF
