  0
SECTION
  2
HEADER
  9
$ACADVER
  1
AC1009
  9
$INSBASE
 10
0.0
 20
0.0
 30
0.0
  9
$EXTMIN
 10
0.0
 20
-2.960436562073669
 30
0.0
  9
$EXTMAX
 10
361.01617658599793
 20
222.13703990604381
 30
0.0
  9
$LIMMIN
 10
0.0
 20
0.0
  9
$LIMMAX
 10
375.0
 20
270.0
  9
$ORTHOMODE
 70
     0
  9
$REGENMODE
 70
     1
  9
$FILLMODE
 70
     1
  9
$QTEXTMODE
 70
     0
  9
$MIRRTEXT
 70
     0
  9
$DRAGMODE
 70
     2
  9
$LTSCALE
 40
10.0
  9
$OSMODE
 70
  3071
  9
$ATTMODE
 70
     1
  9
$TEXTSIZE
 40
0.2
  9
$TRACEWID
 40
0.05
  9
$TEXTSTYLE
  7
STANDARD
  9
$CLAYER
  8
0
  9
$CELTYPE
  6
BYLAYER
  9
$CECOLOR
 62
   256
  9
$DIMSCALE
 40
1.0
  9
$DIMASZ
 40
3.0
  9
$DIMEXO
 40
2.0
  9
$DIMDLI
 40
0.38
  9
$DIMRND
 40
0.0
  9
$DIMDLE
 40
0.0
  9
$DIMEXE
 40
2.0
  9
$DIMTP
 40
0.0
  9
$DIMTM
 40
0.0
  9
$DIMTXT
 40
3.0
  9
$DIMCEN
 40
0.0
  9
$DIMTSZ
 40
0.0
  9
$DIMTOL
 70
     0
  9
$DIMLIM
 70
     0
  9
$DIMTIH
 70
     0
  9
$DIMTOH
 70
     0
  9
$DIMSE1
 70
     0
  9
$DIMSE2
 70
     0
  9
$DIMTAD
 70
     1
  9
$DIMZIN
 70
     0
  9
$DIMBLK
  1

  9
$DIMASO
 70
     0
  9
$DIMSHO
 70
     0
  9
$DIMPOST
  1

  9
$DIMAPOST
  1

  9
$DIMALT
 70
     0
  9
$DIMALTD
 70
     2
  9
$DIMALTF
 40
25.399999999999999
  9
$DIMLFAC
 40
1.0
  9
$DIMTOFL
 70
     0
  9
$DIMTVP
 40
1.6000000000000001
  9
$DIMTIX
 70
     1
  9
$DIMSOXD
 70
     0
  9
$DIMSAH
 70
     0
  9
$DIMBLK1
  1

  9
$DIMBLK2
  1

  9
$DIMSTYLE
  2
STANDARD
  9
$DIMCLRD
 70
     0
  9
$DIMCLRE
 70
     0
  9
$DIMCLRT
 70
     0
  9
$DIMTFAC
 40
1.0
  9
$DIMGAP
 40
0.09
  9
$LUNITS
 70
     2
  9
$LUPREC
 70
     4
  9
$SKETCHINC
 40
0.1
  9
$FILLETRAD
 40
0.0
  9
$AUNITS
 70
     0
  9
$AUPREC
 70
     0
  9
$MENU
  1
E:\r13\win\SUPPORT\ACAD
  9
$ELEVATION
 40
0.0
  9
$PELEVATION
 40
0.0
  9
$THICKNESS
 40
0.0
  9
$LIMCHECK
 70
     0
  9
$BLIPMODE
 70
     0
  9
$CHAMFERA
 40
0.0
  9
$CHAMFERB
 40
0.0
  9
$SKPOLY
 70
     0
  9
$TDCREATE
 40
2449840.6013657409
  9
$TDUPDATE
 40
2456598.6843463541
  9
$TDINDWG
 40
0.0021869676
  9
$TDUSRTIMER
 40
0.0021869676
  9
$USRTIMER
 70
     1
  9
$ANGBASE
 50
0.0
  9
$ANGDIR
 70
     0
  9
$PDMODE
 70
     0
  9
$PDSIZE
 40
0.0
  9
$PLINEWID
 40
0.0
  9
$COORDS
 70
     1
  9
$SPLFRAME
 70
     0
  9
$SPLINETYPE
 70
     6
  9
$SPLINESEGS
 70
     8
  9
$ATTDIA
 70
     0
  9
$ATTREQ
 70
     1
  9
$HANDLING
 70
     1
  9
$HANDSEED
  5
4D1
  9
$SURFTAB1
 70
     6
  9
$SURFTAB2
 70
     6
  9
$SURFTYPE
 70
     6
  9
$SURFU
 70
     6
  9
$SURFV
 70
     6
  9
$UCSNAME
  2

  9
$UCSORG
 10
0.0
 20
0.0
 30
0.0
  9
$UCSXDIR
 10
1.0
 20
0.0
 30
0.0
  9
$UCSYDIR
 10
0.0
 20
1.0
 30
0.0
  9
$PUCSNAME
  2

  9
$PUCSORG
 10
0.0
 20
0.0
 30
0.0
  9
$PUCSXDIR
 10
1.0
 20
0.0
 30
0.0
  9
$PUCSYDIR
 10
0.0
 20
1.0
 30
0.0
  9
$USERI1
 70
     0
  9
$USERI2
 70
     1
  9
$USERI3
 70
     1
  9
$USERI4
 70
     0
  9
$USERI5
 70
     0
  9
$USERR1
 40
0.0
  9
$USERR2
 40
0.0
  9
$USERR3
 40
0.0
  9
$USERR4
 40
0.0
  9
$USERR5
 40
0.0
  9
$WORLDVIEW
 70
     1
  9
$SHADEDGE
 70
     3
  9
$SHADEDIF
 70
    70
  9
$TILEMODE
 70
     1
  9
$MAXACTVP
 70
    16
  9
$PLIMCHECK
 70
     0
  9
$PEXTMIN
 10
1.0000000000000000E+020
 20
1.0000000000000000E+020
 30
1.0000000000000000E+020
  9
$PEXTMAX
 10
-1.0000000000000000E+020
 20
-1.0000000000000000E+020
 30
-1.0000000000000000E+020
  9
$PLIMMIN
 10
0.0
 20
0.0
  9
$PLIMMAX
 10
12.0
 20
9.0
  9
$UNITMODE
 70
     0
  9
$VISRETAIN
 70
     0
  9
$PLINEGEN
 70
     0
  9
$PSLTSCALE
 70
     0
  0
ENDSEC
  0
SECTION
  2
TABLES
  0
TABLE
  2
VPORT
 70
     1
  0
VPORT
  2
*ACTIVE
 70
     0
 10
0.0
 20
0.0
 11
1.0
 21
1.0
 12
187.49427839065231
 22
169.9063198933564
 13
0.0
 23
0.0
 14
10.0
 24
10.0
 15
10.0
 25
10.0
 16
0.0
 26
0.0
 36
1.0
 17
0.0
 27
0.0
 37
0.0
 40
348.89937369551939
 41
1.831871345029239
 42
50.0
 43
0.0
 44
0.0
 50
0.0
 51
0.0
 71
     0
 72
   500
 73
     1
 74
     0
 75
     0
 76
     0
 77
     0
 78
     0
  0
ENDTAB
  0
TABLE
  2
LTYPE
 70
     3
  0
LTYPE
  2
CONTINUOUS
 70
     0
  3
Solid Line
 72
    65
 73
     0
 40
0.0
  0
LTYPE
  2
CENTER
 70
     0
  3
____ _ ____ _ ____ _ ____ _ ____ _ ____ _ ____
 72
    65
 73
     4
 40
2.0
 49
1.25
 49
-0.25
 49
0.25
 49
-0.25
  0
LTYPE
  2
PHANTOM2
 70
     0
  3
___ _ _ ___ _ _ ___ _ _ ___ _ _
 72
    65
 73
     6
 40
1.25
 49
0.625
 49
-0.125
 49
0.125
 49
-0.125
 49
0.125
 49
-0.125
  0
ENDTAB
  0
TABLE
  2
LAYER
 70
     3
  0
LAYER
  2
0
 70
     0
 62
     7
  6
CONTINUOUS
  0
LAYER
  2
1
 70
     0
 62
     1
  6
CENTER
  0
LAYER
  2
3
 70
     0
 62
     3
  6
CONTINUOUS
  0
ENDTAB
  0
TABLE
  2
STYLE
 70
     2
  0
STYLE
  2
STANDARD
 70
     0
 40
0.0
 41
1.0
 50
0.0
 71
     0
 42
0.2
  3
TXT
  4
BIGFONT
  0
STYLE
  2
STANDARD1
 70
     0
 40
0.0
 41
1.0
 50
0.0
 71
     0
 42
3.0
  3
txt
  4

  0
ENDTAB
  0
TABLE
  2
VIEW
 70
     1
  0
VIEW
  2
ALL
 70
     0
 40
270.0
 10
220.99159663865549
 20
135.0
 41
0.0
 11
0.0
 21
0.0
 31
1.0
 12
0.0
 22
0.0
 32
0.0
 42
0.0
 43
0.0
 44
0.0
 50
0.0
 71
     0
  0
ENDTAB
  0
TABLE
  2
UCS
 70
     0
  0
ENDTAB
  0
TABLE
  2
APPID
 70
     4
  0
APPID
  2
ACAD
 70
     0
  0
APPID
  2
DCO15
 70
     0
  0
APPID
  2
ACAD_MLEADERVER
 70
     0
  0
APPID
  2
ACAD_NAV_VCDISPLAY
 70
     0
  0
ENDTAB
  0
TABLE
  2
DIMSTYLE
 70
     1
  0
DIMSTYLE
  2
STANDARD
 70
     0
  3

  4

  5

  6

  7

 40
1.0
 41
0.18
 42
0.0625
 43
0.38
 44
0.18
 45
0.0
 46
0.0
 47
0.0
 48
0.0
140
0.18
141
0.09
142
0.0
143
25.399999999999999
144
1.0
145
0.0
146
1.0
147
0.09
 71
     0
 72
     0
 73
     1
 74
     1
 75
     0
 76
     0
 77
     0
 78
     0
170
     0
171
     2
172
     0
173
     0
174
     0
175
     0
176
     0
177
     0
178
     0
  0
ENDTAB
  0
ENDSEC
  0
SECTION
  2
BLOCKS
  0
BLOCK
  8
0
  2
$MODEL_SPACE
 70
     0
 10
0.0
 20
0.0
 30
0.0
  3
$MODEL_SPACE
  1

  0
ENDBLK
  5
F2
  8
0
  0
BLOCK
 67
     1
  8
0
  2
$PAPER_SPACE
 70
     0
 10
0.0
 20
0.0
 30
0.0
  3
$PAPER_SPACE
  1

  0
ENDBLK
  5
F0
 67
     1
  8
0
  0
ENDSEC
  0
SECTION
  2
ENTITIES
  0
LINE
  5
3B
  8
0
 10
203.87939999292141
 20
122.1370399060438
 30
0.0
 11
176.25455595056181
 21
120.75579770392569
 31
0.0
  0
LINE
  5
3C
  8
0
 10
176.25455595056181
 20
95.518282108162225
 30
0.0
 11
203.87939999292149
 21
94.137039906044095
 31
0.0
  0
ARC
  5
3D
  8
0
 10
262.77928863420891
 20
118.1370399060438
 30
0.0
 40
4.0
 50
12.55585779858588
 51
90.0
  0
ARC
  5
3E
  8
0
 10
262.77928863420891
 20
98.137039906044166
 30
0.0
 40
4.0
 50
269.9999999999996
 51
347.44414220141419
  0
ARC
  5
3F
  8
0
 10
217.87939999292161
 20
108.1370399060439
 30
0.0
 40
49.999999999999972
 50
347.44414220141419
 51
12.55585779858577
  0
LINE
  5
40
  8
0
 10
160.87939999292149
 20
114.6177806044518
 30
0.0
 11
170.87939999292149
 21
114.6177806044517
 31
0.0
  0
LINE
  5
41
  8
0
 10
160.87939999292149
 20
101.6562992076361
 30
0.0
 11
170.87939999292149
 21
101.6562992076362
 31
0.0
  0
ARC
  5
47
  8
0
 10
67.016176585997883
 20
108.1370399060439
 30
0.0
 40
11.0
 50
30.272641318909091
 51
149.72735868109069
  0
ARC
  5
48
  8
0
 10
67.016176585997883
 20
108.1370399060439
 30
0.0
 40
11.0
 50
210.27264131890931
 51
329.727358681091
  0
LINE
  5
4A
  8
0
 10
173.87939999292149
 20
98.015162955356843
 30
0.0
 11
173.87939999292149
 21
118.2589168567311
 31
0.0
  0
LINE
  5
4B
  8
0
 10
161.37939999292149
 20
96.637039906043981
 30
0.0
 11
161.37939999292149
 21
101.6562992076362
 31
0.0
  0
LINE
  5
4E
  8
0
 10
160.87939999292149
 20
97.137039906043995
 30
0.0
 11
160.87939999292149
 21
119.137039906044
 31
0.0
  0
LINE
  5
4F
  8
0
 10
161.37939999292149
 20
96.637039906043981
 30
0.0
 11
173.37939999292149
 21
96.637039906043981
 31
0.0
  0
LINE
  5
50
  8
0
 10
161.37939999292149
 20
119.6370399060439
 30
0.0
 11
173.37939999292149
 21
119.6370399060439
 31
0.0
  0
LINE
  5
51
  8
0
 10
160.87939999292149
 20
97.137039906043995
 30
0.0
 11
161.37939999292149
 21
96.637039906043981
 31
0.0
  0
LINE
  5
52
  8
0
 10
173.37939999292149
 20
96.637039906043981
 30
0.0
 11
173.87939999292149
 21
97.137039906043995
 31
0.0
  0
LINE
  5
53
  8
0
 10
173.37939999292149
 20
119.6370399060439
 30
0.0
 11
173.87939999292149
 21
119.137039906044
 31
0.0
  0
LINE
  5
54
  8
0
 10
161.37939999292149
 20
119.6370399060439
 30
0.0
 11
160.87939999292149
 21
119.137039906044
 31
0.0
  0
CIRCLE
  5
55
  8
3
 10
67.016176585997854
 20
108.1370399060439
 30
0.0
 40
5.052999999999999
  0
CIRCLE
  5
56
  8
0
 10
67.016176585997854
 20
108.1370399060439
 30
0.0
 40
6.0
  0
LINE
  5
57
  8
0
 10
57.516176585997869
 20
114.6177806044518
 30
0.0
 11
57.516176585997869
 21
101.6562992076361
 31
0.0
  0
LINE
  5
58
  8
0
 10
76.516176585997897
 20
114.6177806044517
 30
0.0
 11
76.516176585997897
 21
101.6562992076361
 31
0.0
  0
LINE
  5
59
  8
0
 10
262.77928863420891
 20
94.137039906044166
 30
0.0
 11
203.87939999292149
 21
94.137039906044095
 31
0.0
  0
LINE
  5
5A
  8
0
 10
262.77928863420891
 20
122.1370399060438
 30
0.0
 11
203.87939999292141
 21
122.1370399060438
 31
0.0
  0
LINE
  5
5B
  8
0
 10
161.37939999292149
 20
119.6370399060439
 30
0.0
 11
161.37939999292149
 21
114.6177806044517
 31
0.0
  0
LINE
  5
5C
  8
0
 10
173.37939999292149
 20
119.6370399060439
 30
0.0
 11
173.37939999292149
 21
96.637039906043981
 31
0.0
  0
ARC
  5
5D
  8
0
 10
176.37939999292149
 20
118.2589168567311
 30
0.0
 40
2.5
 50
92.862405226112017
 51
179.99999999999989
  0
ARC
  5
5E
  8
0
 10
176.37939999292149
 20
98.015162955356843
 30
0.0
 40
2.5
 50
180.0
 51
267.137594773888
  0
CIRCLE
  5
5F
  8
0
 10
67.016176585997854
 20
108.1370399060439
 30
0.0
 40
12.75
  0
CIRCLE
  5
60
  8
0
 10
67.016176585997854
 20
108.1370399060439
 30
0.0
 40
14.0
  0
LINE
  5
61
  8
1
 10
135.87939999292149
 20
108.1370399060439
 30
0.0
 11
272.87939999292172
 21
108.1370399060439
 31
0.0
  0
LINE
  5
62
  8
0
 10
170.87939999292149
 20
101.6562992076361
 30
0.0
 11
170.87939999292149
 21
114.6177806044517
 31
0.0
  0
LINE
  5
63
  8
3
 10
160.87939999292149
 20
101.6562992076361
 30
0.0
 11
170.87939999292149
 21
114.6177806044517
 31
0.0
  0
LINE
  5
64
  8
3
 10
160.87939999292149
 20
114.6177806044518
 30
0.0
 11
170.87939999292161
 21
101.6562992076362
 31
0.0
  0
CIRCLE
  5
65
  8
0
 10
67.016176585997854
 20
108.1370399060439
 30
0.0
 40
11.5
  0
LINE
  5
66
  8
0
 10
203.87939999292141
 20
122.1370399060438
 30
0.0
 11
203.87939999292141
 21
94.137039906044095
 31
0.0
  0
CIRCLE
  5
67
  8
0
 10
342.01617658599793
 20
108.1370399060439
 30
0.0
 40
14.0
  0
LINE
  5
68
  8
0
 10
203.87939999292141
 20
222.13703990604381
 30
0.0
 11
203.87939999292141
 21
194.13703990604409
 31
0.0
  0
LINE
  5
69
  8
0
 10
170.87939999292149
 20
196.63703990604401
 30
0.0
 11
170.87939999292149
 21
198.6370399060439
 31
0.0
  0
LINE
  5
6A
  8
1
 10
135.87939999292149
 20
208.13703990604401
 30
0.0
 11
272.87939999292172
 21
208.13703990604401
 31
0.0
  0
ARC
  5
6B
  8
0
 10
176.37939999292149
 20
198.0151629553568
 30
0.0
 40
2.5
 50
180.0
 51
267.137594773888
  0
ARC
  5
6C
  8
0
 10
176.37939999292149
 20
218.2589168567311
 30
0.0
 40
2.5
 50
92.862405226112017
 51
179.99999999999989
  0
LINE
  5
6D
  8
0
 10
173.37939999292149
 20
219.63703990604401
 30
0.0
 11
173.37939999292149
 21
196.63703990604401
 31
0.0
  0
LINE
  5
6E
  8
0
 10
262.77928863420891
 20
222.13703990604381
 30
0.0
 11
203.87939999292141
 21
222.13703990604381
 31
0.0
  0
LINE
  5
6F
  8
0
 10
262.77928863420891
 20
194.13703990604409
 30
0.0
 11
203.87939999292149
 21
194.13703990604409
 31
0.0
  0
LINE
  5
70
  8
0
 10
173.37939999292149
 20
219.63703990604401
 30
0.0
 11
173.87939999292149
 21
219.13703990604401
 31
0.0
  0
LINE
  5
71
  8
0
 10
173.37939999292149
 20
196.63703990604401
 30
0.0
 11
173.87939999292149
 21
197.13703990604401
 31
0.0
  0
LINE
  5
72
  8
0
 10
170.87939999292149
 20
219.63703990604401
 30
0.0
 11
173.37939999292149
 21
219.63703990604401
 31
0.0
  0
LINE
  5
73
  8
0
 10
170.87939999292149
 20
196.63703990604401
 30
0.0
 11
173.37939999292149
 21
196.63703990604401
 31
0.0
  0
LINE
  5
74
  8
0
 10
160.87939999292149
 20
198.6370399060439
 30
0.0
 11
160.87939999292149
 21
217.63703990604401
 31
0.0
  0
LINE
  5
77
  8
0
 10
161.37939999292149
 20
198.6370399060439
 30
0.0
 11
161.37939999292149
 21
217.63703990604401
 31
0.0
  0
LINE
  5
78
  8
0
 10
173.87939999292149
 20
198.0151629553568
 30
0.0
 11
173.87939999292149
 21
218.2589168567311
 31
0.0
  0
ARC
  5
7F
  8
0
 10
217.87939999292161
 20
208.13703990604401
 30
0.0
 40
49.999999999999972
 50
347.44414220141419
 51
12.55585779858577
  0
ARC
  5
80
  8
0
 10
262.77928863420891
 20
198.13703990604409
 30
0.0
 40
4.0
 50
269.9999999999996
 51
347.44414220141419
  0
ARC
  5
81
  8
0
 10
262.77928863420891
 20
218.13703990604381
 30
0.0
 40
4.0
 50
12.55585779858588
 51
90.0
  0
LINE
  5
82
  8
0
 10
176.25455595056181
 20
195.5182821081622
 30
0.0
 11
203.87939999292149
 21
194.13703990604409
 31
0.0
  0
LINE
  5
83
  8
0
 10
203.87939999292141
 20
222.13703990604381
 30
0.0
 11
176.25455595056181
 21
220.75579770392571
 31
0.0
  0
LINE
  5
8B
  8
0
 10
160.87939999292149
 20
217.63703990604401
 30
0.0
 11
170.87939999292149
 21
217.63703990604401
 31
0.0
  0
LINE
  5
8C
  8
0
 10
160.87939999292161
 20
198.6370399060439
 30
0.0
 11
170.87939999292149
 21
198.6370399060439
 31
0.0
  0
LINE
  5
8D
  8
0
 10
170.87939999292149
 20
217.63703990604401
 30
0.0
 11
170.87939999292149
 21
219.63703990604401
 31
0.0
  0
LINE
  5
B9
  8
1
 10
86.016176585997869
 20
108.1370399060439
 30
0.0
 11
48.016176585997883
 21
108.1370399060439
 31
0.0
  0
LINE
  5
BA
  8
1
 10
67.016176585997854
 20
127.137039906044
 30
0.0
 11
67.016176585997854
 21
89.137039906043981
 31
0.0
  0
LINE
  5
BB
  8
1
 10
361.01617658599793
 20
108.1370399060439
 30
0.0
 11
323.01617658599793
 21
108.1370399060439
 31
0.0
  0
LINE
  5
BC
  8
1
 10
342.01617658599793
 20
127.137039906044
 30
0.0
 11
342.01617658599793
 21
89.137039906043981
 31
0.0
  0
LINE
  5
27D
  8
3
 10
141.93239999292149
 20
113.19003990604391
 30
0.0
 11
159.23914787815369
 21
113.19003990604391
 31
0.0
  0
LINE
  5
27E
  8
3
 10
141.93239999292149
 20
103.084039906044
 30
0.0
 11
159.23914787815369
 21
103.084039906044
 31
0.0
  0
LINE
  5
27F
  8
0
 10
142.87939999292149
 20
114.137039906044
 30
0.0
 11
142.87939999292149
 21
102.137039906044
 31
0.0
  0
LINE
  5
280
  8
0
 10
140.87939999292149
 20
112.137039906044
 30
0.0
 11
142.87939999292149
 21
114.137039906044
 31
0.0
  0
LINE
  5
281
  8
0
 10
140.87939999292149
 20
104.137039906044
 30
0.0
 11
142.87939999292149
 21
102.137039906044
 31
0.0
  0
LINE
  5
284
  8
0
 10
140.87939999292149
 20
104.137039906044
 30
0.0
 11
140.87939999292149
 21
112.137039906044
 31
0.0
  0
LINE
  5
288
  8
0
 10
142.87939999292149
 20
102.137039906044
 30
0.0
 11
159.87939999292149
 21
102.137039906044
 31
0.0
  0
LINE
  5
289
  8
0
 10
142.87939999292149
 20
114.137039906044
 30
0.0
 11
159.87939999292149
 21
114.137039906044
 31
0.0
  0
ARC
  5
2F8
  8
0
 10
159.87939999292149
 20
115.137039906044
 30
0.0
 40
1.0
 50
270.0
 51
359.9999999999996
  0
ARC
  5
2F9
  8
0
 10
159.87939999292149
 20
101.137039906044
 30
0.0
 40
1.0
 50
0.0
 51
90.0
  0
LINE
  5
2FD
  8
0
 10
159.23914787815369
 20
114.137039906044
 30
0.0
 11
159.23914787815369
 21
102.137039906044
 31
0.0
  0
LINE
  5
2FE
  8
3
 10
159.23914787815369
 20
113.19003990604391
 30
0.0
 11
160.55619768705799
 21
114.40087084855
 31
0.0
  0
LINE
  5
2FF
  8
3
 10
159.23914787815369
 20
103.084039906044
 30
0.0
 11
160.55619768705799
 21
101.873208963538
 31
0.0
  0
ARC
  5
300
  8
0
 10
159.87939999292149
 20
201.13703990604401
 30
0.0
 40
1.0
 50
0.0
 51
90.0
  0
LINE
  5
301
  8
0
 10
142.87939999292149
 20
202.13703990604401
 30
0.0
 11
159.87939999292149
 21
202.13703990604401
 31
0.0
  0
LINE
  5
302
  8
3
 10
141.93239999292149
 20
203.08403990604401
 30
0.0
 11
159.23914787815369
 21
203.08403990604401
 31
0.0
  0
LINE
  5
303
  8
0
 10
142.87939999292149
 20
214.13703990604401
 30
0.0
 11
159.87939999292149
 21
214.13703990604401
 31
0.0
  0
LINE
  5
304
  8
3
 10
141.93239999292149
 20
213.19003990604401
 30
0.0
 11
159.23914787815369
 21
213.19003990604401
 31
0.0
  0
LINE
  5
305
  8
0
 10
140.87939999292149
 20
204.13703990604401
 30
0.0
 11
140.87939999292149
 21
212.13703990604401
 31
0.0
  0
LINE
  5
306
  8
0
 10
142.87939999292149
 20
214.13703990604401
 30
0.0
 11
142.87939999292149
 21
202.13703990604401
 31
0.0
  0
LINE
  5
307
  8
0
 10
140.87939999292149
 20
204.13703990604401
 30
0.0
 11
142.87939999292149
 21
202.13703990604401
 31
0.0
  0
LINE
  5
308
  8
0
 10
140.87939999292149
 20
212.13703990604401
 30
0.0
 11
142.87939999292149
 21
214.13703990604401
 31
0.0
  0
LINE
  5
309
  8
0
 10
159.23914787815369
 20
214.13703990604401
 30
0.0
 11
159.23914787815369
 21
202.13703990604401
 31
0.0
  0
LINE
  5
30A
  8
3
 10
159.23914787815369
 20
203.08403990604401
 30
0.0
 11
160.55619768705799
 21
201.87320896353799
 31
0.0
  0
LINE
  5
30B
  8
3
 10
159.23914787815369
 20
213.19003990604401
 30
0.0
 11
160.55619768705799
 21
214.40087084855
 31
0.0
  0
ARC
  5
30C
  8
0
 10
159.87939999292149
 20
215.13703990604401
 30
0.0
 40
1.0
 50
270.0
 51
359.9999999999996
  0
TEXT
  5
43A
  8
0
 62
     3
 10
0.0
 20
0.0
 30
0.0
 40
10.0
  1
ER28-SUS
  7
STANDARD1
  0
ENDSEC
  0
EOF
