  0
SECTION
  2
HEADER
  9
$ACADVER
  1
AC1009
  9
$INSBASE
 10
0.0
 20
0.0
 30
0.0
  9
$EXTMIN
 10
0.0
 20
-2.960436562073669
 30
0.0
  9
$EXTMAX
 10
212.35575804871701
 20
77.458226404339385
 30
0.0
  9
$LIMMIN
 10
0.0
 20
0.0
  9
$LIMMAX
 10
375.0
 20
270.0
  9
$ORTHOMODE
 70
     0
  9
$REGENMODE
 70
     1
  9
$FILLMODE
 70
     1
  9
$QTEXTMODE
 70
     0
  9
$MIRRTEXT
 70
     0
  9
$DRAGMODE
 70
     2
  9
$LTSCALE
 40
10.0
  9
$OSMODE
 70
  3071
  9
$ATTMODE
 70
     1
  9
$TEXTSIZE
 40
2.0
  9
$TRACEWID
 40
0.05
  9
$TEXTSTYLE
  7
STANDARD
  9
$CLAYER
  8
0
  9
$CELTYPE
  6
BYLAYER
  9
$CECOLOR
 62
   256
  9
$DIMSCALE
 40
1.0
  9
$DIMASZ
 40
2.5
  9
$DIMEXO
 40
2.0
  9
$DIMDLI
 40
0.38
  9
$DIMRND
 40
0.0
  9
$DIMDLE
 40
0.0
  9
$DIMEXE
 40
2.0
  9
$DIMTP
 40
0.0
  9
$DIMTM
 40
0.0
  9
$DIMTXT
 40
3.0
  9
$DIMCEN
 40
0.09
  9
$DIMTSZ
 40
0.0
  9
$DIMTOL
 70
     0
  9
$DIMLIM
 70
     0
  9
$DIMTIH
 70
     0
  9
$DIMTOH
 70
     0
  9
$DIMSE1
 70
     0
  9
$DIMSE2
 70
     0
  9
$DIMTAD
 70
     1
  9
$DIMZIN
 70
     0
  9
$DIMBLK
  1

  9
$DIMASO
 70
     1
  9
$DIMSHO
 70
     0
  9
$DIMPOST
  1

  9
$DIMAPOST
  1

  9
$DIMALT
 70
     0
  9
$DIMALTD
 70
     2
  9
$DIMALTF
 40
25.399999999999999
  9
$DIMLFAC
 40
1.0
  9
$DIMTOFL
 70
     0
  9
$DIMTVP
 40
1.6000000000000001
  9
$DIMTIX
 70
     1
  9
$DIMSOXD
 70
     0
  9
$DIMSAH
 70
     0
  9
$DIMBLK1
  1

  9
$DIMBLK2
  1

  9
$DIMSTYLE
  2
STANDARD
  9
$DIMCLRD
 70
     0
  9
$DIMCLRE
 70
     0
  9
$DIMCLRT
 70
     0
  9
$DIMTFAC
 40
1.0
  9
$DIMGAP
 40
0.09
  9
$LUNITS
 70
     2
  9
$LUPREC
 70
     4
  9
$SKETCHINC
 40
0.1
  9
$FILLETRAD
 40
2.5
  9
$AUNITS
 70
     0
  9
$AUPREC
 70
     0
  9
$MENU
  1
E:\r13\win\SUPPORT\ACAD
  9
$ELEVATION
 40
0.0
  9
$PELEVATION
 40
0.0
  9
$THICKNESS
 40
0.0
  9
$LIMCHECK
 70
     0
  9
$BLIPMODE
 70
     0
  9
$CHAMFERA
 40
0.0
  9
$CHAMFERB
 40
0.0
  9
$SKPOLY
 70
     0
  9
$TDCREATE
 40
2448650.5678784722
  9
$TDUPDATE
 40
2456598.6851536338
  9
$TDINDWG
 40
0.0208253588
  9
$TDUSRTIMER
 40
0.0208253588
  9
$USRTIMER
 70
     1
  9
$ANGBASE
 50
0.0
  9
$ANGDIR
 70
     0
  9
$PDMODE
 70
     0
  9
$PDSIZE
 40
0.0
  9
$PLINEWID
 40
0.0
  9
$COORDS
 70
     1
  9
$SPLFRAME
 70
     0
  9
$SPLINETYPE
 70
     6
  9
$SPLINESEGS
 70
     8
  9
$ATTDIA
 70
     0
  9
$ATTREQ
 70
     1
  9
$HANDLING
 70
     1
  9
$HANDSEED
  5
1116
  9
$SURFTAB1
 70
     6
  9
$SURFTAB2
 70
     6
  9
$SURFTYPE
 70
     6
  9
$SURFU
 70
     6
  9
$SURFV
 70
     6
  9
$UCSNAME
  2

  9
$UCSORG
 10
0.0
 20
0.0
 30
0.0
  9
$UCSXDIR
 10
1.0
 20
0.0
 30
0.0
  9
$UCSYDIR
 10
0.0
 20
1.0
 30
0.0
  9
$PUCSNAME
  2

  9
$PUCSORG
 10
0.0
 20
0.0
 30
0.0
  9
$PUCSXDIR
 10
1.0
 20
0.0
 30
0.0
  9
$PUCSYDIR
 10
0.0
 20
1.0
 30
0.0
  9
$USERI1
 70
     0
  9
$USERI2
 70
     1
  9
$USERI3
 70
     1
  9
$USERI4
 70
     0
  9
$USERI5
 70
     0
  9
$USERR1
 40
0.0
  9
$USERR2
 40
0.0
  9
$USERR3
 40
0.0
  9
$USERR4
 40
0.0
  9
$USERR5
 40
0.0
  9
$WORLDVIEW
 70
     1
  9
$SHADEDGE
 70
     3
  9
$SHADEDIF
 70
    70
  9
$TILEMODE
 70
     1
  9
$MAXACTVP
 70
    16
  9
$PLIMCHECK
 70
     0
  9
$PEXTMIN
 10
1.0000000000000000E+020
 20
1.0000000000000000E+020
 30
1.0000000000000000E+020
  9
$PEXTMAX
 10
-1.0000000000000000E+020
 20
-1.0000000000000000E+020
 30
-1.0000000000000000E+020
  9
$PLIMMIN
 10
0.0
 20
0.0
  9
$PLIMMAX
 10
12.0
 20
9.0
  9
$UNITMODE
 70
     0
  9
$VISRETAIN
 70
     0
  9
$PLINEGEN
 70
     1
  9
$PSLTSCALE
 70
     0
  0
ENDSEC
  0
SECTION
  2
TABLES
  0
TABLE
  2
VPORT
 70
     1
  0
VPORT
  2
*ACTIVE
 70
     0
 10
0.0
 20
0.0
 11
1.0
 21
1.0
 12
187.49427839065231
 22
169.9063198933564
 13
0.0
 23
0.0
 14
10.0
 24
10.0
 15
10.0
 25
10.0
 16
0.0
 26
0.0
 36
1.0
 17
0.0
 27
0.0
 37
0.0
 40
348.89937369551939
 41
1.831871345029239
 42
50.0
 43
0.0
 44
0.0
 50
0.0
 51
0.0
 71
     0
 72
   500
 73
     1
 74
     0
 75
     0
 76
     0
 77
     0
 78
     2
  0
ENDTAB
  0
TABLE
  2
LTYPE
 70
     3
  0
LTYPE
  2
CONTINUOUS
 70
     0
  3
Solid Line
 72
    65
 73
     0
 40
0.0
  0
LTYPE
  2
CENTER
 70
     0
  3
____ _ ____ _ ____ _ ____ _ ____ _ ____ _ ____
 72
    65
 73
     4
 40
2.0
 49
1.25
 49
-0.25
 49
0.25
 49
-0.25
  0
LTYPE
  2
PHANTOM2
 70
     0
  3
___ _ _ ___ _ _ ___ _ _ ___ _ _
 72
    65
 73
     6
 40
1.25
 49
0.625
 49
-0.125
 49
0.125
 49
-0.125
 49
0.125
 49
-0.125
  0
ENDTAB
  0
TABLE
  2
LAYER
 70
     3
  0
LAYER
  2
0
 70
     0
 62
     7
  6
CONTINUOUS
  0
LAYER
  2
1
 70
     0
 62
     1
  6
CENTER
  0
LAYER
  2
3
 70
     0
 62
     3
  6
CONTINUOUS
  0
ENDTAB
  0
TABLE
  2
STYLE
 70
     3
  0
STYLE
  2
STANDARD
 70
     0
 40
0.0
 41
1.0
 50
0.0
 71
     0
 42
2.0
  3
TXT
  4
BIGFONT
  0
STYLE
  2
07500
 70
     0
 40
0.0
 41
0.75
 50
0.0
 71
     0
 42
0.2
  3
simplex.shx
  4
BIGFONT.shx
  0
STYLE
  2
STANDARD1
 70
     0
 40
0.0
 41
1.0
 50
0.0
 71
     0
 42
3.0
  3
txt
  4

  0
ENDTAB
  0
TABLE
  2
VIEW
 70
     1
  0
VIEW
  2
ALL
 70
     0
 40
270.0
 10
220.99159663865549
 20
135.0
 41
0.0
 11
0.0
 21
0.0
 31
1.0
 12
0.0
 22
0.0
 32
0.0
 42
0.0
 43
0.0
 44
0.0
 50
0.0
 71
     0
  0
ENDTAB
  0
TABLE
  2
UCS
 70
     0
  0
ENDTAB
  0
TABLE
  2
APPID
 70
     3
  0
APPID
  2
ACAD
 70
     0
  0
APPID
  2
ACAD_MLEADERVER
 70
     0
  0
APPID
  2
ACAD_NAV_VCDISPLAY
 70
     0
  0
ENDTAB
  0
TABLE
  2
DIMSTYLE
 70
     1
  0
DIMSTYLE
  2
STANDARD
 70
     0
  3

  4

  5

  6

  7

 40
1.0
 41
0.18
 42
0.0625
 43
0.38
 44
0.18
 45
0.0
 46
0.0
 47
0.0
 48
0.0
140
0.18
141
0.09
142
0.0
143
25.399999999999999
144
1.0
145
0.0
146
1.0
147
0.09
 71
     0
 72
     0
 73
     1
 74
     1
 75
     0
 76
     0
 77
     0
 78
     0
170
     0
171
     2
172
     0
173
     0
174
     0
175
     0
176
     0
177
     0
178
     0
  0
ENDTAB
  0
ENDSEC
  0
SECTION
  2
BLOCKS
  0
BLOCK
  8
0
  2
$MODEL_SPACE
 70
     0
 10
0.0
 20
0.0
 30
0.0
  3
$MODEL_SPACE
  1

  0
ENDBLK
  5
217
  8
0
  0
BLOCK
 67
     1
  8
0
  2
$PAPER_SPACE
 70
     0
 10
0.0
 20
0.0
 30
0.0
  3
$PAPER_SPACE
  1

  0
ENDBLK
  5
215
 67
     1
  8
0
  0
ENDSEC
  0
SECTION
  2
ENTITIES
  0
LINE
  5
DFD
  8
1
 10
110.4530037405346
 20
71.458226404339243
 30
0.0
 11
105.2530037405346
 21
71.458226404339243
 31
0.0
  0
LINE
  5
DFE
  8
1
 10
107.8530037405346
 20
74.058226404339237
 30
0.0
 11
107.8530037405346
 21
68.858226404339248
 31
0.0
  0
CIRCLE
  5
DFF
  8
0
 10
107.8530037405346
 20
71.458226404339243
 30
0.0
 40
1.75
  0
TEXT
  5
E00
  8
3
 10
159.72800374053469
 20
66.458226404339257
 30
0.0
 40
3.5
  1
130
 41
0.75
  7
07500
 72
     1
 11
162.85300374053469
 21
66.458226404339257
 31
0.0
  0
LINE
  5
E01
  8
3
 10
162.85300374053469
 20
71.958226404339271
 30
0.0
 11
162.85300374053469
 21
77.458226404339243
 31
0.0
  0
LINE
  5
E02
  8
3
 10
167.85300374053469
 20
73.458226404339243
 30
0.0
 11
167.85300374053469
 21
77.458226404339243
 31
0.0
  0
LINE
  5
E03
  8
3
 10
163.85300374053469
 20
74.458226404339243
 30
0.0
 11
163.85300374053469
 21
77.458226404339243
 31
0.0
  0
LINE
  5
E04
  8
3
 10
164.85300374053469
 20
74.458226404339243
 30
0.0
 11
164.85300374053469
 21
77.458226404339243
 31
0.0
  0
LINE
  5
E05
  8
3
 10
165.85300374053469
 20
74.458226404339243
 30
0.0
 11
165.85300374053469
 21
77.458226404339243
 31
0.0
  0
LINE
  5
E06
  8
3
 10
166.85300374053469
 20
74.458226404339243
 30
0.0
 11
166.85300374053469
 21
77.458226404339243
 31
0.0
  0
LINE
  5
E07
  8
3
 10
168.85300374053469
 20
74.458226404339243
 30
0.0
 11
168.85300374053469
 21
77.458226404339243
 31
0.0
  0
LINE
  5
E08
  8
3
 10
169.85300374053469
 20
74.458226404339243
 30
0.0
 11
169.85300374053469
 21
77.458226404339243
 31
0.0
  0
LINE
  5
E09
  8
3
 10
170.85300374053469
 20
74.458226404339243
 30
0.0
 11
170.85300374053469
 21
77.458226404339243
 31
0.0
  0
LINE
  5
E0A
  8
3
 10
171.85300374053469
 20
74.458226404339243
 30
0.0
 11
171.85300374053469
 21
77.458226404339243
 31
0.0
  0
TEXT
  5
E0B
  8
3
 10
149.72800374053469
 20
66.458226404339257
 30
0.0
 40
3.5
  1
120
 41
0.75
  7
07500
 72
     1
 11
152.85300374053469
 21
66.458226404339257
 31
0.0
  0
LINE
  5
E0C
  8
3
 10
161.85300374053469
 20
74.458226404339243
 30
0.0
 11
161.85300374053469
 21
77.458226404339243
 31
0.0
  0
LINE
  5
E0D
  8
3
 10
160.85300374053469
 20
74.458226404339243
 30
0.0
 11
160.85300374053469
 21
77.458226404339243
 31
0.0
  0
LINE
  5
E0E
  8
3
 10
159.85300374053469
 20
74.458226404339243
 30
0.0
 11
159.85300374053469
 21
77.458226404339243
 31
0.0
  0
LINE
  5
E0F
  8
3
 10
158.85300374053469
 20
74.458226404339243
 30
0.0
 11
158.85300374053469
 21
77.458226404339243
 31
0.0
  0
LINE
  5
E10
  8
3
 10
156.85300374053469
 20
74.458226404339243
 30
0.0
 11
156.85300374053469
 21
77.458226404339243
 31
0.0
  0
LINE
  5
E11
  8
3
 10
155.85300374053469
 20
74.458226404339243
 30
0.0
 11
155.85300374053469
 21
77.458226404339243
 31
0.0
  0
LINE
  5
E12
  8
3
 10
154.85300374053469
 20
74.458226404339243
 30
0.0
 11
154.85300374053469
 21
77.458226404339243
 31
0.0
  0
LINE
  5
E13
  8
3
 10
153.85300374053469
 20
74.458226404339243
 30
0.0
 11
153.85300374053469
 21
77.458226404339243
 31
0.0
  0
LINE
  5
E14
  8
3
 10
157.85300374053469
 20
73.458226404339243
 30
0.0
 11
157.85300374053469
 21
77.458226404339243
 31
0.0
  0
LINE
  5
E15
  8
3
 10
152.85300374053469
 20
71.958226404339271
 30
0.0
 11
152.85300374053469
 21
77.458226404339243
 31
0.0
  0
TEXT
  5
E16
  8
3
 10
139.97800374053469
 20
66.458226404339257
 30
0.0
 40
3.5
  1
110
 41
0.75
  7
07500
 72
     1
 11
142.85300374053469
 21
66.458226404339257
 31
0.0
  0
LINE
  5
E17
  8
3
 10
142.85300374053469
 20
71.958226404339271
 30
0.0
 11
142.85300374053469
 21
77.458226404339243
 31
0.0
  0
LINE
  5
E18
  8
3
 10
147.85300374053469
 20
73.458226404339243
 30
0.0
 11
147.85300374053469
 21
77.458226404339243
 31
0.0
  0
LINE
  5
E19
  8
3
 10
143.85300374053469
 20
74.458226404339243
 30
0.0
 11
143.85300374053469
 21
77.458226404339243
 31
0.0
  0
LINE
  5
E1A
  8
3
 10
144.85300374053469
 20
74.458226404339243
 30
0.0
 11
144.85300374053469
 21
77.458226404339243
 31
0.0
  0
LINE
  5
E1B
  8
3
 10
145.85300374053469
 20
74.458226404339243
 30
0.0
 11
145.85300374053469
 21
77.458226404339243
 31
0.0
  0
LINE
  5
E1C
  8
3
 10
146.85300374053469
 20
74.458226404339243
 30
0.0
 11
146.85300374053469
 21
77.458226404339243
 31
0.0
  0
LINE
  5
E1D
  8
3
 10
148.85300374053469
 20
74.458226404339243
 30
0.0
 11
148.85300374053469
 21
77.458226404339243
 31
0.0
  0
LINE
  5
E1E
  8
3
 10
149.85300374053469
 20
74.458226404339243
 30
0.0
 11
149.85300374053469
 21
77.458226404339243
 31
0.0
  0
LINE
  5
E1F
  8
3
 10
150.85300374053469
 20
74.458226404339243
 30
0.0
 11
150.85300374053469
 21
77.458226404339243
 31
0.0
  0
LINE
  5
E20
  8
3
 10
151.85300374053469
 20
74.458226404339243
 30
0.0
 11
151.85300374053469
 21
77.458226404339243
 31
0.0
  0
TEXT
  5
E21
  8
0
 10
129.10300374053469
 20
66.458226404339257
 30
0.0
 40
4.2000000000000002
  1
100
 41
0.75
  7
07500
 72
     1
 11
132.85300374053469
 21
66.458226404339257
 31
0.0
  0
LINE
  5
E22
  8
3
 10
141.85300374053469
 20
74.458226404339243
 30
0.0
 11
141.85300374053469
 21
77.458226404339243
 31
0.0
  0
LINE
  5
E23
  8
3
 10
140.85300374053469
 20
74.458226404339243
 30
0.0
 11
140.85300374053469
 21
77.458226404339243
 31
0.0
  0
LINE
  5
E24
  8
3
 10
139.85300374053469
 20
74.458226404339243
 30
0.0
 11
139.85300374053469
 21
77.458226404339243
 31
0.0
  0
LINE
  5
E25
  8
3
 10
138.85300374053469
 20
74.458226404339243
 30
0.0
 11
138.85300374053469
 21
77.458226404339243
 31
0.0
  0
LINE
  5
E26
  8
3
 10
136.85300374053469
 20
74.458226404339243
 30
0.0
 11
136.85300374053469
 21
77.458226404339243
 31
0.0
  0
LINE
  5
E27
  8
3
 10
135.85300374053469
 20
74.458226404339243
 30
0.0
 11
135.85300374053469
 21
77.458226404339243
 31
0.0
  0
LINE
  5
E28
  8
3
 10
134.85300374053469
 20
74.458226404339243
 30
0.0
 11
134.85300374053469
 21
77.458226404339243
 31
0.0
  0
LINE
  5
E29
  8
3
 10
133.85300374053469
 20
74.458226404339243
 30
0.0
 11
133.85300374053469
 21
77.458226404339243
 31
0.0
  0
LINE
  5
E2A
  8
3
 10
137.85300374053469
 20
73.458226404339243
 30
0.0
 11
137.85300374053469
 21
77.458226404339243
 31
0.0
  0
LINE
  5
E2B
  8
3
 10
132.85300374053469
 20
71.958226404339271
 30
0.0
 11
132.85300374053469
 21
77.458226404339243
 31
0.0
  0
TEXT
  5
E2C
  8
3
 10
120.7280037405347
 20
66.458226404339257
 30
0.0
 40
3.5
  1
90
 41
0.75
  7
07500
 72
     1
 11
122.8530037405347
 21
66.458226404339257
 31
0.0
  0
LINE
  5
E2D
  8
3
 10
122.8530037405347
 20
71.958226404339271
 30
0.0
 11
122.8530037405347
 21
77.458226404339243
 31
0.0
  0
LINE
  5
E2E
  8
3
 10
127.8530037405347
 20
73.458226404339243
 30
0.0
 11
127.8530037405347
 21
77.458226404339243
 31
0.0
  0
LINE
  5
E2F
  8
3
 10
123.8530037405347
 20
74.458226404339243
 30
0.0
 11
123.8530037405347
 21
77.458226404339243
 31
0.0
  0
LINE
  5
E30
  8
3
 10
124.8530037405347
 20
74.458226404339243
 30
0.0
 11
124.8530037405347
 21
77.458226404339243
 31
0.0
  0
LINE
  5
E31
  8
3
 10
125.8530037405347
 20
74.458226404339243
 30
0.0
 11
125.8530037405347
 21
77.458226404339243
 31
0.0
  0
LINE
  5
E32
  8
3
 10
126.8530037405347
 20
74.458226404339243
 30
0.0
 11
126.8530037405347
 21
77.458226404339243
 31
0.0
  0
LINE
  5
E33
  8
3
 10
128.85300374053469
 20
74.458226404339243
 30
0.0
 11
128.85300374053469
 21
77.458226404339243
 31
0.0
  0
LINE
  5
E34
  8
3
 10
129.85300374053469
 20
74.458226404339243
 30
0.0
 11
129.85300374053469
 21
77.458226404339243
 31
0.0
  0
LINE
  5
E35
  8
3
 10
130.85300374053469
 20
74.458226404339243
 30
0.0
 11
130.85300374053469
 21
77.458226404339243
 31
0.0
  0
LINE
  5
E36
  8
3
 10
131.85300374053469
 20
74.458226404339243
 30
0.0
 11
131.85300374053469
 21
77.458226404339243
 31
0.0
  0
LINE
  5
E37
  8
3
 10
177.85300374053469
 20
73.458226404339243
 30
0.0
 11
177.85300374053469
 21
77.458226404339243
 31
0.0
  0
LINE
  5
E38
  8
3
 10
37.853003740534753
 20
73.458226404339243
 30
0.0
 11
37.853003740534753
 21
77.458226404339243
 31
0.0
  0
LINE
  5
E39
  8
0
 10
212.35575804871701
 20
77.458226404339385
 30
0.0
 11
212.35575804871689
 21
65.4582264043393
 31
0.0
  0
LINE
  5
E3A
  8
0
 10
211.85575804871689
 20
77.458226404339385
 30
0.0
 11
211.85575804871689
 21
65.4582264043393
 31
0.0
  0
LINE
  5
E3B
  8
0
 10
211.85575804871689
 20
65.4582264043393
 30
0.0
 11
212.35575804871689
 21
65.4582264043393
 31
0.0
  0
LINE
  5
E3C
  8
0
 10
211.85575804871689
 20
77.458226404339385
 30
0.0
 11
212.35575804871689
 21
77.458226404339385
 31
0.0
  0
CIRCLE
  5
E3D
  8
0
 10
37.853003740534753
 20
71.458226404339214
 30
0.0
 40
1.75
  0
CIRCLE
  5
E3E
  8
0
 10
177.85300374053469
 20
71.458226404339214
 30
0.0
 40
1.75
  0
LINE
  5
E3F
  8
3
 10
82.853003740534746
 20
71.958226404339271
 30
0.0
 11
82.853003740534746
 21
77.458226404339243
 31
0.0
  0
LINE
  5
E40
  8
1
 10
180.4530037405346
 20
71.458226404339214
 30
0.0
 11
175.25300374053461
 21
71.458226404339214
 31
0.0
  0
LINE
  5
E41
  8
1
 10
177.85300374053469
 20
74.058226404339237
 30
0.0
 11
177.85300374053469
 21
68.858226404339248
 31
0.0
  0
LINE
  5
E42
  8
1
 10
40.453003740534768
 20
71.458226404339214
 30
0.0
 11
35.253003740534723
 21
71.458226404339214
 31
0.0
  0
LINE
  5
E43
  8
1
 10
37.853003740534753
 20
74.058226404339237
 30
0.0
 11
37.853003740534753
 21
68.858226404339248
 31
0.0
  0
TEXT
  5
E44
  8
3
 10
169.72800374053469
 20
66.458226404339257
 30
0.0
 40
3.5
  1
140
 41
0.75
  7
07500
 72
     1
 11
172.85300374053469
 21
66.458226404339257
 31
0.0
  0
TEXT
  5
E45
  8
3
 10
110.7280037405347
 20
66.458226404339257
 30
0.0
 40
3.5
  1
80
 41
0.75
  7
07500
 72
     1
 11
112.8530037405347
 21
66.458226404339257
 31
0.0
  0
TEXT
  5
E46
  8
3
 10
100.7280037405347
 20
66.458226404339257
 30
0.0
 40
3.5
  1
70
 41
0.75
  7
07500
 72
     1
 11
102.8530037405347
 21
66.458226404339257
 31
0.0
  0
TEXT
  5
E47
  8
3
 10
90.728003740534746
 20
66.458226404339257
 30
0.0
 40
3.5
  1
60
 41
0.75
  7
07500
 72
     1
 11
92.853003740534746
 21
66.458226404339257
 31
0.0
  0
TEXT
  5
E48
  8
0
 10
80.303003740534734
 20
66.458226404339257
 30
0.0
 40
4.2000000000000002
  1
50
 41
0.75
  7
07500
 72
     1
 11
82.853003740534746
 21
66.458226404339257
 31
0.0
  0
TEXT
  5
E49
  8
3
 10
70.728003740534746
 20
66.458226404339257
 30
0.0
 40
3.5
  1
40
 41
0.75
  7
07500
 72
     1
 11
72.853003740534746
 21
66.458226404339257
 31
0.0
  0
TEXT
  5
E4A
  8
3
 10
60.728003740534689
 20
66.458226404339257
 30
0.0
 40
3.5
  1
30
 41
0.75
  7
07500
 72
     1
 11
62.853003740534689
 21
66.458226404339257
 31
0.0
  0
TEXT
  5
E4B
  8
3
 10
50.728003740534689
 20
66.458226404339257
 30
0.0
 40
3.5
  1
20
 41
0.75
  7
07500
 72
     1
 11
52.853003740534689
 21
66.458226404339257
 31
0.0
  0
TEXT
  5
E4C
  8
3
 10
40.978003740534689
 20
66.458226404339257
 30
0.0
 40
3.5
  1
10
 41
0.75
  7
07500
 72
     1
 11
42.853003740534689
 21
66.458226404339257
 31
0.0
  0
LINE
  5
E4D
  8
3
 10
181.85300374053469
 20
74.458226404339243
 30
0.0
 11
181.85300374053469
 21
77.458226404339243
 31
0.0
  0
LINE
  5
E4E
  8
3
 10
180.85300374053469
 20
74.458226404339243
 30
0.0
 11
180.85300374053469
 21
77.458226404339243
 31
0.0
  0
LINE
  5
E4F
  8
3
 10
179.85300374053469
 20
74.458226404339243
 30
0.0
 11
179.85300374053469
 21
77.458226404339243
 31
0.0
  0
LINE
  5
E50
  8
3
 10
178.85300374053469
 20
74.458226404339243
 30
0.0
 11
178.85300374053469
 21
77.458226404339243
 31
0.0
  0
LINE
  5
E51
  8
3
 10
176.85300374053469
 20
74.458226404339243
 30
0.0
 11
176.85300374053469
 21
77.458226404339243
 31
0.0
  0
LINE
  5
E52
  8
3
 10
175.85300374053469
 20
74.458226404339243
 30
0.0
 11
175.85300374053469
 21
77.458226404339243
 31
0.0
  0
LINE
  5
E53
  8
3
 10
174.85300374053469
 20
74.458226404339243
 30
0.0
 11
174.85300374053469
 21
77.458226404339243
 31
0.0
  0
LINE
  5
E54
  8
3
 10
173.85300374053469
 20
74.458226404339243
 30
0.0
 11
173.85300374053469
 21
77.458226404339243
 31
0.0
  0
LINE
  5
E55
  8
3
 10
121.8530037405347
 20
74.458226404339243
 30
0.0
 11
121.8530037405347
 21
77.458226404339243
 31
0.0
  0
LINE
  5
E56
  8
3
 10
120.8530037405347
 20
74.458226404339243
 30
0.0
 11
120.8530037405347
 21
77.458226404339243
 31
0.0
  0
LINE
  5
E57
  8
3
 10
119.8530037405347
 20
74.458226404339243
 30
0.0
 11
119.8530037405347
 21
77.458226404339243
 31
0.0
  0
LINE
  5
E58
  8
3
 10
118.8530037405347
 20
74.458226404339243
 30
0.0
 11
118.8530037405347
 21
77.458226404339243
 31
0.0
  0
LINE
  5
E59
  8
3
 10
116.8530037405347
 20
74.458226404339243
 30
0.0
 11
116.8530037405347
 21
77.458226404339243
 31
0.0
  0
LINE
  5
E5A
  8
3
 10
115.8530037405347
 20
74.458226404339243
 30
0.0
 11
115.8530037405347
 21
77.458226404339243
 31
0.0
  0
LINE
  5
E5B
  8
3
 10
114.8530037405347
 20
74.458226404339243
 30
0.0
 11
114.8530037405347
 21
77.458226404339243
 31
0.0
  0
LINE
  5
E5C
  8
3
 10
113.8530037405347
 20
74.458226404339243
 30
0.0
 11
113.8530037405347
 21
77.458226404339243
 31
0.0
  0
LINE
  5
E5D
  8
3
 10
111.8530037405347
 20
74.458226404339243
 30
0.0
 11
111.8530037405347
 21
77.458226404339243
 31
0.0
  0
LINE
  5
E5E
  8
3
 10
110.8530037405347
 20
74.458226404339243
 30
0.0
 11
110.8530037405347
 21
77.458226404339243
 31
0.0
  0
LINE
  5
E5F
  8
3
 10
109.8530037405347
 20
74.458226404339243
 30
0.0
 11
109.8530037405347
 21
77.458226404339243
 31
0.0
  0
LINE
  5
E60
  8
3
 10
108.8530037405347
 20
74.458226404339243
 30
0.0
 11
108.8530037405347
 21
77.458226404339243
 31
0.0
  0
LINE
  5
E61
  8
3
 10
106.8530037405347
 20
74.458226404339243
 30
0.0
 11
106.8530037405347
 21
77.458226404339243
 31
0.0
  0
LINE
  5
E62
  8
3
 10
105.8530037405347
 20
74.458226404339243
 30
0.0
 11
105.8530037405347
 21
77.458226404339243
 31
0.0
  0
LINE
  5
E63
  8
3
 10
104.8530037405347
 20
74.458226404339243
 30
0.0
 11
104.8530037405347
 21
77.458226404339243
 31
0.0
  0
LINE
  5
E64
  8
3
 10
103.8530037405347
 20
74.458226404339243
 30
0.0
 11
103.8530037405347
 21
77.458226404339243
 31
0.0
  0
LINE
  5
E65
  8
3
 10
101.8530037405347
 20
74.458226404339243
 30
0.0
 11
101.8530037405347
 21
77.458226404339243
 31
0.0
  0
LINE
  5
E66
  8
3
 10
100.8530037405347
 20
74.458226404339243
 30
0.0
 11
100.8530037405347
 21
77.458226404339243
 31
0.0
  0
LINE
  5
E67
  8
3
 10
99.853003740534746
 20
74.458226404339243
 30
0.0
 11
99.853003740534746
 21
77.458226404339243
 31
0.0
  0
LINE
  5
E68
  8
3
 10
98.853003740534746
 20
74.458226404339243
 30
0.0
 11
98.853003740534746
 21
77.458226404339243
 31
0.0
  0
LINE
  5
E69
  8
3
 10
96.853003740534746
 20
74.458226404339243
 30
0.0
 11
96.853003740534746
 21
77.458226404339243
 31
0.0
  0
LINE
  5
E6A
  8
3
 10
95.853003740534746
 20
74.458226404339243
 30
0.0
 11
95.853003740534746
 21
77.458226404339243
 31
0.0
  0
LINE
  5
E6B
  8
3
 10
94.853003740534746
 20
74.458226404339243
 30
0.0
 11
94.853003740534746
 21
77.458226404339243
 31
0.0
  0
LINE
  5
E6C
  8
3
 10
93.853003740534746
 20
74.458226404339243
 30
0.0
 11
93.853003740534746
 21
77.458226404339243
 31
0.0
  0
LINE
  5
E6D
  8
3
 10
91.853003740534746
 20
74.458226404339243
 30
0.0
 11
91.853003740534746
 21
77.458226404339243
 31
0.0
  0
LINE
  5
E6E
  8
3
 10
90.853003740534746
 20
74.458226404339243
 30
0.0
 11
90.853003740534746
 21
77.458226404339243
 31
0.0
  0
LINE
  5
E6F
  8
3
 10
89.853003740534746
 20
74.458226404339243
 30
0.0
 11
89.853003740534746
 21
77.458226404339243
 31
0.0
  0
LINE
  5
E70
  8
3
 10
88.853003740534746
 20
74.458226404339243
 30
0.0
 11
88.853003740534746
 21
77.458226404339243
 31
0.0
  0
LINE
  5
E71
  8
3
 10
86.853003740534746
 20
74.458226404339243
 30
0.0
 11
86.853003740534746
 21
77.458226404339243
 31
0.0
  0
LINE
  5
E72
  8
3
 10
85.853003740534746
 20
74.458226404339243
 30
0.0
 11
85.853003740534746
 21
77.458226404339243
 31
0.0
  0
LINE
  5
E73
  8
3
 10
84.853003740534746
 20
74.458226404339243
 30
0.0
 11
84.853003740534746
 21
77.458226404339243
 31
0.0
  0
LINE
  5
E74
  8
3
 10
83.853003740534746
 20
74.458226404339243
 30
0.0
 11
83.853003740534746
 21
77.458226404339243
 31
0.0
  0
LINE
  5
E75
  8
3
 10
81.853003740534746
 20
74.458226404339243
 30
0.0
 11
81.853003740534746
 21
77.458226404339243
 31
0.0
  0
LINE
  5
E76
  8
3
 10
80.853003740534746
 20
74.458226404339243
 30
0.0
 11
80.853003740534746
 21
77.458226404339243
 31
0.0
  0
LINE
  5
E77
  8
3
 10
79.853003740534746
 20
74.458226404339243
 30
0.0
 11
79.853003740534746
 21
77.458226404339243
 31
0.0
  0
LINE
  5
E78
  8
3
 10
78.853003740534746
 20
74.458226404339243
 30
0.0
 11
78.853003740534746
 21
77.458226404339243
 31
0.0
  0
LINE
  5
E79
  8
3
 10
76.853003740534746
 20
74.458226404339243
 30
0.0
 11
76.853003740534746
 21
77.458226404339243
 31
0.0
  0
LINE
  5
E7A
  8
3
 10
75.853003740534746
 20
74.458226404339243
 30
0.0
 11
75.853003740534746
 21
77.458226404339243
 31
0.0
  0
LINE
  5
E7B
  8
3
 10
74.853003740534746
 20
74.458226404339243
 30
0.0
 11
74.853003740534746
 21
77.458226404339243
 31
0.0
  0
LINE
  5
E7C
  8
3
 10
73.853003740534746
 20
74.458226404339243
 30
0.0
 11
73.853003740534746
 21
77.458226404339243
 31
0.0
  0
LINE
  5
E7D
  8
3
 10
71.853003740534746
 20
74.458226404339243
 30
0.0
 11
71.853003740534746
 21
77.458226404339243
 31
0.0
  0
LINE
  5
E7E
  8
3
 10
70.853003740534746
 20
74.458226404339243
 30
0.0
 11
70.853003740534746
 21
77.458226404339243
 31
0.0
  0
LINE
  5
E7F
  8
3
 10
69.853003740534689
 20
74.458226404339243
 30
0.0
 11
69.853003740534689
 21
77.458226404339243
 31
0.0
  0
LINE
  5
E80
  8
3
 10
68.853003740534689
 20
74.458226404339243
 30
0.0
 11
68.853003740534689
 21
77.458226404339243
 31
0.0
  0
LINE
  5
E81
  8
3
 10
66.853003740534675
 20
74.458226404339243
 30
0.0
 11
66.853003740534675
 21
77.458226404339243
 31
0.0
  0
LINE
  5
E82
  8
3
 10
65.853003740534689
 20
74.458226404339243
 30
0.0
 11
65.853003740534689
 21
77.458226404339243
 31
0.0
  0
LINE
  5
E83
  8
3
 10
64.853003740534689
 20
74.458226404339243
 30
0.0
 11
64.853003740534689
 21
77.458226404339243
 31
0.0
  0
LINE
  5
E84
  8
3
 10
63.853003740534689
 20
74.458226404339243
 30
0.0
 11
63.853003740534689
 21
77.458226404339243
 31
0.0
  0
LINE
  5
E85
  8
3
 10
61.853003740534682
 20
74.458226404339243
 30
0.0
 11
61.853003740534682
 21
77.458226404339243
 31
0.0
  0
LINE
  5
E86
  8
3
 10
60.853003740534689
 20
74.458226404339243
 30
0.0
 11
60.853003740534689
 21
77.458226404339243
 31
0.0
  0
LINE
  5
E87
  8
3
 10
59.853003740534689
 20
74.458226404339243
 30
0.0
 11
59.853003740534689
 21
77.458226404339243
 31
0.0
  0
LINE
  5
E88
  8
3
 10
58.853003740534689
 20
74.458226404339243
 30
0.0
 11
58.853003740534689
 21
77.458226404339243
 31
0.0
  0
LINE
  5
E89
  8
3
 10
56.853003740534682
 20
74.458226404339243
 30
0.0
 11
56.853003740534682
 21
77.458226404339243
 31
0.0
  0
LINE
  5
E8A
  8
3
 10
55.853003740534689
 20
74.458226404339243
 30
0.0
 11
55.853003740534689
 21
77.458226404339243
 31
0.0
  0
LINE
  5
E8B
  8
3
 10
54.853003740534689
 20
74.458226404339243
 30
0.0
 11
54.853003740534689
 21
77.458226404339243
 31
0.0
  0
LINE
  5
E8C
  8
3
 10
53.853003740534689
 20
74.458226404339243
 30
0.0
 11
53.853003740534689
 21
77.458226404339243
 31
0.0
  0
LINE
  5
E8D
  8
3
 10
51.853003740534682
 20
74.458226404339243
 30
0.0
 11
51.853003740534682
 21
77.458226404339243
 31
0.0
  0
LINE
  5
E8E
  8
3
 10
50.853003740534689
 20
74.458226404339243
 30
0.0
 11
50.853003740534689
 21
77.458226404339243
 31
0.0
  0
LINE
  5
E8F
  8
3
 10
49.853003740534689
 20
74.458226404339243
 30
0.0
 11
49.853003740534689
 21
77.458226404339243
 31
0.0
  0
LINE
  5
E90
  8
3
 10
48.853003740534689
 20
74.458226404339243
 30
0.0
 11
48.853003740534689
 21
77.458226404339243
 31
0.0
  0
LINE
  5
E91
  8
3
 10
46.853003740534682
 20
74.458226404339243
 30
0.0
 11
46.853003740534682
 21
77.458226404339243
 31
0.0
  0
LINE
  5
E92
  8
3
 10
45.853003740534689
 20
74.458226404339243
 30
0.0
 11
45.853003740534689
 21
77.458226404339243
 31
0.0
  0
LINE
  5
E93
  8
3
 10
44.853003740534682
 20
74.458226404339243
 30
0.0
 11
44.853003740534682
 21
77.458226404339243
 31
0.0
  0
LINE
  5
E94
  8
3
 10
43.853003740534689
 20
74.458226404339243
 30
0.0
 11
43.853003740534689
 21
77.458226404339243
 31
0.0
  0
LINE
  5
E95
  8
3
 10
38.853003740534753
 20
74.458226404339243
 30
0.0
 11
38.853003740534753
 21
77.458226404339243
 31
0.0
  0
LINE
  5
E96
  8
3
 10
39.853003740534753
 20
74.458226404339243
 30
0.0
 11
39.853003740534753
 21
77.458226404339243
 31
0.0
  0
LINE
  5
E97
  8
3
 10
40.853003740534689
 20
74.458226404339243
 30
0.0
 11
40.853003740534689
 21
77.458226404339243
 31
0.0
  0
LINE
  5
E98
  8
3
 10
41.853003740534682
 20
74.458226404339243
 30
0.0
 11
41.853003740534682
 21
77.458226404339243
 31
0.0
  0
LINE
  5
E99
  8
3
 10
36.853003740534753
 20
74.458226404339243
 30
0.0
 11
36.853003740534753
 21
77.458226404339243
 31
0.0
  0
LINE
  5
E9A
  8
3
 10
35.853003740534753
 20
74.458226404339243
 30
0.0
 11
35.853003740534753
 21
77.458226404339243
 31
0.0
  0
LINE
  5
E9B
  8
3
 10
34.853003740534753
 20
74.458226404339243
 30
0.0
 11
34.853003740534753
 21
77.458226404339243
 31
0.0
  0
LINE
  5
E9C
  8
3
 10
33.853003740534753
 20
74.458226404339243
 30
0.0
 11
33.853003740534753
 21
77.458226404339243
 31
0.0
  0
LINE
  5
E9D
  8
3
 10
117.8530037405347
 20
73.458226404339243
 30
0.0
 11
117.8530037405347
 21
77.458226404339243
 31
0.0
  0
LINE
  5
E9E
  8
3
 10
107.8530037405347
 20
73.458226404339243
 30
0.0
 11
107.8530037405347
 21
77.458226404339243
 31
0.0
  0
LINE
  5
E9F
  8
3
 10
97.853003740534746
 20
73.458226404339243
 30
0.0
 11
97.853003740534746
 21
77.458226404339243
 31
0.0
  0
LINE
  5
EA0
  8
3
 10
87.853003740534746
 20
73.458226404339243
 30
0.0
 11
87.853003740534746
 21
77.458226404339243
 31
0.0
  0
LINE
  5
EA1
  8
3
 10
77.853003740534746
 20
73.458226404339243
 30
0.0
 11
77.853003740534746
 21
77.458226404339243
 31
0.0
  0
LINE
  5
EA2
  8
3
 10
67.853003740534689
 20
73.458226404339243
 30
0.0
 11
67.853003740534689
 21
77.458226404339243
 31
0.0
  0
LINE
  5
EA3
  8
3
 10
57.853003740534689
 20
73.458226404339243
 30
0.0
 11
57.853003740534689
 21
77.458226404339243
 31
0.0
  0
LINE
  5
EA4
  8
3
 10
47.853003740534689
 20
73.458226404339243
 30
0.0
 11
47.853003740534689
 21
77.458226404339243
 31
0.0
  0
LINE
  5
EA5
  8
3
 10
172.85300374053469
 20
71.958226404339271
 30
0.0
 11
172.85300374053469
 21
77.458226404339243
 31
0.0
  0
LINE
  5
EA6
  8
3
 10
112.8530037405347
 20
71.958226404339271
 30
0.0
 11
112.8530037405347
 21
77.458226404339243
 31
0.0
  0
LINE
  5
EA7
  8
3
 10
102.8530037405347
 20
71.958226404339271
 30
0.0
 11
102.8530037405347
 21
77.458226404339243
 31
0.0
  0
LINE
  5
EA8
  8
3
 10
92.853003740534746
 20
71.958226404339271
 30
0.0
 11
92.853003740534746
 21
77.458226404339243
 31
0.0
  0
LINE
  5
EA9
  8
3
 10
72.853003740534746
 20
71.958226404339271
 30
0.0
 11
72.853003740534746
 21
77.458226404339243
 31
0.0
  0
LINE
  5
EAA
  8
3
 10
62.853003740534689
 20
71.958226404339271
 30
0.0
 11
62.853003740534689
 21
77.458226404339243
 31
0.0
  0
LINE
  5
EAB
  8
3
 10
52.853003740534689
 20
71.958226404339271
 30
0.0
 11
52.853003740534689
 21
77.458226404339243
 31
0.0
  0
LINE
  5
EAC
  8
3
 10
42.853003740534689
 20
71.958226404339271
 30
0.0
 11
42.853003740534689
 21
77.458226404339243
 31
0.0
  0
LINE
  5
EAD
  8
0
 10
182.85300374053469
 20
77.458226404339243
 30
0.0
 11
182.85300374053469
 21
65.458226404339243
 31
0.0
  0
LINE
  5
EAE
  8
0
 10
32.853003740534753
 20
77.458226404339243
 30
0.0
 11
182.85300374053469
 21
77.458226404339243
 31
0.0
  0
LINE
  5
EAF
  8
0
 10
32.853003740534753
 20
65.458226404339257
 30
0.0
 11
32.853003740534753
 21
77.458226404339243
 31
0.0
  0
LINE
  5
EB0
  8
0
 10
32.853003740534753
 20
65.458226404339257
 30
0.0
 11
182.85300374053469
 21
65.458226404339257
 31
0.0
  0
TEXT
  5
1081
  8
0
 62
     3
 10
0.0
 20
0.0
 30
0.0
 40
10.0
  1
ES1N-U150R
  7
STANDARD1
  0
ENDSEC
  0
EOF
