  0
SECTION
  2
HEADER
  9
$ACADVER
  1
AC1009
  9
$INSBASE
 10
0.0
 20
0.0
 30
0.0
  9
$EXTMIN
 10
0.0
 20
-2.960436562073669
 30
0.0
  9
$EXTMAX
 10
206.96666743559089
 20
222.8791520538233
 30
0.0
  9
$LIMMIN
 10
0.0
 20
0.0
  9
$LIMMAX
 10
375.0
 20
270.0
  9
$ORTHOMODE
 70
     0
  9
$REGENMODE
 70
     1
  9
$FILLMODE
 70
     1
  9
$QTEXTMODE
 70
     0
  9
$MIRRTEXT
 70
     0
  9
$DRAGMODE
 70
     2
  9
$LTSCALE
 40
5.0
  9
$OSMODE
 70
  3071
  9
$ATTMODE
 70
     1
  9
$TEXTSIZE
 40
2.0
  9
$TRACEWID
 40
0.05
  9
$TEXTSTYLE
  7
STANDARD
  9
$CLAYER
  8
0
  9
$CELTYPE
  6
BYLAYER
  9
$CECOLOR
 62
   256
  9
$DIMSCALE
 40
1.0
  9
$DIMASZ
 40
2.5
  9
$DIMEXO
 40
2.0
  9
$DIMDLI
 40
0.38
  9
$DIMRND
 40
0.0
  9
$DIMDLE
 40
0.0
  9
$DIMEXE
 40
2.0
  9
$DIMTP
 40
0.0
  9
$DIMTM
 40
0.0
  9
$DIMTXT
 40
3.0
  9
$DIMCEN
 40
0.09
  9
$DIMTSZ
 40
0.0
  9
$DIMTOL
 70
     0
  9
$DIMLIM
 70
     0
  9
$DIMTIH
 70
     0
  9
$DIMTOH
 70
     0
  9
$DIMSE1
 70
     0
  9
$DIMSE2
 70
     0
  9
$DIMTAD
 70
     1
  9
$DIMZIN
 70
     0
  9
$DIMBLK
  1

  9
$DIMASO
 70
     1
  9
$DIMSHO
 70
     0
  9
$DIMPOST
  1

  9
$DIMAPOST
  1

  9
$DIMALT
 70
     0
  9
$DIMALTD
 70
     2
  9
$DIMALTF
 40
25.399999999999999
  9
$DIMLFAC
 40
1.0
  9
$DIMTOFL
 70
     0
  9
$DIMTVP
 40
1.6000000000000001
  9
$DIMTIX
 70
     1
  9
$DIMSOXD
 70
     0
  9
$DIMSAH
 70
     0
  9
$DIMBLK1
  1

  9
$DIMBLK2
  1

  9
$DIMSTYLE
  2
STANDARD
  9
$DIMCLRD
 70
     0
  9
$DIMCLRE
 70
     0
  9
$DIMCLRT
 70
     0
  9
$DIMTFAC
 40
1.0
  9
$DIMGAP
 40
0.09
  9
$LUNITS
 70
     2
  9
$LUPREC
 70
     4
  9
$SKETCHINC
 40
0.1
  9
$FILLETRAD
 40
2.5
  9
$AUNITS
 70
     0
  9
$AUPREC
 70
     0
  9
$MENU
  1
E:\r13\win\SUPPORT\ACAD
  9
$ELEVATION
 40
0.0
  9
$PELEVATION
 40
0.0
  9
$THICKNESS
 40
0.0
  9
$LIMCHECK
 70
     0
  9
$BLIPMODE
 70
     0
  9
$CHAMFERA
 40
0.0
  9
$CHAMFERB
 40
0.0
  9
$SKPOLY
 70
     0
  9
$TDCREATE
 40
2448650.5678784722
  9
$TDUPDATE
 40
2456598.6869046642
  9
$TDINDWG
 40
0.0204823727
  9
$TDUSRTIMER
 40
0.0204823727
  9
$USRTIMER
 70
     1
  9
$ANGBASE
 50
0.0
  9
$ANGDIR
 70
     0
  9
$PDMODE
 70
     0
  9
$PDSIZE
 40
0.0
  9
$PLINEWID
 40
0.0
  9
$COORDS
 70
     1
  9
$SPLFRAME
 70
     0
  9
$SPLINETYPE
 70
     6
  9
$SPLINESEGS
 70
     8
  9
$ATTDIA
 70
     0
  9
$ATTREQ
 70
     1
  9
$HANDLING
 70
     1
  9
$HANDSEED
  5
1A39
  9
$SURFTAB1
 70
     6
  9
$SURFTAB2
 70
     6
  9
$SURFTYPE
 70
     6
  9
$SURFU
 70
     6
  9
$SURFV
 70
     6
  9
$UCSNAME
  2

  9
$UCSORG
 10
0.0
 20
0.0
 30
0.0
  9
$UCSXDIR
 10
1.0
 20
0.0
 30
0.0
  9
$UCSYDIR
 10
0.0
 20
1.0
 30
0.0
  9
$PUCSNAME
  2

  9
$PUCSORG
 10
0.0
 20
0.0
 30
0.0
  9
$PUCSXDIR
 10
1.0
 20
0.0
 30
0.0
  9
$PUCSYDIR
 10
0.0
 20
1.0
 30
0.0
  9
$USERI1
 70
     0
  9
$USERI2
 70
     1
  9
$USERI3
 70
     1
  9
$USERI4
 70
     0
  9
$USERI5
 70
     0
  9
$USERR1
 40
0.0
  9
$USERR2
 40
0.0
  9
$USERR3
 40
0.0
  9
$USERR4
 40
0.0
  9
$USERR5
 40
0.0
  9
$WORLDVIEW
 70
     1
  9
$SHADEDGE
 70
     3
  9
$SHADEDIF
 70
    70
  9
$TILEMODE
 70
     1
  9
$MAXACTVP
 70
    16
  9
$PLIMCHECK
 70
     0
  9
$PEXTMIN
 10
1.0000000000000000E+020
 20
1.0000000000000000E+020
 30
1.0000000000000000E+020
  9
$PEXTMAX
 10
-1.0000000000000000E+020
 20
-1.0000000000000000E+020
 30
-1.0000000000000000E+020
  9
$PLIMMIN
 10
0.0
 20
0.0
  9
$PLIMMAX
 10
12.0
 20
9.0
  9
$UNITMODE
 70
     0
  9
$VISRETAIN
 70
     0
  9
$PLINEGEN
 70
     1
  9
$PSLTSCALE
 70
     0
  0
ENDSEC
  0
SECTION
  2
TABLES
  0
TABLE
  2
VPORT
 70
     1
  0
VPORT
  2
*ACTIVE
 70
     0
 10
0.0
 20
0.0
 11
1.0
 21
1.0
 12
187.49427839065231
 22
169.9063198933564
 13
0.0
 23
0.0
 14
10.0
 24
10.0
 15
10.0
 25
10.0
 16
0.0
 26
0.0
 36
1.0
 17
0.0
 27
0.0
 37
0.0
 40
348.89937369551939
 41
1.831871345029239
 42
50.0
 43
0.0
 44
0.0
 50
0.0
 51
0.0
 71
     0
 72
   500
 73
     1
 74
     0
 75
     0
 76
     0
 77
     0
 78
     2
  0
ENDTAB
  0
TABLE
  2
LTYPE
 70
     4
  0
LTYPE
  2
CONTINUOUS
 70
     0
  3
Solid Line
 72
    65
 73
     0
 40
0.0
  0
LTYPE
  2
CENTER
 70
     0
  3
____ _ ____ _ ____ _ ____ _ ____ _ ____ _ ____
 72
    65
 73
     4
 40
2.0
 49
1.25
 49
-0.25
 49
0.25
 49
-0.25
  0
LTYPE
  2
HIDDEN
 70
     0
  3
_ _ _ _ _ _ _ _ _ _ _ _ _ _ _ _ _ _ _ _ _ _ _
 72
    65
 73
     2
 40
0.375
 49
0.25
 49
-0.125
  0
LTYPE
  2
PHANTOM2
 70
     0
  3
___ _ _ ___ _ _ ___ _ _ ___ _ _
 72
    65
 73
     6
 40
1.25
 49
0.625
 49
-0.125
 49
0.125
 49
-0.125
 49
0.125
 49
-0.125
  0
ENDTAB
  0
TABLE
  2
LAYER
 70
     4
  0
LAYER
  2
0
 70
     0
 62
     7
  6
CONTINUOUS
  0
LAYER
  2
1
 70
     0
 62
     1
  6
CENTER
  0
LAYER
  2
2
 70
     0
 62
     2
  6
HIDDEN
  0
LAYER
  2
3
 70
     0
 62
     3
  6
CONTINUOUS
  0
ENDTAB
  0
TABLE
  2
STYLE
 70
     2
  0
STYLE
  2
STANDARD
 70
     0
 40
0.0
 41
1.0
 50
0.0
 71
     0
 42
2.0
  3
TXT
  4
BIGFONT
  0
STYLE
  2
STANDARD1
 70
     0
 40
0.0
 41
1.0
 50
0.0
 71
     0
 42
3.0
  3
txt
  4

  0
ENDTAB
  0
TABLE
  2
VIEW
 70
     1
  0
VIEW
  2
ALL
 70
     0
 40
270.0
 10
220.99159663865549
 20
135.0
 41
0.0
 11
0.0
 21
0.0
 31
1.0
 12
0.0
 22
0.0
 32
0.0
 42
0.0
 43
0.0
 44
0.0
 50
0.0
 71
     0
  0
ENDTAB
  0
TABLE
  2
UCS
 70
     0
  0
ENDTAB
  0
TABLE
  2
APPID
 70
     3
  0
APPID
  2
ACAD
 70
     0
  0
APPID
  2
ACAD_MLEADERVER
 70
     0
  0
APPID
  2
ACAD_NAV_VCDISPLAY
 70
     0
  0
ENDTAB
  0
TABLE
  2
DIMSTYLE
 70
     1
  0
DIMSTYLE
  2
STANDARD
 70
     0
  3

  4

  5

  6

  7

 40
1.0
 41
0.18
 42
0.0625
 43
0.38
 44
0.18
 45
0.0
 46
0.0
 47
0.0
 48
0.0
140
0.18
141
0.09
142
0.0
143
25.399999999999999
144
1.0
145
0.0
146
1.0
147
0.09
 71
     0
 72
     0
 73
     1
 74
     1
 75
     0
 76
     0
 77
     0
 78
     0
170
     0
171
     2
172
     0
173
     0
174
     0
175
     0
176
     0
177
     0
178
     0
  0
ENDTAB
  0
ENDSEC
  0
SECTION
  2
BLOCKS
  0
BLOCK
  8
0
  2
$MODEL_SPACE
 70
     0
 10
0.0
 20
0.0
 30
0.0
  3
$MODEL_SPACE
  1

  0
ENDBLK
  5
217
  8
0
  0
BLOCK
 67
     1
  8
0
  2
$PAPER_SPACE
 70
     0
 10
0.0
 20
0.0
 30
0.0
  3
$PAPER_SPACE
  1

  0
ENDBLK
  5
215
 67
     1
  8
0
  0
BLOCK
  8
0
  2
*X0
 70
     1
 10
0.0
 20
0.0
 30
0.0
  3
*X0
  1

  0
LINE
  5
16C2
  8
0
 62
     0
 10
150.88758804568721
 20
208.77308937725201
 30
0.0
 11
150.88758804568721
 21
208.77308937725201
 31
0.0
  0
LINE
  5
16C3
  8
0
 62
     0
 10
150.76258804568721
 20
208.77308937725201
 30
0.0
 11
150.76258804568721
 21
208.77308937725201
 31
0.0
  0
LINE
  5
16C4
  8
0
 62
     0
 10
150.63758804568721
 20
208.77308937725201
 30
0.0
 11
150.63758804568721
 21
208.77308937725201
 31
0.0
  0
LINE
  5
16C5
  8
0
 62
     0
 10
150.51258804568729
 20
208.77308937725201
 30
0.0
 11
150.51258804568729
 21
208.77308937725201
 31
0.0
  0
LINE
  5
16C6
  8
0
 62
     0
 10
150.38758804568721
 20
208.77308937725201
 30
0.0
 11
150.38758804568721
 21
208.77308937725201
 31
0.0
  0
LINE
  5
16C7
  8
0
 62
     0
 10
150.26258804568721
 20
208.77308937725201
 30
0.0
 11
150.26258804568721
 21
208.77308937725201
 31
0.0
  0
LINE
  5
16C8
  8
0
 62
     0
 10
150.13758804568721
 20
208.77308937725201
 30
0.0
 11
150.13758804568721
 21
208.77308937725201
 31
0.0
  0
LINE
  5
16C9
  8
0
 62
     0
 10
153.01258804568721
 20
208.77308937725201
 30
0.0
 11
153.01258804568721
 21
208.77308937725201
 31
0.0
  0
LINE
  5
16CA
  8
0
 62
     0
 10
152.88758804568721
 20
208.77308937725201
 30
0.0
 11
152.88758804568721
 21
208.77308937725201
 31
0.0
  0
LINE
  5
16CB
  8
0
 62
     0
 10
152.76258804568729
 20
208.77308937725201
 30
0.0
 11
152.76258804568729
 21
208.77308937725201
 31
0.0
  0
LINE
  5
16CC
  8
0
 62
     0
 10
152.63758804568729
 20
208.77308937725201
 30
0.0
 11
152.63758804568729
 21
208.77308937725201
 31
0.0
  0
LINE
  5
16CD
  8
0
 62
     0
 10
147.26258804568721
 20
208.77308937725201
 30
0.0
 11
147.26258804568721
 21
208.77308937725201
 31
0.0
  0
LINE
  5
16CE
  8
0
 62
     0
 10
147.13758804568721
 20
208.77308937725201
 30
0.0
 11
147.13758804568721
 21
208.77308937725201
 31
0.0
  0
LINE
  5
16CF
  8
0
 62
     0
 10
147.01258804568721
 20
208.77308937725201
 30
0.0
 11
147.01258804568721
 21
208.77308937725201
 31
0.0
  0
LINE
  5
16D0
  8
0
 62
     0
 10
146.88758804568721
 20
208.77308937725201
 30
0.0
 11
146.88758804568721
 21
208.77308937725201
 31
0.0
  0
LINE
  5
16D1
  8
0
 62
     0
 10
146.76258804568721
 20
208.77308937725201
 30
0.0
 11
146.76258804568721
 21
208.77308937725201
 31
0.0
  0
LINE
  5
16D2
  8
0
 62
     0
 10
146.63758804568721
 20
208.77308937725201
 30
0.0
 11
146.63758804568721
 21
208.77308937725201
 31
0.0
  0
LINE
  5
16D3
  8
0
 62
     0
 10
155.26258804568721
 20
208.77308937725201
 30
0.0
 11
155.26258804568721
 21
208.77308937725201
 31
0.0
  0
LINE
  5
16D4
  8
0
 62
     0
 10
155.13758804568721
 20
208.77308937725201
 30
0.0
 11
155.13758804568721
 21
208.77308937725201
 31
0.0
  0
LINE
  5
16D5
  8
0
 62
     0
 10
155.01258804568721
 20
208.77308937725201
 30
0.0
 11
155.01258804568721
 21
208.77308937725201
 31
0.0
  0
LINE
  5
16D6
  8
0
 62
     0
 10
154.88758804568721
 20
208.77308937725201
 30
0.0
 11
154.88758804568721
 21
208.77308937725201
 31
0.0
  0
LINE
  5
16D7
  8
0
 62
     0
 10
142.63758804568721
 20
208.77308937725201
 30
0.0
 11
142.63758804568721
 21
208.77308937725201
 31
0.0
  0
LINE
  5
16D8
  8
0
 62
     0
 10
142.51258804568721
 20
208.77308937725201
 30
0.0
 11
142.51258804568721
 21
208.77308937725201
 31
0.0
  0
LINE
  5
16D9
  8
0
 62
     0
 10
142.38758804568721
 20
208.77308937725201
 30
0.0
 11
142.38758804568721
 21
208.77308937725201
 31
0.0
  0
LINE
  5
16DA
  8
0
 62
     0
 10
142.26258804568721
 20
208.77308937725201
 30
0.0
 11
142.26258804568721
 21
208.77308937725201
 31
0.0
  0
LINE
  5
16DB
  8
0
 62
     0
 10
151.32508804568721
 20
208.89808937725209
 30
0.0
 11
151.32508804568721
 21
208.89808937725209
 31
0.0
  0
LINE
  5
16DC
  8
0
 62
     0
 10
151.20008804568729
 20
208.89808937725209
 30
0.0
 11
151.20008804568729
 21
208.89808937725209
 31
0.0
  0
LINE
  5
16DD
  8
0
 62
     0
 10
151.07508804568729
 20
208.89808937725209
 30
0.0
 11
151.07508804568729
 21
208.89808937725209
 31
0.0
  0
LINE
  5
16DE
  8
0
 62
     0
 10
150.95008804568721
 20
208.89808937725209
 30
0.0
 11
150.95008804568721
 21
208.89808937725209
 31
0.0
  0
LINE
  5
16DF
  8
0
 62
     0
 10
150.82508804568721
 20
208.89808937725209
 30
0.0
 11
150.82508804568721
 21
208.89808937725209
 31
0.0
  0
LINE
  5
16E0
  8
0
 62
     0
 10
150.70008804568721
 20
208.89808937725209
 30
0.0
 11
150.70008804568721
 21
208.89808937725209
 31
0.0
  0
LINE
  5
16E1
  8
0
 62
     0
 10
150.57508804568721
 20
208.89808937725209
 30
0.0
 11
150.57508804568721
 21
208.89808937725209
 31
0.0
  0
LINE
  5
16E2
  8
0
 62
     0
 10
150.45008804568721
 20
208.89808937725209
 30
0.0
 11
150.45008804568721
 21
208.89808937725209
 31
0.0
  0
LINE
  5
16E3
  8
0
 62
     0
 10
150.32508804568721
 20
208.89808937725209
 30
0.0
 11
150.32508804568721
 21
208.89808937725209
 31
0.0
  0
LINE
  5
16E4
  8
0
 62
     0
 10
150.20008804568721
 20
208.89808937725209
 30
0.0
 11
150.20008804568721
 21
208.89808937725209
 31
0.0
  0
LINE
  5
16E5
  8
0
 62
     0
 10
150.07508804568721
 20
208.89808937725209
 30
0.0
 11
150.07508804568721
 21
208.89808937725209
 31
0.0
  0
LINE
  5
16E6
  8
0
 62
     0
 10
149.95008804568729
 20
208.89808937725209
 30
0.0
 11
149.95008804568729
 21
208.89808937725209
 31
0.0
  0
LINE
  5
16E7
  8
0
 62
     0
 10
149.82508804568721
 20
208.89808937725209
 30
0.0
 11
149.82508804568721
 21
208.89808937725209
 31
0.0
  0
LINE
  5
16E8
  8
0
 62
     0
 10
149.70008804568721
 20
208.89808937725209
 30
0.0
 11
149.70008804568721
 21
208.89808937725209
 31
0.0
  0
LINE
  5
16E9
  8
0
 62
     0
 10
152.95008804568721
 20
208.89808937725209
 30
0.0
 11
152.95008804568721
 21
208.89808937725209
 31
0.0
  0
LINE
  5
16EA
  8
0
 62
     0
 10
152.82508804568721
 20
208.89808937725209
 30
0.0
 11
152.82508804568721
 21
208.89808937725209
 31
0.0
  0
LINE
  5
16EB
  8
0
 62
     0
 10
152.70008804568721
 20
208.89808937725209
 30
0.0
 11
152.70008804568721
 21
208.89808937725209
 31
0.0
  0
LINE
  5
16EC
  8
0
 62
     0
 10
152.57508804568721
 20
208.89808937725209
 30
0.0
 11
152.57508804568721
 21
208.89808937725209
 31
0.0
  0
LINE
  5
16ED
  8
0
 62
     0
 10
147.57508804568721
 20
208.89808937725209
 30
0.0
 11
147.57508804568721
 21
208.89808937725209
 31
0.0
  0
LINE
  5
16EE
  8
0
 62
     0
 10
147.45008804568721
 20
208.89808937725209
 30
0.0
 11
147.45008804568721
 21
208.89808937725209
 31
0.0
  0
LINE
  5
16EF
  8
0
 62
     0
 10
147.32508804568721
 20
208.89808937725209
 30
0.0
 11
147.32508804568721
 21
208.89808937725209
 31
0.0
  0
LINE
  5
16F0
  8
0
 62
     0
 10
147.20008804568721
 20
208.89808937725209
 30
0.0
 11
147.20008804568721
 21
208.89808937725209
 31
0.0
  0
LINE
  5
16F1
  8
0
 62
     0
 10
147.07508804568721
 20
208.89808937725209
 30
0.0
 11
147.07508804568721
 21
208.89808937725209
 31
0.0
  0
LINE
  5
16F2
  8
0
 62
     0
 10
146.95008804568721
 20
208.89808937725209
 30
0.0
 11
146.95008804568721
 21
208.89808937725209
 31
0.0
  0
LINE
  5
16F3
  8
0
 62
     0
 10
146.82508804568729
 20
208.89808937725209
 30
0.0
 11
146.82508804568729
 21
208.89808937725209
 31
0.0
  0
LINE
  5
16F4
  8
0
 62
     0
 10
146.70008804568721
 20
208.89808937725209
 30
0.0
 11
146.70008804568721
 21
208.89808937725209
 31
0.0
  0
LINE
  5
16F5
  8
0
 62
     0
 10
146.57508804568721
 20
208.89808937725209
 30
0.0
 11
146.57508804568721
 21
208.89808937725209
 31
0.0
  0
LINE
  5
16F6
  8
0
 62
     0
 10
146.45008804568721
 20
208.89808937725209
 30
0.0
 11
146.45008804568721
 21
208.89808937725209
 31
0.0
  0
LINE
  5
16F7
  8
0
 62
     0
 10
146.32508804568721
 20
208.89808937725209
 30
0.0
 11
146.32508804568721
 21
208.89808937725209
 31
0.0
  0
LINE
  5
16F8
  8
0
 62
     0
 10
155.32508804568721
 20
208.89808937725209
 30
0.0
 11
155.32508804568721
 21
208.89808937725209
 31
0.0
  0
LINE
  5
16F9
  8
0
 62
     0
 10
155.20008804568729
 20
208.89808937725209
 30
0.0
 11
155.20008804568729
 21
208.89808937725209
 31
0.0
  0
LINE
  5
16FA
  8
0
 62
     0
 10
155.07508804568721
 20
208.89808937725209
 30
0.0
 11
155.07508804568721
 21
208.89808937725209
 31
0.0
  0
LINE
  5
16FB
  8
0
 62
     0
 10
154.95008804568721
 20
208.89808937725209
 30
0.0
 11
154.95008804568721
 21
208.89808937725209
 31
0.0
  0
LINE
  5
16FC
  8
0
 62
     0
 10
142.70008804568729
 20
208.89808937725209
 30
0.0
 11
142.70008804568729
 21
208.89808937725209
 31
0.0
  0
LINE
  5
16FD
  8
0
 62
     0
 10
142.57508804568721
 20
208.89808937725209
 30
0.0
 11
142.57508804568721
 21
208.89808937725209
 31
0.0
  0
LINE
  5
16FE
  8
0
 62
     0
 10
142.45008804568721
 20
208.89808937725209
 30
0.0
 11
142.45008804568721
 21
208.89808937725209
 31
0.0
  0
LINE
  5
16FF
  8
0
 62
     0
 10
142.32508804568721
 20
208.89808937725209
 30
0.0
 11
142.32508804568721
 21
208.89808937725209
 31
0.0
  0
LINE
  5
1700
  8
0
 62
     0
 10
151.51258804568729
 20
209.02308937725201
 30
0.0
 11
151.51258804568729
 21
209.02308937725201
 31
0.0
  0
LINE
  5
1701
  8
0
 62
     0
 10
151.38758804568721
 20
209.02308937725201
 30
0.0
 11
151.38758804568721
 21
209.02308937725201
 31
0.0
  0
LINE
  5
1702
  8
0
 62
     0
 10
151.26258804568721
 20
209.02308937725201
 30
0.0
 11
151.26258804568721
 21
209.02308937725201
 31
0.0
  0
LINE
  5
1703
  8
0
 62
     0
 10
151.13758804568721
 20
209.02308937725201
 30
0.0
 11
151.13758804568721
 21
209.02308937725201
 31
0.0
  0
LINE
  5
1704
  8
0
 62
     0
 10
151.01258804568721
 20
209.02308937725201
 30
0.0
 11
151.01258804568721
 21
209.02308937725201
 31
0.0
  0
LINE
  5
1705
  8
0
 62
     0
 10
150.88758804568721
 20
209.02308937725201
 30
0.0
 11
150.88758804568721
 21
209.02308937725201
 31
0.0
  0
LINE
  5
1706
  8
0
 62
     0
 10
150.76258804568721
 20
209.02308937725201
 30
0.0
 11
150.76258804568721
 21
209.02308937725201
 31
0.0
  0
LINE
  5
1707
  8
0
 62
     0
 10
150.63758804568721
 20
209.02308937725201
 30
0.0
 11
150.63758804568721
 21
209.02308937725201
 31
0.0
  0
LINE
  5
1708
  8
0
 62
     0
 10
150.51258804568729
 20
209.02308937725201
 30
0.0
 11
150.51258804568729
 21
209.02308937725201
 31
0.0
  0
LINE
  5
1709
  8
0
 62
     0
 10
150.38758804568721
 20
209.02308937725201
 30
0.0
 11
150.38758804568721
 21
209.02308937725201
 31
0.0
  0
LINE
  5
170A
  8
0
 62
     0
 10
150.26258804568721
 20
209.02308937725201
 30
0.0
 11
150.26258804568721
 21
209.02308937725201
 31
0.0
  0
LINE
  5
170B
  8
0
 62
     0
 10
150.13758804568721
 20
209.02308937725201
 30
0.0
 11
150.13758804568721
 21
209.02308937725201
 31
0.0
  0
LINE
  5
170C
  8
0
 62
     0
 10
150.01258804568721
 20
209.02308937725201
 30
0.0
 11
150.01258804568721
 21
209.02308937725201
 31
0.0
  0
LINE
  5
170D
  8
0
 62
     0
 10
149.88758804568721
 20
209.02308937725201
 30
0.0
 11
149.88758804568721
 21
209.02308937725201
 31
0.0
  0
LINE
  5
170E
  8
0
 62
     0
 10
149.76258804568721
 20
209.02308937725201
 30
0.0
 11
149.76258804568721
 21
209.02308937725201
 31
0.0
  0
LINE
  5
170F
  8
0
 62
     0
 10
149.63758804568729
 20
209.02308937725201
 30
0.0
 11
149.63758804568729
 21
209.02308937725201
 31
0.0
  0
LINE
  5
1710
  8
0
 62
     0
 10
149.51258804568729
 20
209.02308937725201
 30
0.0
 11
149.51258804568729
 21
209.02308937725201
 31
0.0
  0
LINE
  5
1711
  8
0
 62
     0
 10
153.01258804568721
 20
209.02308937725201
 30
0.0
 11
153.01258804568721
 21
209.02308937725201
 31
0.0
  0
LINE
  5
1712
  8
0
 62
     0
 10
152.88758804568721
 20
209.02308937725201
 30
0.0
 11
152.88758804568721
 21
209.02308937725201
 31
0.0
  0
LINE
  5
1713
  8
0
 62
     0
 10
152.76258804568729
 20
209.02308937725201
 30
0.0
 11
152.76258804568729
 21
209.02308937725201
 31
0.0
  0
LINE
  5
1714
  8
0
 62
     0
 10
152.63758804568729
 20
209.02308937725201
 30
0.0
 11
152.63758804568729
 21
209.02308937725201
 31
0.0
  0
LINE
  5
1715
  8
0
 62
     0
 10
147.76258804568721
 20
209.02308937725201
 30
0.0
 11
147.76258804568721
 21
209.02308937725201
 31
0.0
  0
LINE
  5
1716
  8
0
 62
     0
 10
147.63758804568721
 20
209.02308937725201
 30
0.0
 11
147.63758804568721
 21
209.02308937725201
 31
0.0
  0
LINE
  5
1717
  8
0
 62
     0
 10
147.51258804568721
 20
209.02308937725201
 30
0.0
 11
147.51258804568721
 21
209.02308937725201
 31
0.0
  0
LINE
  5
1718
  8
0
 62
     0
 10
147.38758804568729
 20
209.02308937725201
 30
0.0
 11
147.38758804568729
 21
209.02308937725201
 31
0.0
  0
LINE
  5
1719
  8
0
 62
     0
 10
147.26258804568721
 20
209.02308937725201
 30
0.0
 11
147.26258804568721
 21
209.02308937725201
 31
0.0
  0
LINE
  5
171A
  8
0
 62
     0
 10
147.13758804568721
 20
209.02308937725201
 30
0.0
 11
147.13758804568721
 21
209.02308937725201
 31
0.0
  0
LINE
  5
171B
  8
0
 62
     0
 10
147.01258804568721
 20
209.02308937725201
 30
0.0
 11
147.01258804568721
 21
209.02308937725201
 31
0.0
  0
LINE
  5
171C
  8
0
 62
     0
 10
146.88758804568721
 20
209.02308937725201
 30
0.0
 11
146.88758804568721
 21
209.02308937725201
 31
0.0
  0
LINE
  5
171D
  8
0
 62
     0
 10
146.76258804568721
 20
209.02308937725201
 30
0.0
 11
146.76258804568721
 21
209.02308937725201
 31
0.0
  0
LINE
  5
171E
  8
0
 62
     0
 10
146.63758804568721
 20
209.02308937725201
 30
0.0
 11
146.63758804568721
 21
209.02308937725201
 31
0.0
  0
LINE
  5
171F
  8
0
 62
     0
 10
146.51258804568729
 20
209.02308937725201
 30
0.0
 11
146.51258804568729
 21
209.02308937725201
 31
0.0
  0
LINE
  5
1720
  8
0
 62
     0
 10
146.38758804568729
 20
209.02308937725201
 30
0.0
 11
146.38758804568729
 21
209.02308937725201
 31
0.0
  0
LINE
  5
1721
  8
0
 62
     0
 10
146.26258804568721
 20
209.02308937725201
 30
0.0
 11
146.26258804568721
 21
209.02308937725201
 31
0.0
  0
LINE
  5
1722
  8
0
 62
     0
 10
146.13758804568721
 20
209.02308937725201
 30
0.0
 11
146.13758804568721
 21
209.02308937725201
 31
0.0
  0
LINE
  5
1723
  8
0
 62
     0
 10
155.26258804568721
 20
209.02308937725201
 30
0.0
 11
155.26258804568721
 21
209.02308937725201
 31
0.0
  0
LINE
  5
1724
  8
0
 62
     0
 10
155.13758804568721
 20
209.02308937725201
 30
0.0
 11
155.13758804568721
 21
209.02308937725201
 31
0.0
  0
LINE
  5
1725
  8
0
 62
     0
 10
155.01258804568721
 20
209.02308937725201
 30
0.0
 11
155.01258804568721
 21
209.02308937725201
 31
0.0
  0
LINE
  5
1726
  8
0
 62
     0
 10
154.88758804568721
 20
209.02308937725201
 30
0.0
 11
154.88758804568721
 21
209.02308937725201
 31
0.0
  0
LINE
  5
1727
  8
0
 62
     0
 10
142.63758804568721
 20
209.02308937725201
 30
0.0
 11
142.63758804568721
 21
209.02308937725201
 31
0.0
  0
LINE
  5
1728
  8
0
 62
     0
 10
142.51258804568721
 20
209.02308937725201
 30
0.0
 11
142.51258804568721
 21
209.02308937725201
 31
0.0
  0
LINE
  5
1729
  8
0
 62
     0
 10
142.38758804568721
 20
209.02308937725201
 30
0.0
 11
142.38758804568721
 21
209.02308937725201
 31
0.0
  0
LINE
  5
172A
  8
0
 62
     0
 10
142.26258804568721
 20
209.02308937725201
 30
0.0
 11
142.26258804568721
 21
209.02308937725201
 31
0.0
  0
LINE
  5
172B
  8
0
 62
     0
 10
149.82508804568721
 20
209.14808937725209
 30
0.0
 11
149.82508804568721
 21
209.14808937725209
 31
0.0
  0
LINE
  5
172C
  8
0
 62
     0
 10
149.70008804568721
 20
209.14808937725209
 30
0.0
 11
149.70008804568721
 21
209.14808937725209
 31
0.0
  0
LINE
  5
172D
  8
0
 62
     0
 10
149.57508804568721
 20
209.14808937725209
 30
0.0
 11
149.57508804568721
 21
209.14808937725209
 31
0.0
  0
LINE
  5
172E
  8
0
 62
     0
 10
149.45008804568721
 20
209.14808937725209
 30
0.0
 11
149.45008804568721
 21
209.14808937725209
 31
0.0
  0
LINE
  5
172F
  8
0
 62
     0
 10
149.32508804568721
 20
209.14808937725209
 30
0.0
 11
149.32508804568721
 21
209.14808937725209
 31
0.0
  0
LINE
  5
1730
  8
0
 62
     0
 10
151.57508804568721
 20
209.14808937725209
 30
0.0
 11
151.57508804568721
 21
209.14808937725209
 31
0.0
  0
LINE
  5
1731
  8
0
 62
     0
 10
151.45008804568721
 20
209.14808937725209
 30
0.0
 11
151.45008804568721
 21
209.14808937725209
 31
0.0
  0
LINE
  5
1732
  8
0
 62
     0
 10
151.32508804568721
 20
209.14808937725209
 30
0.0
 11
151.32508804568721
 21
209.14808937725209
 31
0.0
  0
LINE
  5
1733
  8
0
 62
     0
 10
151.20008804568729
 20
209.14808937725209
 30
0.0
 11
151.20008804568729
 21
209.14808937725209
 31
0.0
  0
LINE
  5
1734
  8
0
 62
     0
 10
151.07508804568729
 20
209.14808937725209
 30
0.0
 11
151.07508804568729
 21
209.14808937725209
 31
0.0
  0
LINE
  5
1735
  8
0
 62
     0
 10
147.95008804568729
 20
209.14808937725209
 30
0.0
 11
147.95008804568729
 21
209.14808937725209
 31
0.0
  0
LINE
  5
1736
  8
0
 62
     0
 10
147.82508804568721
 20
209.14808937725209
 30
0.0
 11
147.82508804568721
 21
209.14808937725209
 31
0.0
  0
LINE
  5
1737
  8
0
 62
     0
 10
147.70008804568721
 20
209.14808937725209
 30
0.0
 11
147.70008804568721
 21
209.14808937725209
 31
0.0
  0
LINE
  5
1738
  8
0
 62
     0
 10
147.57508804568721
 20
209.14808937725209
 30
0.0
 11
147.57508804568721
 21
209.14808937725209
 31
0.0
  0
LINE
  5
1739
  8
0
 62
     0
 10
147.45008804568721
 20
209.14808937725209
 30
0.0
 11
147.45008804568721
 21
209.14808937725209
 31
0.0
  0
LINE
  5
173A
  8
0
 62
     0
 10
147.32508804568721
 20
209.14808937725209
 30
0.0
 11
147.32508804568721
 21
209.14808937725209
 31
0.0
  0
LINE
  5
173B
  8
0
 62
     0
 10
152.95008804568721
 20
209.14808937725209
 30
0.0
 11
152.95008804568721
 21
209.14808937725209
 31
0.0
  0
LINE
  5
173C
  8
0
 62
     0
 10
152.82508804568721
 20
209.14808937725209
 30
0.0
 11
152.82508804568721
 21
209.14808937725209
 31
0.0
  0
LINE
  5
173D
  8
0
 62
     0
 10
152.70008804568721
 20
209.14808937725209
 30
0.0
 11
152.70008804568721
 21
209.14808937725209
 31
0.0
  0
LINE
  5
173E
  8
0
 62
     0
 10
152.57508804568721
 20
209.14808937725209
 30
0.0
 11
152.57508804568721
 21
209.14808937725209
 31
0.0
  0
LINE
  5
173F
  8
0
 62
     0
 10
146.57508804568721
 20
209.14808937725209
 30
0.0
 11
146.57508804568721
 21
209.14808937725209
 31
0.0
  0
LINE
  5
1740
  8
0
 62
     0
 10
146.45008804568721
 20
209.14808937725209
 30
0.0
 11
146.45008804568721
 21
209.14808937725209
 31
0.0
  0
LINE
  5
1741
  8
0
 62
     0
 10
146.32508804568721
 20
209.14808937725209
 30
0.0
 11
146.32508804568721
 21
209.14808937725209
 31
0.0
  0
LINE
  5
1742
  8
0
 62
     0
 10
146.20008804568721
 20
209.14808937725209
 30
0.0
 11
146.20008804568721
 21
209.14808937725209
 31
0.0
  0
LINE
  5
1743
  8
0
 62
     0
 10
146.07508804568721
 20
209.14808937725209
 30
0.0
 11
146.07508804568721
 21
209.14808937725209
 31
0.0
  0
LINE
  5
1744
  8
0
 62
     0
 10
155.32508804568721
 20
209.14808937725209
 30
0.0
 11
155.32508804568721
 21
209.14808937725209
 31
0.0
  0
LINE
  5
1745
  8
0
 62
     0
 10
155.20008804568729
 20
209.14808937725209
 30
0.0
 11
155.20008804568729
 21
209.14808937725209
 31
0.0
  0
LINE
  5
1746
  8
0
 62
     0
 10
155.07508804568721
 20
209.14808937725209
 30
0.0
 11
155.07508804568721
 21
209.14808937725209
 31
0.0
  0
LINE
  5
1747
  8
0
 62
     0
 10
154.95008804568721
 20
209.14808937725209
 30
0.0
 11
154.95008804568721
 21
209.14808937725209
 31
0.0
  0
LINE
  5
1748
  8
0
 62
     0
 10
142.70008804568729
 20
209.14808937725209
 30
0.0
 11
142.70008804568729
 21
209.14808937725209
 31
0.0
  0
LINE
  5
1749
  8
0
 62
     0
 10
142.57508804568721
 20
209.14808937725209
 30
0.0
 11
142.57508804568721
 21
209.14808937725209
 31
0.0
  0
LINE
  5
174A
  8
0
 62
     0
 10
142.45008804568721
 20
209.14808937725209
 30
0.0
 11
142.45008804568721
 21
209.14808937725209
 31
0.0
  0
LINE
  5
174B
  8
0
 62
     0
 10
142.32508804568721
 20
209.14808937725209
 30
0.0
 11
142.32508804568721
 21
209.14808937725209
 31
0.0
  0
LINE
  5
174C
  8
0
 62
     0
 10
149.63758804568729
 20
209.27308937725209
 30
0.0
 11
149.63758804568729
 21
209.27308937725209
 31
0.0
  0
LINE
  5
174D
  8
0
 62
     0
 10
149.51258804568729
 20
209.27308937725209
 30
0.0
 11
149.51258804568729
 21
209.27308937725209
 31
0.0
  0
LINE
  5
174E
  8
0
 62
     0
 10
149.38758804568721
 20
209.27308937725209
 30
0.0
 11
149.38758804568721
 21
209.27308937725209
 31
0.0
  0
LINE
  5
174F
  8
0
 62
     0
 10
149.26258804568721
 20
209.27308937725209
 30
0.0
 11
149.26258804568721
 21
209.27308937725209
 31
0.0
  0
LINE
  5
1750
  8
0
 62
     0
 10
151.63758804568721
 20
209.27308937725209
 30
0.0
 11
151.63758804568721
 21
209.27308937725209
 31
0.0
  0
LINE
  5
1751
  8
0
 62
     0
 10
151.51258804568729
 20
209.27308937725209
 30
0.0
 11
151.51258804568729
 21
209.27308937725209
 31
0.0
  0
LINE
  5
1752
  8
0
 62
     0
 10
151.38758804568721
 20
209.27308937725209
 30
0.0
 11
151.38758804568721
 21
209.27308937725209
 31
0.0
  0
LINE
  5
1753
  8
0
 62
     0
 10
151.26258804568721
 20
209.27308937725209
 30
0.0
 11
151.26258804568721
 21
209.27308937725209
 31
0.0
  0
LINE
  5
1754
  8
0
 62
     0
 10
148.01258804568721
 20
209.27308937725209
 30
0.0
 11
148.01258804568721
 21
209.27308937725209
 31
0.0
  0
LINE
  5
1755
  8
0
 62
     0
 10
147.88758804568721
 20
209.27308937725209
 30
0.0
 11
147.88758804568721
 21
209.27308937725209
 31
0.0
  0
LINE
  5
1756
  8
0
 62
     0
 10
147.76258804568721
 20
209.27308937725209
 30
0.0
 11
147.76258804568721
 21
209.27308937725209
 31
0.0
  0
LINE
  5
1757
  8
0
 62
     0
 10
147.63758804568721
 20
209.27308937725209
 30
0.0
 11
147.63758804568721
 21
209.27308937725209
 31
0.0
  0
LINE
  5
1758
  8
0
 62
     0
 10
153.01258804568721
 20
209.27308937725209
 30
0.0
 11
153.01258804568721
 21
209.27308937725209
 31
0.0
  0
LINE
  5
1759
  8
0
 62
     0
 10
152.88758804568721
 20
209.27308937725209
 30
0.0
 11
152.88758804568721
 21
209.27308937725209
 31
0.0
  0
LINE
  5
175A
  8
0
 62
     0
 10
152.76258804568729
 20
209.27308937725209
 30
0.0
 11
152.76258804568729
 21
209.27308937725209
 31
0.0
  0
LINE
  5
175B
  8
0
 62
     0
 10
152.63758804568729
 20
209.27308937725209
 30
0.0
 11
152.63758804568729
 21
209.27308937725209
 31
0.0
  0
LINE
  5
175C
  8
0
 62
     0
 10
146.38758804568729
 20
209.27308937725209
 30
0.0
 11
146.38758804568729
 21
209.27308937725209
 31
0.0
  0
LINE
  5
175D
  8
0
 62
     0
 10
146.26258804568721
 20
209.27308937725209
 30
0.0
 11
146.26258804568721
 21
209.27308937725209
 31
0.0
  0
LINE
  5
175E
  8
0
 62
     0
 10
146.13758804568721
 20
209.27308937725209
 30
0.0
 11
146.13758804568721
 21
209.27308937725209
 31
0.0
  0
LINE
  5
175F
  8
0
 62
     0
 10
146.01258804568721
 20
209.27308937725209
 30
0.0
 11
146.01258804568721
 21
209.27308937725209
 31
0.0
  0
LINE
  5
1760
  8
0
 62
     0
 10
145.88758804568721
 20
209.27308937725209
 30
0.0
 11
145.88758804568721
 21
209.27308937725209
 31
0.0
  0
LINE
  5
1761
  8
0
 62
     0
 10
155.26258804568721
 20
209.27308937725209
 30
0.0
 11
155.26258804568721
 21
209.27308937725209
 31
0.0
  0
LINE
  5
1762
  8
0
 62
     0
 10
155.13758804568721
 20
209.27308937725209
 30
0.0
 11
155.13758804568721
 21
209.27308937725209
 31
0.0
  0
LINE
  5
1763
  8
0
 62
     0
 10
155.01258804568721
 20
209.27308937725209
 30
0.0
 11
155.01258804568721
 21
209.27308937725209
 31
0.0
  0
LINE
  5
1764
  8
0
 62
     0
 10
154.88758804568721
 20
209.27308937725209
 30
0.0
 11
154.88758804568721
 21
209.27308937725209
 31
0.0
  0
LINE
  5
1765
  8
0
 62
     0
 10
142.63758804568721
 20
209.27308937725209
 30
0.0
 11
142.63758804568721
 21
209.27308937725209
 31
0.0
  0
LINE
  5
1766
  8
0
 62
     0
 10
142.51258804568721
 20
209.27308937725209
 30
0.0
 11
142.51258804568721
 21
209.27308937725209
 31
0.0
  0
LINE
  5
1767
  8
0
 62
     0
 10
142.38758804568721
 20
209.27308937725209
 30
0.0
 11
142.38758804568721
 21
209.27308937725209
 31
0.0
  0
LINE
  5
1768
  8
0
 62
     0
 10
142.26258804568721
 20
209.27308937725209
 30
0.0
 11
142.26258804568721
 21
209.27308937725209
 31
0.0
  0
LINE
  5
1769
  8
0
 62
     0
 10
149.57508804568721
 20
209.39808937725209
 30
0.0
 11
149.57508804568721
 21
209.39808937725209
 31
0.0
  0
LINE
  5
176A
  8
0
 62
     0
 10
149.45008804568721
 20
209.39808937725209
 30
0.0
 11
149.45008804568721
 21
209.39808937725209
 31
0.0
  0
LINE
  5
176B
  8
0
 62
     0
 10
149.32508804568721
 20
209.39808937725209
 30
0.0
 11
149.32508804568721
 21
209.39808937725209
 31
0.0
  0
LINE
  5
176C
  8
0
 62
     0
 10
149.20008804568721
 20
209.39808937725209
 30
0.0
 11
149.20008804568721
 21
209.39808937725209
 31
0.0
  0
LINE
  5
176D
  8
0
 62
     0
 10
151.70008804568721
 20
209.39808937725209
 30
0.0
 11
151.70008804568721
 21
209.39808937725209
 31
0.0
  0
LINE
  5
176E
  8
0
 62
     0
 10
151.57508804568721
 20
209.39808937725209
 30
0.0
 11
151.57508804568721
 21
209.39808937725209
 31
0.0
  0
LINE
  5
176F
  8
0
 62
     0
 10
151.45008804568721
 20
209.39808937725209
 30
0.0
 11
151.45008804568721
 21
209.39808937725209
 31
0.0
  0
LINE
  5
1770
  8
0
 62
     0
 10
151.32508804568721
 20
209.39808937725209
 30
0.0
 11
151.32508804568721
 21
209.39808937725209
 31
0.0
  0
LINE
  5
1771
  8
0
 62
     0
 10
148.07508804568729
 20
209.39808937725209
 30
0.0
 11
148.07508804568729
 21
209.39808937725209
 31
0.0
  0
LINE
  5
1772
  8
0
 62
     0
 10
147.95008804568729
 20
209.39808937725209
 30
0.0
 11
147.95008804568729
 21
209.39808937725209
 31
0.0
  0
LINE
  5
1773
  8
0
 62
     0
 10
147.82508804568721
 20
209.39808937725209
 30
0.0
 11
147.82508804568721
 21
209.39808937725209
 31
0.0
  0
LINE
  5
1774
  8
0
 62
     0
 10
147.70008804568721
 20
209.39808937725209
 30
0.0
 11
147.70008804568721
 21
209.39808937725209
 31
0.0
  0
LINE
  5
1775
  8
0
 62
     0
 10
152.95008804568721
 20
209.39808937725209
 30
0.0
 11
152.95008804568721
 21
209.39808937725209
 31
0.0
  0
LINE
  5
1776
  8
0
 62
     0
 10
152.82508804568721
 20
209.39808937725209
 30
0.0
 11
152.82508804568721
 21
209.39808937725209
 31
0.0
  0
LINE
  5
1777
  8
0
 62
     0
 10
152.70008804568721
 20
209.39808937725209
 30
0.0
 11
152.70008804568721
 21
209.39808937725209
 31
0.0
  0
LINE
  5
1778
  8
0
 62
     0
 10
152.57508804568721
 20
209.39808937725209
 30
0.0
 11
152.57508804568721
 21
209.39808937725209
 31
0.0
  0
LINE
  5
1779
  8
0
 62
     0
 10
146.20008804568721
 20
209.39808937725209
 30
0.0
 11
146.20008804568721
 21
209.39808937725209
 31
0.0
  0
LINE
  5
177A
  8
0
 62
     0
 10
146.07508804568721
 20
209.39808937725209
 30
0.0
 11
146.07508804568721
 21
209.39808937725209
 31
0.0
  0
LINE
  5
177B
  8
0
 62
     0
 10
145.95008804568721
 20
209.39808937725209
 30
0.0
 11
145.95008804568721
 21
209.39808937725209
 31
0.0
  0
LINE
  5
177C
  8
0
 62
     0
 10
145.82508804568729
 20
209.39808937725209
 30
0.0
 11
145.82508804568729
 21
209.39808937725209
 31
0.0
  0
LINE
  5
177D
  8
0
 62
     0
 10
155.32508804568721
 20
209.39808937725209
 30
0.0
 11
155.32508804568721
 21
209.39808937725209
 31
0.0
  0
LINE
  5
177E
  8
0
 62
     0
 10
155.20008804568729
 20
209.39808937725209
 30
0.0
 11
155.20008804568729
 21
209.39808937725209
 31
0.0
  0
LINE
  5
177F
  8
0
 62
     0
 10
155.07508804568721
 20
209.39808937725209
 30
0.0
 11
155.07508804568721
 21
209.39808937725209
 31
0.0
  0
LINE
  5
1780
  8
0
 62
     0
 10
154.95008804568721
 20
209.39808937725209
 30
0.0
 11
154.95008804568721
 21
209.39808937725209
 31
0.0
  0
LINE
  5
1781
  8
0
 62
     0
 10
142.70008804568729
 20
209.39808937725209
 30
0.0
 11
142.70008804568729
 21
209.39808937725209
 31
0.0
  0
LINE
  5
1782
  8
0
 62
     0
 10
142.57508804568721
 20
209.39808937725209
 30
0.0
 11
142.57508804568721
 21
209.39808937725209
 31
0.0
  0
LINE
  5
1783
  8
0
 62
     0
 10
142.45008804568721
 20
209.39808937725209
 30
0.0
 11
142.45008804568721
 21
209.39808937725209
 31
0.0
  0
LINE
  5
1784
  8
0
 62
     0
 10
142.32508804568721
 20
209.39808937725209
 30
0.0
 11
142.32508804568721
 21
209.39808937725209
 31
0.0
  0
LINE
  5
1785
  8
0
 62
     0
 10
149.63758804568729
 20
209.52308937725209
 30
0.0
 11
149.63758804568729
 21
209.52308937725209
 31
0.0
  0
LINE
  5
1786
  8
0
 62
     0
 10
149.51258804568729
 20
209.52308937725209
 30
0.0
 11
149.51258804568729
 21
209.52308937725209
 31
0.0
  0
LINE
  5
1787
  8
0
 62
     0
 10
149.38758804568721
 20
209.52308937725209
 30
0.0
 11
149.38758804568721
 21
209.52308937725209
 31
0.0
  0
LINE
  5
1788
  8
0
 62
     0
 10
149.26258804568721
 20
209.52308937725209
 30
0.0
 11
149.26258804568721
 21
209.52308937725209
 31
0.0
  0
LINE
  5
1789
  8
0
 62
     0
 10
151.76258804568721
 20
209.52308937725209
 30
0.0
 11
151.76258804568721
 21
209.52308937725209
 31
0.0
  0
LINE
  5
178A
  8
0
 62
     0
 10
151.63758804568721
 20
209.52308937725209
 30
0.0
 11
151.63758804568721
 21
209.52308937725209
 31
0.0
  0
LINE
  5
178B
  8
0
 62
     0
 10
151.51258804568729
 20
209.52308937725209
 30
0.0
 11
151.51258804568729
 21
209.52308937725209
 31
0.0
  0
LINE
  5
178C
  8
0
 62
     0
 10
151.38758804568721
 20
209.52308937725209
 30
0.0
 11
151.38758804568721
 21
209.52308937725209
 31
0.0
  0
LINE
  5
178D
  8
0
 62
     0
 10
148.13758804568721
 20
209.52308937725209
 30
0.0
 11
148.13758804568721
 21
209.52308937725209
 31
0.0
  0
LINE
  5
178E
  8
0
 62
     0
 10
148.01258804568721
 20
209.52308937725209
 30
0.0
 11
148.01258804568721
 21
209.52308937725209
 31
0.0
  0
LINE
  5
178F
  8
0
 62
     0
 10
147.88758804568721
 20
209.52308937725209
 30
0.0
 11
147.88758804568721
 21
209.52308937725209
 31
0.0
  0
LINE
  5
1790
  8
0
 62
     0
 10
147.76258804568721
 20
209.52308937725209
 30
0.0
 11
147.76258804568721
 21
209.52308937725209
 31
0.0
  0
LINE
  5
1791
  8
0
 62
     0
 10
153.01258804568721
 20
209.52308937725209
 30
0.0
 11
153.01258804568721
 21
209.52308937725209
 31
0.0
  0
LINE
  5
1792
  8
0
 62
     0
 10
152.88758804568721
 20
209.52308937725209
 30
0.0
 11
152.88758804568721
 21
209.52308937725209
 31
0.0
  0
LINE
  5
1793
  8
0
 62
     0
 10
152.76258804568729
 20
209.52308937725209
 30
0.0
 11
152.76258804568729
 21
209.52308937725209
 31
0.0
  0
LINE
  5
1794
  8
0
 62
     0
 10
152.63758804568729
 20
209.52308937725209
 30
0.0
 11
152.63758804568729
 21
209.52308937725209
 31
0.0
  0
LINE
  5
1795
  8
0
 62
     0
 10
146.13758804568721
 20
209.52308937725209
 30
0.0
 11
146.13758804568721
 21
209.52308937725209
 31
0.0
  0
LINE
  5
1796
  8
0
 62
     0
 10
146.01258804568721
 20
209.52308937725209
 30
0.0
 11
146.01258804568721
 21
209.52308937725209
 31
0.0
  0
LINE
  5
1797
  8
0
 62
     0
 10
145.88758804568721
 20
209.52308937725209
 30
0.0
 11
145.88758804568721
 21
209.52308937725209
 31
0.0
  0
LINE
  5
1798
  8
0
 62
     0
 10
145.76258804568721
 20
209.52308937725209
 30
0.0
 11
145.76258804568721
 21
209.52308937725209
 31
0.0
  0
LINE
  5
1799
  8
0
 62
     0
 10
155.26258804568721
 20
209.52308937725209
 30
0.0
 11
155.26258804568721
 21
209.52308937725209
 31
0.0
  0
LINE
  5
179A
  8
0
 62
     0
 10
155.13758804568721
 20
209.52308937725209
 30
0.0
 11
155.13758804568721
 21
209.52308937725209
 31
0.0
  0
LINE
  5
179B
  8
0
 62
     0
 10
155.01258804568721
 20
209.52308937725209
 30
0.0
 11
155.01258804568721
 21
209.52308937725209
 31
0.0
  0
LINE
  5
179C
  8
0
 62
     0
 10
154.88758804568721
 20
209.52308937725209
 30
0.0
 11
154.88758804568721
 21
209.52308937725209
 31
0.0
  0
LINE
  5
179D
  8
0
 62
     0
 10
142.63758804568721
 20
209.52308937725209
 30
0.0
 11
142.63758804568721
 21
209.52308937725209
 31
0.0
  0
LINE
  5
179E
  8
0
 62
     0
 10
142.51258804568721
 20
209.52308937725209
 30
0.0
 11
142.51258804568721
 21
209.52308937725209
 31
0.0
  0
LINE
  5
179F
  8
0
 62
     0
 10
142.38758804568721
 20
209.52308937725209
 30
0.0
 11
142.38758804568721
 21
209.52308937725209
 31
0.0
  0
LINE
  5
17A0
  8
0
 62
     0
 10
142.26258804568721
 20
209.52308937725209
 30
0.0
 11
142.26258804568721
 21
209.52308937725209
 31
0.0
  0
LINE
  5
17A1
  8
0
 62
     0
 10
151.70008804568721
 20
209.64808937725209
 30
0.0
 11
151.70008804568721
 21
209.64808937725209
 31
0.0
  0
LINE
  5
17A2
  8
0
 62
     0
 10
151.57508804568721
 20
209.64808937725209
 30
0.0
 11
151.57508804568721
 21
209.64808937725209
 31
0.0
  0
LINE
  5
17A3
  8
0
 62
     0
 10
151.45008804568721
 20
209.64808937725209
 30
0.0
 11
151.45008804568721
 21
209.64808937725209
 31
0.0
  0
LINE
  5
17A4
  8
0
 62
     0
 10
151.32508804568721
 20
209.64808937725209
 30
0.0
 11
151.32508804568721
 21
209.64808937725209
 31
0.0
  0
LINE
  5
17A5
  8
0
 62
     0
 10
151.20008804568729
 20
209.64808937725209
 30
0.0
 11
151.20008804568729
 21
209.64808937725209
 31
0.0
  0
LINE
  5
17A6
  8
0
 62
     0
 10
148.20008804568721
 20
209.64808937725209
 30
0.0
 11
148.20008804568721
 21
209.64808937725209
 31
0.0
  0
LINE
  5
17A7
  8
0
 62
     0
 10
148.07508804568729
 20
209.64808937725209
 30
0.0
 11
148.07508804568729
 21
209.64808937725209
 31
0.0
  0
LINE
  5
17A8
  8
0
 62
     0
 10
147.95008804568729
 20
209.64808937725209
 30
0.0
 11
147.95008804568729
 21
209.64808937725209
 31
0.0
  0
LINE
  5
17A9
  8
0
 62
     0
 10
147.82508804568721
 20
209.64808937725209
 30
0.0
 11
147.82508804568721
 21
209.64808937725209
 31
0.0
  0
LINE
  5
17AA
  8
0
 62
     0
 10
152.95008804568721
 20
209.64808937725209
 30
0.0
 11
152.95008804568721
 21
209.64808937725209
 31
0.0
  0
LINE
  5
17AB
  8
0
 62
     0
 10
152.82508804568721
 20
209.64808937725209
 30
0.0
 11
152.82508804568721
 21
209.64808937725209
 31
0.0
  0
LINE
  5
17AC
  8
0
 62
     0
 10
152.70008804568721
 20
209.64808937725209
 30
0.0
 11
152.70008804568721
 21
209.64808937725209
 31
0.0
  0
LINE
  5
17AD
  8
0
 62
     0
 10
152.57508804568721
 20
209.64808937725209
 30
0.0
 11
152.57508804568721
 21
209.64808937725209
 31
0.0
  0
LINE
  5
17AE
  8
0
 62
     0
 10
146.07508804568721
 20
209.64808937725209
 30
0.0
 11
146.07508804568721
 21
209.64808937725209
 31
0.0
  0
LINE
  5
17AF
  8
0
 62
     0
 10
145.95008804568721
 20
209.64808937725209
 30
0.0
 11
145.95008804568721
 21
209.64808937725209
 31
0.0
  0
LINE
  5
17B0
  8
0
 62
     0
 10
145.82508804568729
 20
209.64808937725209
 30
0.0
 11
145.82508804568729
 21
209.64808937725209
 31
0.0
  0
LINE
  5
17B1
  8
0
 62
     0
 10
145.70008804568721
 20
209.64808937725209
 30
0.0
 11
145.70008804568721
 21
209.64808937725209
 31
0.0
  0
LINE
  5
17B2
  8
0
 62
     0
 10
155.32508804568721
 20
209.64808937725209
 30
0.0
 11
155.32508804568721
 21
209.64808937725209
 31
0.0
  0
LINE
  5
17B3
  8
0
 62
     0
 10
155.20008804568729
 20
209.64808937725209
 30
0.0
 11
155.20008804568729
 21
209.64808937725209
 31
0.0
  0
LINE
  5
17B4
  8
0
 62
     0
 10
155.07508804568721
 20
209.64808937725209
 30
0.0
 11
155.07508804568721
 21
209.64808937725209
 31
0.0
  0
LINE
  5
17B5
  8
0
 62
     0
 10
154.95008804568721
 20
209.64808937725209
 30
0.0
 11
154.95008804568721
 21
209.64808937725209
 31
0.0
  0
LINE
  5
17B6
  8
0
 62
     0
 10
142.70008804568729
 20
209.64808937725209
 30
0.0
 11
142.70008804568729
 21
209.64808937725209
 31
0.0
  0
LINE
  5
17B7
  8
0
 62
     0
 10
142.57508804568721
 20
209.64808937725209
 30
0.0
 11
142.57508804568721
 21
209.64808937725209
 31
0.0
  0
LINE
  5
17B8
  8
0
 62
     0
 10
142.45008804568721
 20
209.64808937725209
 30
0.0
 11
142.45008804568721
 21
209.64808937725209
 31
0.0
  0
LINE
  5
17B9
  8
0
 62
     0
 10
142.32508804568721
 20
209.64808937725209
 30
0.0
 11
142.32508804568721
 21
209.64808937725209
 31
0.0
  0
LINE
  5
17BA
  8
0
 62
     0
 10
151.51258804568729
 20
209.77308937725209
 30
0.0
 11
151.51258804568729
 21
209.77308937725209
 31
0.0
  0
LINE
  5
17BB
  8
0
 62
     0
 10
151.38758804568721
 20
209.77308937725209
 30
0.0
 11
151.38758804568721
 21
209.77308937725209
 31
0.0
  0
LINE
  5
17BC
  8
0
 62
     0
 10
151.26258804568721
 20
209.77308937725209
 30
0.0
 11
151.26258804568721
 21
209.77308937725209
 31
0.0
  0
LINE
  5
17BD
  8
0
 62
     0
 10
151.13758804568721
 20
209.77308937725209
 30
0.0
 11
151.13758804568721
 21
209.77308937725209
 31
0.0
  0
LINE
  5
17BE
  8
0
 62
     0
 10
151.01258804568721
 20
209.77308937725209
 30
0.0
 11
151.01258804568721
 21
209.77308937725209
 31
0.0
  0
LINE
  5
17BF
  8
0
 62
     0
 10
148.26258804568721
 20
209.77308937725209
 30
0.0
 11
148.26258804568721
 21
209.77308937725209
 31
0.0
  0
LINE
  5
17C0
  8
0
 62
     0
 10
148.13758804568721
 20
209.77308937725209
 30
0.0
 11
148.13758804568721
 21
209.77308937725209
 31
0.0
  0
LINE
  5
17C1
  8
0
 62
     0
 10
148.01258804568721
 20
209.77308937725209
 30
0.0
 11
148.01258804568721
 21
209.77308937725209
 31
0.0
  0
LINE
  5
17C2
  8
0
 62
     0
 10
147.88758804568721
 20
209.77308937725209
 30
0.0
 11
147.88758804568721
 21
209.77308937725209
 31
0.0
  0
LINE
  5
17C3
  8
0
 62
     0
 10
153.01258804568721
 20
209.77308937725209
 30
0.0
 11
153.01258804568721
 21
209.77308937725209
 31
0.0
  0
LINE
  5
17C4
  8
0
 62
     0
 10
152.88758804568721
 20
209.77308937725209
 30
0.0
 11
152.88758804568721
 21
209.77308937725209
 31
0.0
  0
LINE
  5
17C5
  8
0
 62
     0
 10
152.76258804568729
 20
209.77308937725209
 30
0.0
 11
152.76258804568729
 21
209.77308937725209
 31
0.0
  0
LINE
  5
17C6
  8
0
 62
     0
 10
152.63758804568729
 20
209.77308937725209
 30
0.0
 11
152.63758804568729
 21
209.77308937725209
 31
0.0
  0
LINE
  5
17C7
  8
0
 62
     0
 10
146.01258804568721
 20
209.77308937725209
 30
0.0
 11
146.01258804568721
 21
209.77308937725209
 31
0.0
  0
LINE
  5
17C8
  8
0
 62
     0
 10
145.88758804568721
 20
209.77308937725209
 30
0.0
 11
145.88758804568721
 21
209.77308937725209
 31
0.0
  0
LINE
  5
17C9
  8
0
 62
     0
 10
145.76258804568721
 20
209.77308937725209
 30
0.0
 11
145.76258804568721
 21
209.77308937725209
 31
0.0
  0
LINE
  5
17CA
  8
0
 62
     0
 10
145.63758804568721
 20
209.77308937725209
 30
0.0
 11
145.63758804568721
 21
209.77308937725209
 31
0.0
  0
LINE
  5
17CB
  8
0
 62
     0
 10
155.26258804568721
 20
209.77308937725209
 30
0.0
 11
155.26258804568721
 21
209.77308937725209
 31
0.0
  0
LINE
  5
17CC
  8
0
 62
     0
 10
155.13758804568721
 20
209.77308937725209
 30
0.0
 11
155.13758804568721
 21
209.77308937725209
 31
0.0
  0
LINE
  5
17CD
  8
0
 62
     0
 10
155.01258804568721
 20
209.77308937725209
 30
0.0
 11
155.01258804568721
 21
209.77308937725209
 31
0.0
  0
LINE
  5
17CE
  8
0
 62
     0
 10
154.88758804568721
 20
209.77308937725209
 30
0.0
 11
154.88758804568721
 21
209.77308937725209
 31
0.0
  0
LINE
  5
17CF
  8
0
 62
     0
 10
142.63758804568721
 20
209.77308937725209
 30
0.0
 11
142.63758804568721
 21
209.77308937725209
 31
0.0
  0
LINE
  5
17D0
  8
0
 62
     0
 10
142.51258804568721
 20
209.77308937725209
 30
0.0
 11
142.51258804568721
 21
209.77308937725209
 31
0.0
  0
LINE
  5
17D1
  8
0
 62
     0
 10
142.38758804568721
 20
209.77308937725209
 30
0.0
 11
142.38758804568721
 21
209.77308937725209
 31
0.0
  0
LINE
  5
17D2
  8
0
 62
     0
 10
142.26258804568721
 20
209.77308937725209
 30
0.0
 11
142.26258804568721
 21
209.77308937725209
 31
0.0
  0
LINE
  5
17D3
  8
0
 62
     0
 10
151.32508804568721
 20
209.89808937725201
 30
0.0
 11
151.32508804568721
 21
209.89808937725201
 31
0.0
  0
LINE
  5
17D4
  8
0
 62
     0
 10
151.20008804568729
 20
209.89808937725201
 30
0.0
 11
151.20008804568729
 21
209.89808937725201
 31
0.0
  0
LINE
  5
17D5
  8
0
 62
     0
 10
151.07508804568729
 20
209.89808937725201
 30
0.0
 11
151.07508804568729
 21
209.89808937725201
 31
0.0
  0
LINE
  5
17D6
  8
0
 62
     0
 10
150.95008804568721
 20
209.89808937725201
 30
0.0
 11
150.95008804568721
 21
209.89808937725201
 31
0.0
  0
LINE
  5
17D7
  8
0
 62
     0
 10
150.82508804568721
 20
209.89808937725201
 30
0.0
 11
150.82508804568721
 21
209.89808937725201
 31
0.0
  0
LINE
  5
17D8
  8
0
 62
     0
 10
150.70008804568721
 20
209.89808937725201
 30
0.0
 11
150.70008804568721
 21
209.89808937725201
 31
0.0
  0
LINE
  5
17D9
  8
0
 62
     0
 10
148.32508804568721
 20
209.89808937725201
 30
0.0
 11
148.32508804568721
 21
209.89808937725201
 31
0.0
  0
LINE
  5
17DA
  8
0
 62
     0
 10
148.20008804568721
 20
209.89808937725201
 30
0.0
 11
148.20008804568721
 21
209.89808937725201
 31
0.0
  0
LINE
  5
17DB
  8
0
 62
     0
 10
148.07508804568729
 20
209.89808937725201
 30
0.0
 11
148.07508804568729
 21
209.89808937725201
 31
0.0
  0
LINE
  5
17DC
  8
0
 62
     0
 10
147.95008804568729
 20
209.89808937725201
 30
0.0
 11
147.95008804568729
 21
209.89808937725201
 31
0.0
  0
LINE
  5
17DD
  8
0
 62
     0
 10
152.95008804568721
 20
209.89808937725201
 30
0.0
 11
152.95008804568721
 21
209.89808937725201
 31
0.0
  0
LINE
  5
17DE
  8
0
 62
     0
 10
152.82508804568721
 20
209.89808937725201
 30
0.0
 11
152.82508804568721
 21
209.89808937725201
 31
0.0
  0
LINE
  5
17DF
  8
0
 62
     0
 10
152.70008804568721
 20
209.89808937725201
 30
0.0
 11
152.70008804568721
 21
209.89808937725201
 31
0.0
  0
LINE
  5
17E0
  8
0
 62
     0
 10
152.57508804568721
 20
209.89808937725201
 30
0.0
 11
152.57508804568721
 21
209.89808937725201
 31
0.0
  0
LINE
  5
17E1
  8
0
 62
     0
 10
146.07508804568721
 20
209.89808937725201
 30
0.0
 11
146.07508804568721
 21
209.89808937725201
 31
0.0
  0
LINE
  5
17E2
  8
0
 62
     0
 10
145.95008804568721
 20
209.89808937725201
 30
0.0
 11
145.95008804568721
 21
209.89808937725201
 31
0.0
  0
LINE
  5
17E3
  8
0
 62
     0
 10
145.82508804568729
 20
209.89808937725201
 30
0.0
 11
145.82508804568729
 21
209.89808937725201
 31
0.0
  0
LINE
  5
17E4
  8
0
 62
     0
 10
145.70008804568721
 20
209.89808937725201
 30
0.0
 11
145.70008804568721
 21
209.89808937725201
 31
0.0
  0
LINE
  5
17E5
  8
0
 62
     0
 10
155.32508804568721
 20
209.89808937725201
 30
0.0
 11
155.32508804568721
 21
209.89808937725201
 31
0.0
  0
LINE
  5
17E6
  8
0
 62
     0
 10
155.20008804568729
 20
209.89808937725201
 30
0.0
 11
155.20008804568729
 21
209.89808937725201
 31
0.0
  0
LINE
  5
17E7
  8
0
 62
     0
 10
155.07508804568721
 20
209.89808937725201
 30
0.0
 11
155.07508804568721
 21
209.89808937725201
 31
0.0
  0
LINE
  5
17E8
  8
0
 62
     0
 10
154.95008804568721
 20
209.89808937725201
 30
0.0
 11
154.95008804568721
 21
209.89808937725201
 31
0.0
  0
LINE
  5
17E9
  8
0
 62
     0
 10
144.07508804568721
 20
209.89808937725201
 30
0.0
 11
144.07508804568721
 21
209.89808937725201
 31
0.0
  0
LINE
  5
17EA
  8
0
 62
     0
 10
143.95008804568721
 20
209.89808937725201
 30
0.0
 11
143.95008804568721
 21
209.89808937725201
 31
0.0
  0
LINE
  5
17EB
  8
0
 62
     0
 10
143.82508804568721
 20
209.89808937725201
 30
0.0
 11
143.82508804568721
 21
209.89808937725201
 31
0.0
  0
LINE
  5
17EC
  8
0
 62
     0
 10
143.70008804568729
 20
209.89808937725201
 30
0.0
 11
143.70008804568729
 21
209.89808937725201
 31
0.0
  0
LINE
  5
17ED
  8
0
 62
     0
 10
143.57508804568721
 20
209.89808937725201
 30
0.0
 11
143.57508804568721
 21
209.89808937725201
 31
0.0
  0
LINE
  5
17EE
  8
0
 62
     0
 10
143.45008804568721
 20
209.89808937725201
 30
0.0
 11
143.45008804568721
 21
209.89808937725201
 31
0.0
  0
LINE
  5
17EF
  8
0
 62
     0
 10
143.32508804568721
 20
209.89808937725201
 30
0.0
 11
143.32508804568721
 21
209.89808937725201
 31
0.0
  0
LINE
  5
17F0
  8
0
 62
     0
 10
143.20008804568721
 20
209.89808937725201
 30
0.0
 11
143.20008804568721
 21
209.89808937725201
 31
0.0
  0
LINE
  5
17F1
  8
0
 62
     0
 10
143.07508804568721
 20
209.89808937725201
 30
0.0
 11
143.07508804568721
 21
209.89808937725201
 31
0.0
  0
LINE
  5
17F2
  8
0
 62
     0
 10
142.95008804568721
 20
209.89808937725201
 30
0.0
 11
142.95008804568721
 21
209.89808937725201
 31
0.0
  0
LINE
  5
17F3
  8
0
 62
     0
 10
142.82508804568721
 20
209.89808937725201
 30
0.0
 11
142.82508804568721
 21
209.89808937725201
 31
0.0
  0
LINE
  5
17F4
  8
0
 62
     0
 10
142.70008804568729
 20
209.89808937725201
 30
0.0
 11
142.70008804568729
 21
209.89808937725201
 31
0.0
  0
LINE
  5
17F5
  8
0
 62
     0
 10
142.57508804568721
 20
209.89808937725201
 30
0.0
 11
142.57508804568721
 21
209.89808937725201
 31
0.0
  0
LINE
  5
17F6
  8
0
 62
     0
 10
142.45008804568721
 20
209.89808937725201
 30
0.0
 11
142.45008804568721
 21
209.89808937725201
 31
0.0
  0
LINE
  5
17F7
  8
0
 62
     0
 10
142.32508804568721
 20
209.89808937725201
 30
0.0
 11
142.32508804568721
 21
209.89808937725201
 31
0.0
  0
LINE
  5
17F8
  8
0
 62
     0
 10
151.01258804568721
 20
210.02308937725209
 30
0.0
 11
151.01258804568721
 21
210.02308937725209
 31
0.0
  0
LINE
  5
17F9
  8
0
 62
     0
 10
150.88758804568721
 20
210.02308937725209
 30
0.0
 11
150.88758804568721
 21
210.02308937725209
 31
0.0
  0
LINE
  5
17FA
  8
0
 62
     0
 10
150.76258804568721
 20
210.02308937725209
 30
0.0
 11
150.76258804568721
 21
210.02308937725209
 31
0.0
  0
LINE
  5
17FB
  8
0
 62
     0
 10
150.63758804568721
 20
210.02308937725209
 30
0.0
 11
150.63758804568721
 21
210.02308937725209
 31
0.0
  0
LINE
  5
17FC
  8
0
 62
     0
 10
150.51258804568729
 20
210.02308937725209
 30
0.0
 11
150.51258804568729
 21
210.02308937725209
 31
0.0
  0
LINE
  5
17FD
  8
0
 62
     0
 10
150.38758804568721
 20
210.02308937725209
 30
0.0
 11
150.38758804568721
 21
210.02308937725209
 31
0.0
  0
LINE
  5
17FE
  8
0
 62
     0
 10
148.26258804568721
 20
210.02308937725209
 30
0.0
 11
148.26258804568721
 21
210.02308937725209
 31
0.0
  0
LINE
  5
17FF
  8
0
 62
     0
 10
148.13758804568721
 20
210.02308937725209
 30
0.0
 11
148.13758804568721
 21
210.02308937725209
 31
0.0
  0
LINE
  5
1800
  8
0
 62
     0
 10
148.01258804568721
 20
210.02308937725209
 30
0.0
 11
148.01258804568721
 21
210.02308937725209
 31
0.0
  0
LINE
  5
1801
  8
0
 62
     0
 10
147.88758804568721
 20
210.02308937725209
 30
0.0
 11
147.88758804568721
 21
210.02308937725209
 31
0.0
  0
LINE
  5
1802
  8
0
 62
     0
 10
153.01258804568721
 20
210.02308937725209
 30
0.0
 11
153.01258804568721
 21
210.02308937725209
 31
0.0
  0
LINE
  5
1803
  8
0
 62
     0
 10
152.88758804568721
 20
210.02308937725209
 30
0.0
 11
152.88758804568721
 21
210.02308937725209
 31
0.0
  0
LINE
  5
1804
  8
0
 62
     0
 10
152.76258804568729
 20
210.02308937725209
 30
0.0
 11
152.76258804568729
 21
210.02308937725209
 31
0.0
  0
LINE
  5
1805
  8
0
 62
     0
 10
152.63758804568729
 20
210.02308937725209
 30
0.0
 11
152.63758804568729
 21
210.02308937725209
 31
0.0
  0
LINE
  5
1806
  8
0
 62
     0
 10
146.01258804568721
 20
210.02308937725209
 30
0.0
 11
146.01258804568721
 21
210.02308937725209
 31
0.0
  0
LINE
  5
1807
  8
0
 62
     0
 10
145.88758804568721
 20
210.02308937725209
 30
0.0
 11
145.88758804568721
 21
210.02308937725209
 31
0.0
  0
LINE
  5
1808
  8
0
 62
     0
 10
145.76258804568721
 20
210.02308937725209
 30
0.0
 11
145.76258804568721
 21
210.02308937725209
 31
0.0
  0
LINE
  5
1809
  8
0
 62
     0
 10
145.63758804568721
 20
210.02308937725209
 30
0.0
 11
145.63758804568721
 21
210.02308937725209
 31
0.0
  0
LINE
  5
180A
  8
0
 62
     0
 10
155.26258804568721
 20
210.02308937725209
 30
0.0
 11
155.26258804568721
 21
210.02308937725209
 31
0.0
  0
LINE
  5
180B
  8
0
 62
     0
 10
155.13758804568721
 20
210.02308937725209
 30
0.0
 11
155.13758804568721
 21
210.02308937725209
 31
0.0
  0
LINE
  5
180C
  8
0
 62
     0
 10
155.01258804568721
 20
210.02308937725209
 30
0.0
 11
155.01258804568721
 21
210.02308937725209
 31
0.0
  0
LINE
  5
180D
  8
0
 62
     0
 10
154.88758804568721
 20
210.02308937725209
 30
0.0
 11
154.88758804568721
 21
210.02308937725209
 31
0.0
  0
LINE
  5
180E
  8
0
 62
     0
 10
144.38758804568721
 20
210.02308937725209
 30
0.0
 11
144.38758804568721
 21
210.02308937725209
 31
0.0
  0
LINE
  5
180F
  8
0
 62
     0
 10
144.26258804568729
 20
210.02308937725209
 30
0.0
 11
144.26258804568729
 21
210.02308937725209
 31
0.0
  0
LINE
  5
1810
  8
0
 62
     0
 10
144.13758804568721
 20
210.02308937725209
 30
0.0
 11
144.13758804568721
 21
210.02308937725209
 31
0.0
  0
LINE
  5
1811
  8
0
 62
     0
 10
144.01258804568721
 20
210.02308937725209
 30
0.0
 11
144.01258804568721
 21
210.02308937725209
 31
0.0
  0
LINE
  5
1812
  8
0
 62
     0
 10
143.88758804568721
 20
210.02308937725209
 30
0.0
 11
143.88758804568721
 21
210.02308937725209
 31
0.0
  0
LINE
  5
1813
  8
0
 62
     0
 10
143.76258804568721
 20
210.02308937725209
 30
0.0
 11
143.76258804568721
 21
210.02308937725209
 31
0.0
  0
LINE
  5
1814
  8
0
 62
     0
 10
143.63758804568721
 20
210.02308937725209
 30
0.0
 11
143.63758804568721
 21
210.02308937725209
 31
0.0
  0
LINE
  5
1815
  8
0
 62
     0
 10
143.51258804568721
 20
210.02308937725209
 30
0.0
 11
143.51258804568721
 21
210.02308937725209
 31
0.0
  0
LINE
  5
1816
  8
0
 62
     0
 10
143.38758804568729
 20
210.02308937725209
 30
0.0
 11
143.38758804568729
 21
210.02308937725209
 31
0.0
  0
LINE
  5
1817
  8
0
 62
     0
 10
143.26258804568729
 20
210.02308937725209
 30
0.0
 11
143.26258804568729
 21
210.02308937725209
 31
0.0
  0
LINE
  5
1818
  8
0
 62
     0
 10
143.13758804568721
 20
210.02308937725209
 30
0.0
 11
143.13758804568721
 21
210.02308937725209
 31
0.0
  0
LINE
  5
1819
  8
0
 62
     0
 10
143.01258804568721
 20
210.02308937725209
 30
0.0
 11
143.01258804568721
 21
210.02308937725209
 31
0.0
  0
LINE
  5
181A
  8
0
 62
     0
 10
142.88758804568721
 20
210.02308937725209
 30
0.0
 11
142.88758804568721
 21
210.02308937725209
 31
0.0
  0
LINE
  5
181B
  8
0
 62
     0
 10
142.76258804568721
 20
210.02308937725209
 30
0.0
 11
142.76258804568721
 21
210.02308937725209
 31
0.0
  0
LINE
  5
181C
  8
0
 62
     0
 10
142.63758804568721
 20
210.02308937725209
 30
0.0
 11
142.63758804568721
 21
210.02308937725209
 31
0.0
  0
LINE
  5
181D
  8
0
 62
     0
 10
142.51258804568721
 20
210.02308937725209
 30
0.0
 11
142.51258804568721
 21
210.02308937725209
 31
0.0
  0
LINE
  5
181E
  8
0
 62
     0
 10
142.38758804568721
 20
210.02308937725209
 30
0.0
 11
142.38758804568721
 21
210.02308937725209
 31
0.0
  0
LINE
  5
181F
  8
0
 62
     0
 10
142.26258804568721
 20
210.02308937725209
 30
0.0
 11
142.26258804568721
 21
210.02308937725209
 31
0.0
  0
LINE
  5
1820
  8
0
 62
     0
 10
148.32508804568721
 20
210.14808937725201
 30
0.0
 11
148.32508804568721
 21
210.14808937725201
 31
0.0
  0
LINE
  5
1821
  8
0
 62
     0
 10
148.20008804568721
 20
210.14808937725201
 30
0.0
 11
148.20008804568721
 21
210.14808937725201
 31
0.0
  0
LINE
  5
1822
  8
0
 62
     0
 10
148.07508804568729
 20
210.14808937725201
 30
0.0
 11
148.07508804568729
 21
210.14808937725201
 31
0.0
  0
LINE
  5
1823
  8
0
 62
     0
 10
147.95008804568729
 20
210.14808937725201
 30
0.0
 11
147.95008804568729
 21
210.14808937725201
 31
0.0
  0
LINE
  5
1824
  8
0
 62
     0
 10
150.70008804568721
 20
210.14808937725201
 30
0.0
 11
150.70008804568721
 21
210.14808937725201
 31
0.0
  0
LINE
  5
1825
  8
0
 62
     0
 10
150.57508804568721
 20
210.14808937725201
 30
0.0
 11
150.57508804568721
 21
210.14808937725201
 31
0.0
  0
LINE
  5
1826
  8
0
 62
     0
 10
150.45008804568721
 20
210.14808937725201
 30
0.0
 11
150.45008804568721
 21
210.14808937725201
 31
0.0
  0
LINE
  5
1827
  8
0
 62
     0
 10
150.32508804568721
 20
210.14808937725201
 30
0.0
 11
150.32508804568721
 21
210.14808937725201
 31
0.0
  0
LINE
  5
1828
  8
0
 62
     0
 10
150.20008804568721
 20
210.14808937725201
 30
0.0
 11
150.20008804568721
 21
210.14808937725201
 31
0.0
  0
LINE
  5
1829
  8
0
 62
     0
 10
150.07508804568721
 20
210.14808937725201
 30
0.0
 11
150.07508804568721
 21
210.14808937725201
 31
0.0
  0
LINE
  5
182A
  8
0
 62
     0
 10
146.07508804568721
 20
210.14808937725201
 30
0.0
 11
146.07508804568721
 21
210.14808937725201
 31
0.0
  0
LINE
  5
182B
  8
0
 62
     0
 10
145.95008804568721
 20
210.14808937725201
 30
0.0
 11
145.95008804568721
 21
210.14808937725201
 31
0.0
  0
LINE
  5
182C
  8
0
 62
     0
 10
145.82508804568729
 20
210.14808937725201
 30
0.0
 11
145.82508804568729
 21
210.14808937725201
 31
0.0
  0
LINE
  5
182D
  8
0
 62
     0
 10
145.70008804568721
 20
210.14808937725201
 30
0.0
 11
145.70008804568721
 21
210.14808937725201
 31
0.0
  0
LINE
  5
182E
  8
0
 62
     0
 10
155.32508804568721
 20
210.14808937725201
 30
0.0
 11
155.32508804568721
 21
210.14808937725201
 31
0.0
  0
LINE
  5
182F
  8
0
 62
     0
 10
155.20008804568729
 20
210.14808937725201
 30
0.0
 11
155.20008804568729
 21
210.14808937725201
 31
0.0
  0
LINE
  5
1830
  8
0
 62
     0
 10
155.07508804568721
 20
210.14808937725201
 30
0.0
 11
155.07508804568721
 21
210.14808937725201
 31
0.0
  0
LINE
  5
1831
  8
0
 62
     0
 10
154.95008804568721
 20
210.14808937725201
 30
0.0
 11
154.95008804568721
 21
210.14808937725201
 31
0.0
  0
LINE
  5
1832
  8
0
 62
     0
 10
154.82508804568721
 20
210.14808937725201
 30
0.0
 11
154.82508804568721
 21
210.14808937725201
 31
0.0
  0
LINE
  5
1833
  8
0
 62
     0
 10
154.70008804568721
 20
210.14808937725201
 30
0.0
 11
154.70008804568721
 21
210.14808937725201
 31
0.0
  0
LINE
  5
1834
  8
0
 62
     0
 10
154.57508804568721
 20
210.14808937725201
 30
0.0
 11
154.57508804568721
 21
210.14808937725201
 31
0.0
  0
LINE
  5
1835
  8
0
 62
     0
 10
154.45008804568721
 20
210.14808937725201
 30
0.0
 11
154.45008804568721
 21
210.14808937725201
 31
0.0
  0
LINE
  5
1836
  8
0
 62
     0
 10
154.32508804568729
 20
210.14808937725201
 30
0.0
 11
154.32508804568729
 21
210.14808937725201
 31
0.0
  0
LINE
  5
1837
  8
0
 62
     0
 10
154.20008804568729
 20
210.14808937725201
 30
0.0
 11
154.20008804568729
 21
210.14808937725201
 31
0.0
  0
LINE
  5
1838
  8
0
 62
     0
 10
154.07508804568721
 20
210.14808937725201
 30
0.0
 11
154.07508804568721
 21
210.14808937725201
 31
0.0
  0
LINE
  5
1839
  8
0
 62
     0
 10
153.95008804568721
 20
210.14808937725201
 30
0.0
 11
153.95008804568721
 21
210.14808937725201
 31
0.0
  0
LINE
  5
183A
  8
0
 62
     0
 10
153.82508804568721
 20
210.14808937725201
 30
0.0
 11
153.82508804568721
 21
210.14808937725201
 31
0.0
  0
LINE
  5
183B
  8
0
 62
     0
 10
153.70008804568721
 20
210.14808937725201
 30
0.0
 11
153.70008804568721
 21
210.14808937725201
 31
0.0
  0
LINE
  5
183C
  8
0
 62
     0
 10
153.57508804568721
 20
210.14808937725201
 30
0.0
 11
153.57508804568721
 21
210.14808937725201
 31
0.0
  0
LINE
  5
183D
  8
0
 62
     0
 10
153.45008804568721
 20
210.14808937725201
 30
0.0
 11
153.45008804568721
 21
210.14808937725201
 31
0.0
  0
LINE
  5
183E
  8
0
 62
     0
 10
153.32508804568721
 20
210.14808937725201
 30
0.0
 11
153.32508804568721
 21
210.14808937725201
 31
0.0
  0
LINE
  5
183F
  8
0
 62
     0
 10
153.20008804568721
 20
210.14808937725201
 30
0.0
 11
153.20008804568721
 21
210.14808937725201
 31
0.0
  0
LINE
  5
1840
  8
0
 62
     0
 10
153.07508804568729
 20
210.14808937725201
 30
0.0
 11
153.07508804568729
 21
210.14808937725201
 31
0.0
  0
LINE
  5
1841
  8
0
 62
     0
 10
152.95008804568721
 20
210.14808937725201
 30
0.0
 11
152.95008804568721
 21
210.14808937725201
 31
0.0
  0
LINE
  5
1842
  8
0
 62
     0
 10
152.82508804568721
 20
210.14808937725201
 30
0.0
 11
152.82508804568721
 21
210.14808937725201
 31
0.0
  0
LINE
  5
1843
  8
0
 62
     0
 10
152.70008804568721
 20
210.14808937725201
 30
0.0
 11
152.70008804568721
 21
210.14808937725201
 31
0.0
  0
LINE
  5
1844
  8
0
 62
     0
 10
152.57508804568721
 20
210.14808937725201
 30
0.0
 11
152.57508804568721
 21
210.14808937725201
 31
0.0
  0
LINE
  5
1845
  8
0
 62
     0
 10
144.57508804568721
 20
210.14808937725201
 30
0.0
 11
144.57508804568721
 21
210.14808937725201
 31
0.0
  0
LINE
  5
1846
  8
0
 62
     0
 10
144.45008804568721
 20
210.14808937725201
 30
0.0
 11
144.45008804568721
 21
210.14808937725201
 31
0.0
  0
LINE
  5
1847
  8
0
 62
     0
 10
144.32508804568721
 20
210.14808937725201
 30
0.0
 11
144.32508804568721
 21
210.14808937725201
 31
0.0
  0
LINE
  5
1848
  8
0
 62
     0
 10
144.20008804568721
 20
210.14808937725201
 30
0.0
 11
144.20008804568721
 21
210.14808937725201
 31
0.0
  0
LINE
  5
1849
  8
0
 62
     0
 10
144.07508804568721
 20
210.14808937725201
 30
0.0
 11
144.07508804568721
 21
210.14808937725201
 31
0.0
  0
LINE
  5
184A
  8
0
 62
     0
 10
143.95008804568721
 20
210.14808937725201
 30
0.0
 11
143.95008804568721
 21
210.14808937725201
 31
0.0
  0
LINE
  5
184B
  8
0
 62
     0
 10
143.82508804568721
 20
210.14808937725201
 30
0.0
 11
143.82508804568721
 21
210.14808937725201
 31
0.0
  0
LINE
  5
184C
  8
0
 62
     0
 10
143.70008804568729
 20
210.14808937725201
 30
0.0
 11
143.70008804568729
 21
210.14808937725201
 31
0.0
  0
LINE
  5
184D
  8
0
 62
     0
 10
143.57508804568721
 20
210.14808937725201
 30
0.0
 11
143.57508804568721
 21
210.14808937725201
 31
0.0
  0
LINE
  5
184E
  8
0
 62
     0
 10
143.45008804568721
 20
210.14808937725201
 30
0.0
 11
143.45008804568721
 21
210.14808937725201
 31
0.0
  0
LINE
  5
184F
  8
0
 62
     0
 10
143.32508804568721
 20
210.14808937725201
 30
0.0
 11
143.32508804568721
 21
210.14808937725201
 31
0.0
  0
LINE
  5
1850
  8
0
 62
     0
 10
143.20008804568721
 20
210.14808937725201
 30
0.0
 11
143.20008804568721
 21
210.14808937725201
 31
0.0
  0
LINE
  5
1851
  8
0
 62
     0
 10
143.07508804568721
 20
210.14808937725201
 30
0.0
 11
143.07508804568721
 21
210.14808937725201
 31
0.0
  0
LINE
  5
1852
  8
0
 62
     0
 10
142.95008804568721
 20
210.14808937725201
 30
0.0
 11
142.95008804568721
 21
210.14808937725201
 31
0.0
  0
LINE
  5
1853
  8
0
 62
     0
 10
142.82508804568721
 20
210.14808937725201
 30
0.0
 11
142.82508804568721
 21
210.14808937725201
 31
0.0
  0
LINE
  5
1854
  8
0
 62
     0
 10
142.70008804568729
 20
210.14808937725201
 30
0.0
 11
142.70008804568729
 21
210.14808937725201
 31
0.0
  0
LINE
  5
1855
  8
0
 62
     0
 10
142.57508804568721
 20
210.14808937725201
 30
0.0
 11
142.57508804568721
 21
210.14808937725201
 31
0.0
  0
LINE
  5
1856
  8
0
 62
     0
 10
142.45008804568721
 20
210.14808937725201
 30
0.0
 11
142.45008804568721
 21
210.14808937725201
 31
0.0
  0
LINE
  5
1857
  8
0
 62
     0
 10
142.32508804568721
 20
210.14808937725201
 30
0.0
 11
142.32508804568721
 21
210.14808937725201
 31
0.0
  0
LINE
  5
1858
  8
0
 62
     0
 10
148.26258804568721
 20
210.27308937725209
 30
0.0
 11
148.26258804568721
 21
210.27308937725209
 31
0.0
  0
LINE
  5
1859
  8
0
 62
     0
 10
148.13758804568721
 20
210.27308937725209
 30
0.0
 11
148.13758804568721
 21
210.27308937725209
 31
0.0
  0
LINE
  5
185A
  8
0
 62
     0
 10
148.01258804568721
 20
210.27308937725209
 30
0.0
 11
148.01258804568721
 21
210.27308937725209
 31
0.0
  0
LINE
  5
185B
  8
0
 62
     0
 10
147.88758804568721
 20
210.27308937725209
 30
0.0
 11
147.88758804568721
 21
210.27308937725209
 31
0.0
  0
LINE
  5
185C
  8
0
 62
     0
 10
146.01258804568721
 20
210.27308937725209
 30
0.0
 11
146.01258804568721
 21
210.27308937725209
 31
0.0
  0
LINE
  5
185D
  8
0
 62
     0
 10
145.88758804568721
 20
210.27308937725209
 30
0.0
 11
145.88758804568721
 21
210.27308937725209
 31
0.0
  0
LINE
  5
185E
  8
0
 62
     0
 10
145.76258804568721
 20
210.27308937725209
 30
0.0
 11
145.76258804568721
 21
210.27308937725209
 31
0.0
  0
LINE
  5
185F
  8
0
 62
     0
 10
145.63758804568721
 20
210.27308937725209
 30
0.0
 11
145.63758804568721
 21
210.27308937725209
 31
0.0
  0
LINE
  5
1860
  8
0
 62
     0
 10
150.51258804568729
 20
210.27308937725209
 30
0.0
 11
150.51258804568729
 21
210.27308937725209
 31
0.0
  0
LINE
  5
1861
  8
0
 62
     0
 10
150.38758804568721
 20
210.27308937725209
 30
0.0
 11
150.38758804568721
 21
210.27308937725209
 31
0.0
  0
LINE
  5
1862
  8
0
 62
     0
 10
150.26258804568721
 20
210.27308937725209
 30
0.0
 11
150.26258804568721
 21
210.27308937725209
 31
0.0
  0
LINE
  5
1863
  8
0
 62
     0
 10
150.13758804568721
 20
210.27308937725209
 30
0.0
 11
150.13758804568721
 21
210.27308937725209
 31
0.0
  0
LINE
  5
1864
  8
0
 62
     0
 10
150.01258804568721
 20
210.27308937725209
 30
0.0
 11
150.01258804568721
 21
210.27308937725209
 31
0.0
  0
LINE
  5
1865
  8
0
 62
     0
 10
149.88758804568721
 20
210.27308937725209
 30
0.0
 11
149.88758804568721
 21
210.27308937725209
 31
0.0
  0
LINE
  5
1866
  8
0
 62
     0
 10
144.76258804568721
 20
210.27308937725209
 30
0.0
 11
144.76258804568721
 21
210.27308937725209
 31
0.0
  0
LINE
  5
1867
  8
0
 62
     0
 10
144.63758804568721
 20
210.27308937725209
 30
0.0
 11
144.63758804568721
 21
210.27308937725209
 31
0.0
  0
LINE
  5
1868
  8
0
 62
     0
 10
144.51258804568721
 20
210.27308937725209
 30
0.0
 11
144.51258804568721
 21
210.27308937725209
 31
0.0
  0
LINE
  5
1869
  8
0
 62
     0
 10
144.38758804568721
 20
210.27308937725209
 30
0.0
 11
144.38758804568721
 21
210.27308937725209
 31
0.0
  0
LINE
  5
186A
  8
0
 62
     0
 10
144.26258804568729
 20
210.27308937725209
 30
0.0
 11
144.26258804568729
 21
210.27308937725209
 31
0.0
  0
LINE
  5
186B
  8
0
 62
     0
 10
144.13758804568721
 20
210.27308937725209
 30
0.0
 11
144.13758804568721
 21
210.27308937725209
 31
0.0
  0
LINE
  5
186C
  8
0
 62
     0
 10
155.26258804568721
 20
210.27308937725209
 30
0.0
 11
155.26258804568721
 21
210.27308937725209
 31
0.0
  0
LINE
  5
186D
  8
0
 62
     0
 10
155.13758804568721
 20
210.27308937725209
 30
0.0
 11
155.13758804568721
 21
210.27308937725209
 31
0.0
  0
LINE
  5
186E
  8
0
 62
     0
 10
155.01258804568721
 20
210.27308937725209
 30
0.0
 11
155.01258804568721
 21
210.27308937725209
 31
0.0
  0
LINE
  5
186F
  8
0
 62
     0
 10
154.88758804568721
 20
210.27308937725209
 30
0.0
 11
154.88758804568721
 21
210.27308937725209
 31
0.0
  0
LINE
  5
1870
  8
0
 62
     0
 10
154.76258804568721
 20
210.27308937725209
 30
0.0
 11
154.76258804568721
 21
210.27308937725209
 31
0.0
  0
LINE
  5
1871
  8
0
 62
     0
 10
154.63758804568729
 20
210.27308937725209
 30
0.0
 11
154.63758804568729
 21
210.27308937725209
 31
0.0
  0
LINE
  5
1872
  8
0
 62
     0
 10
154.51258804568721
 20
210.27308937725209
 30
0.0
 11
154.51258804568721
 21
210.27308937725209
 31
0.0
  0
LINE
  5
1873
  8
0
 62
     0
 10
154.38758804568721
 20
210.27308937725209
 30
0.0
 11
154.38758804568721
 21
210.27308937725209
 31
0.0
  0
LINE
  5
1874
  8
0
 62
     0
 10
154.26258804568721
 20
210.27308937725209
 30
0.0
 11
154.26258804568721
 21
210.27308937725209
 31
0.0
  0
LINE
  5
1875
  8
0
 62
     0
 10
154.13758804568721
 20
210.27308937725209
 30
0.0
 11
154.13758804568721
 21
210.27308937725209
 31
0.0
  0
LINE
  5
1876
  8
0
 62
     0
 10
154.01258804568721
 20
210.27308937725209
 30
0.0
 11
154.01258804568721
 21
210.27308937725209
 31
0.0
  0
LINE
  5
1877
  8
0
 62
     0
 10
153.88758804568721
 20
210.27308937725209
 30
0.0
 11
153.88758804568721
 21
210.27308937725209
 31
0.0
  0
LINE
  5
1878
  8
0
 62
     0
 10
153.76258804568721
 20
210.27308937725209
 30
0.0
 11
153.76258804568721
 21
210.27308937725209
 31
0.0
  0
LINE
  5
1879
  8
0
 62
     0
 10
153.63758804568729
 20
210.27308937725209
 30
0.0
 11
153.63758804568729
 21
210.27308937725209
 31
0.0
  0
LINE
  5
187A
  8
0
 62
     0
 10
153.51258804568721
 20
210.27308937725209
 30
0.0
 11
153.51258804568721
 21
210.27308937725209
 31
0.0
  0
LINE
  5
187B
  8
0
 62
     0
 10
153.38758804568721
 20
210.27308937725209
 30
0.0
 11
153.38758804568721
 21
210.27308937725209
 31
0.0
  0
LINE
  5
187C
  8
0
 62
     0
 10
153.26258804568721
 20
210.27308937725209
 30
0.0
 11
153.26258804568721
 21
210.27308937725209
 31
0.0
  0
LINE
  5
187D
  8
0
 62
     0
 10
153.13758804568721
 20
210.27308937725209
 30
0.0
 11
153.13758804568721
 21
210.27308937725209
 31
0.0
  0
LINE
  5
187E
  8
0
 62
     0
 10
153.01258804568721
 20
210.27308937725209
 30
0.0
 11
153.01258804568721
 21
210.27308937725209
 31
0.0
  0
LINE
  5
187F
  8
0
 62
     0
 10
152.88758804568721
 20
210.27308937725209
 30
0.0
 11
152.88758804568721
 21
210.27308937725209
 31
0.0
  0
LINE
  5
1880
  8
0
 62
     0
 10
152.76258804568729
 20
210.27308937725209
 30
0.0
 11
152.76258804568729
 21
210.27308937725209
 31
0.0
  0
LINE
  5
1881
  8
0
 62
     0
 10
152.63758804568729
 20
210.27308937725209
 30
0.0
 11
152.63758804568729
 21
210.27308937725209
 31
0.0
  0
LINE
  5
1882
  8
0
 62
     0
 10
142.63758804568721
 20
210.27308937725209
 30
0.0
 11
142.63758804568721
 21
210.27308937725209
 31
0.0
  0
LINE
  5
1883
  8
0
 62
     0
 10
142.51258804568721
 20
210.27308937725209
 30
0.0
 11
142.51258804568721
 21
210.27308937725209
 31
0.0
  0
LINE
  5
1884
  8
0
 62
     0
 10
142.38758804568721
 20
210.27308937725209
 30
0.0
 11
142.38758804568721
 21
210.27308937725209
 31
0.0
  0
LINE
  5
1885
  8
0
 62
     0
 10
142.26258804568721
 20
210.27308937725209
 30
0.0
 11
142.26258804568721
 21
210.27308937725209
 31
0.0
  0
LINE
  5
1886
  8
0
 62
     0
 10
148.32508804568721
 20
210.39808937725209
 30
0.0
 11
148.32508804568721
 21
210.39808937725209
 31
0.0
  0
LINE
  5
1887
  8
0
 62
     0
 10
148.20008804568721
 20
210.39808937725209
 30
0.0
 11
148.20008804568721
 21
210.39808937725209
 31
0.0
  0
LINE
  5
1888
  8
0
 62
     0
 10
148.07508804568729
 20
210.39808937725209
 30
0.0
 11
148.07508804568729
 21
210.39808937725209
 31
0.0
  0
LINE
  5
1889
  8
0
 62
     0
 10
147.95008804568729
 20
210.39808937725209
 30
0.0
 11
147.95008804568729
 21
210.39808937725209
 31
0.0
  0
LINE
  5
188A
  8
0
 62
     0
 10
150.20008804568721
 20
210.39808937725209
 30
0.0
 11
150.20008804568721
 21
210.39808937725209
 31
0.0
  0
LINE
  5
188B
  8
0
 62
     0
 10
150.07508804568721
 20
210.39808937725209
 30
0.0
 11
150.07508804568721
 21
210.39808937725209
 31
0.0
  0
LINE
  5
188C
  8
0
 62
     0
 10
149.95008804568729
 20
210.39808937725209
 30
0.0
 11
149.95008804568729
 21
210.39808937725209
 31
0.0
  0
LINE
  5
188D
  8
0
 62
     0
 10
149.82508804568721
 20
210.39808937725209
 30
0.0
 11
149.82508804568721
 21
210.39808937725209
 31
0.0
  0
LINE
  5
188E
  8
0
 62
     0
 10
149.70008804568721
 20
210.39808937725209
 30
0.0
 11
149.70008804568721
 21
210.39808937725209
 31
0.0
  0
LINE
  5
188F
  8
0
 62
     0
 10
149.57508804568721
 20
210.39808937725209
 30
0.0
 11
149.57508804568721
 21
210.39808937725209
 31
0.0
  0
LINE
  5
1890
  8
0
 62
     0
 10
146.07508804568721
 20
210.39808937725209
 30
0.0
 11
146.07508804568721
 21
210.39808937725209
 31
0.0
  0
LINE
  5
1891
  8
0
 62
     0
 10
145.95008804568721
 20
210.39808937725209
 30
0.0
 11
145.95008804568721
 21
210.39808937725209
 31
0.0
  0
LINE
  5
1892
  8
0
 62
     0
 10
145.82508804568729
 20
210.39808937725209
 30
0.0
 11
145.82508804568729
 21
210.39808937725209
 31
0.0
  0
LINE
  5
1893
  8
0
 62
     0
 10
145.70008804568721
 20
210.39808937725209
 30
0.0
 11
145.70008804568721
 21
210.39808937725209
 31
0.0
  0
LINE
  5
1894
  8
0
 62
     0
 10
152.95008804568721
 20
210.39808937725209
 30
0.0
 11
152.95008804568721
 21
210.39808937725209
 31
0.0
  0
LINE
  5
1895
  8
0
 62
     0
 10
152.82508804568721
 20
210.39808937725209
 30
0.0
 11
152.82508804568721
 21
210.39808937725209
 31
0.0
  0
LINE
  5
1896
  8
0
 62
     0
 10
152.70008804568721
 20
210.39808937725209
 30
0.0
 11
152.70008804568721
 21
210.39808937725209
 31
0.0
  0
LINE
  5
1897
  8
0
 62
     0
 10
152.57508804568721
 20
210.39808937725209
 30
0.0
 11
152.57508804568721
 21
210.39808937725209
 31
0.0
  0
LINE
  5
1898
  8
0
 62
     0
 10
144.82508804568729
 20
210.39808937725209
 30
0.0
 11
144.82508804568729
 21
210.39808937725209
 31
0.0
  0
LINE
  5
1899
  8
0
 62
     0
 10
144.70008804568721
 20
210.39808937725209
 30
0.0
 11
144.70008804568721
 21
210.39808937725209
 31
0.0
  0
LINE
  5
189A
  8
0
 62
     0
 10
144.57508804568721
 20
210.39808937725209
 30
0.0
 11
144.57508804568721
 21
210.39808937725209
 31
0.0
  0
LINE
  5
189B
  8
0
 62
     0
 10
144.45008804568721
 20
210.39808937725209
 30
0.0
 11
144.45008804568721
 21
210.39808937725209
 31
0.0
  0
LINE
  5
189C
  8
0
 62
     0
 10
144.32508804568721
 20
210.39808937725209
 30
0.0
 11
144.32508804568721
 21
210.39808937725209
 31
0.0
  0
LINE
  5
189D
  8
0
 62
     0
 10
155.32508804568721
 20
210.39808937725209
 30
0.0
 11
155.32508804568721
 21
210.39808937725209
 31
0.0
  0
LINE
  5
189E
  8
0
 62
     0
 10
155.20008804568729
 20
210.39808937725209
 30
0.0
 11
155.20008804568729
 21
210.39808937725209
 31
0.0
  0
LINE
  5
189F
  8
0
 62
     0
 10
155.07508804568721
 20
210.39808937725209
 30
0.0
 11
155.07508804568721
 21
210.39808937725209
 31
0.0
  0
LINE
  5
18A0
  8
0
 62
     0
 10
154.95008804568721
 20
210.39808937725209
 30
0.0
 11
154.95008804568721
 21
210.39808937725209
 31
0.0
  0
LINE
  5
18A1
  8
0
 62
     0
 10
142.70008804568729
 20
210.39808937725209
 30
0.0
 11
142.70008804568729
 21
210.39808937725209
 31
0.0
  0
LINE
  5
18A2
  8
0
 62
     0
 10
142.57508804568721
 20
210.39808937725209
 30
0.0
 11
142.57508804568721
 21
210.39808937725209
 31
0.0
  0
LINE
  5
18A3
  8
0
 62
     0
 10
142.45008804568721
 20
210.39808937725209
 30
0.0
 11
142.45008804568721
 21
210.39808937725209
 31
0.0
  0
LINE
  5
18A4
  8
0
 62
     0
 10
142.32508804568721
 20
210.39808937725209
 30
0.0
 11
142.32508804568721
 21
210.39808937725209
 31
0.0
  0
LINE
  5
18A5
  8
0
 62
     0
 10
148.26258804568721
 20
210.52308937725209
 30
0.0
 11
148.26258804568721
 21
210.52308937725209
 31
0.0
  0
LINE
  5
18A6
  8
0
 62
     0
 10
148.13758804568721
 20
210.52308937725209
 30
0.0
 11
148.13758804568721
 21
210.52308937725209
 31
0.0
  0
LINE
  5
18A7
  8
0
 62
     0
 10
148.01258804568721
 20
210.52308937725209
 30
0.0
 11
148.01258804568721
 21
210.52308937725209
 31
0.0
  0
LINE
  5
18A8
  8
0
 62
     0
 10
147.88758804568721
 20
210.52308937725209
 30
0.0
 11
147.88758804568721
 21
210.52308937725209
 31
0.0
  0
LINE
  5
18A9
  8
0
 62
     0
 10
149.88758804568721
 20
210.52308937725209
 30
0.0
 11
149.88758804568721
 21
210.52308937725209
 31
0.0
  0
LINE
  5
18AA
  8
0
 62
     0
 10
149.76258804568721
 20
210.52308937725209
 30
0.0
 11
149.76258804568721
 21
210.52308937725209
 31
0.0
  0
LINE
  5
18AB
  8
0
 62
     0
 10
149.63758804568729
 20
210.52308937725209
 30
0.0
 11
149.63758804568729
 21
210.52308937725209
 31
0.0
  0
LINE
  5
18AC
  8
0
 62
     0
 10
149.51258804568729
 20
210.52308937725209
 30
0.0
 11
149.51258804568729
 21
210.52308937725209
 31
0.0
  0
LINE
  5
18AD
  8
0
 62
     0
 10
149.38758804568721
 20
210.52308937725209
 30
0.0
 11
149.38758804568721
 21
210.52308937725209
 31
0.0
  0
LINE
  5
18AE
  8
0
 62
     0
 10
146.01258804568721
 20
210.52308937725209
 30
0.0
 11
146.01258804568721
 21
210.52308937725209
 31
0.0
  0
LINE
  5
18AF
  8
0
 62
     0
 10
145.88758804568721
 20
210.52308937725209
 30
0.0
 11
145.88758804568721
 21
210.52308937725209
 31
0.0
  0
LINE
  5
18B0
  8
0
 62
     0
 10
145.76258804568721
 20
210.52308937725209
 30
0.0
 11
145.76258804568721
 21
210.52308937725209
 31
0.0
  0
LINE
  5
18B1
  8
0
 62
     0
 10
145.63758804568721
 20
210.52308937725209
 30
0.0
 11
145.63758804568721
 21
210.52308937725209
 31
0.0
  0
LINE
  5
18B2
  8
0
 62
     0
 10
153.01258804568721
 20
210.52308937725209
 30
0.0
 11
153.01258804568721
 21
210.52308937725209
 31
0.0
  0
LINE
  5
18B3
  8
0
 62
     0
 10
152.88758804568721
 20
210.52308937725209
 30
0.0
 11
152.88758804568721
 21
210.52308937725209
 31
0.0
  0
LINE
  5
18B4
  8
0
 62
     0
 10
152.76258804568729
 20
210.52308937725209
 30
0.0
 11
152.76258804568729
 21
210.52308937725209
 31
0.0
  0
LINE
  5
18B5
  8
0
 62
     0
 10
152.63758804568729
 20
210.52308937725209
 30
0.0
 11
152.63758804568729
 21
210.52308937725209
 31
0.0
  0
LINE
  5
18B6
  8
0
 62
     0
 10
144.88758804568721
 20
210.52308937725209
 30
0.0
 11
144.88758804568721
 21
210.52308937725209
 31
0.0
  0
LINE
  5
18B7
  8
0
 62
     0
 10
144.76258804568721
 20
210.52308937725209
 30
0.0
 11
144.76258804568721
 21
210.52308937725209
 31
0.0
  0
LINE
  5
18B8
  8
0
 62
     0
 10
144.63758804568721
 20
210.52308937725209
 30
0.0
 11
144.63758804568721
 21
210.52308937725209
 31
0.0
  0
LINE
  5
18B9
  8
0
 62
     0
 10
144.51258804568721
 20
210.52308937725209
 30
0.0
 11
144.51258804568721
 21
210.52308937725209
 31
0.0
  0
LINE
  5
18BA
  8
0
 62
     0
 10
155.26258804568721
 20
210.52308937725209
 30
0.0
 11
155.26258804568721
 21
210.52308937725209
 31
0.0
  0
LINE
  5
18BB
  8
0
 62
     0
 10
155.13758804568721
 20
210.52308937725209
 30
0.0
 11
155.13758804568721
 21
210.52308937725209
 31
0.0
  0
LINE
  5
18BC
  8
0
 62
     0
 10
155.01258804568721
 20
210.52308937725209
 30
0.0
 11
155.01258804568721
 21
210.52308937725209
 31
0.0
  0
LINE
  5
18BD
  8
0
 62
     0
 10
154.88758804568721
 20
210.52308937725209
 30
0.0
 11
154.88758804568721
 21
210.52308937725209
 31
0.0
  0
LINE
  5
18BE
  8
0
 62
     0
 10
142.63758804568721
 20
210.52308937725209
 30
0.0
 11
142.63758804568721
 21
210.52308937725209
 31
0.0
  0
LINE
  5
18BF
  8
0
 62
     0
 10
142.51258804568721
 20
210.52308937725209
 30
0.0
 11
142.51258804568721
 21
210.52308937725209
 31
0.0
  0
LINE
  5
18C0
  8
0
 62
     0
 10
142.38758804568721
 20
210.52308937725209
 30
0.0
 11
142.38758804568721
 21
210.52308937725209
 31
0.0
  0
LINE
  5
18C1
  8
0
 62
     0
 10
142.26258804568721
 20
210.52308937725209
 30
0.0
 11
142.26258804568721
 21
210.52308937725209
 31
0.0
  0
LINE
  5
18C2
  8
0
 62
     0
 10
148.32508804568721
 20
210.64808937725209
 30
0.0
 11
148.32508804568721
 21
210.64808937725209
 31
0.0
  0
LINE
  5
18C3
  8
0
 62
     0
 10
148.20008804568721
 20
210.64808937725209
 30
0.0
 11
148.20008804568721
 21
210.64808937725209
 31
0.0
  0
LINE
  5
18C4
  8
0
 62
     0
 10
148.07508804568729
 20
210.64808937725209
 30
0.0
 11
148.07508804568729
 21
210.64808937725209
 31
0.0
  0
LINE
  5
18C5
  8
0
 62
     0
 10
147.95008804568729
 20
210.64808937725209
 30
0.0
 11
147.95008804568729
 21
210.64808937725209
 31
0.0
  0
LINE
  5
18C6
  8
0
 62
     0
 10
149.70008804568721
 20
210.64808937725209
 30
0.0
 11
149.70008804568721
 21
210.64808937725209
 31
0.0
  0
LINE
  5
18C7
  8
0
 62
     0
 10
149.57508804568721
 20
210.64808937725209
 30
0.0
 11
149.57508804568721
 21
210.64808937725209
 31
0.0
  0
LINE
  5
18C8
  8
0
 62
     0
 10
149.45008804568721
 20
210.64808937725209
 30
0.0
 11
149.45008804568721
 21
210.64808937725209
 31
0.0
  0
LINE
  5
18C9
  8
0
 62
     0
 10
149.32508804568721
 20
210.64808937725209
 30
0.0
 11
149.32508804568721
 21
210.64808937725209
 31
0.0
  0
LINE
  5
18CA
  8
0
 62
     0
 10
146.07508804568721
 20
210.64808937725209
 30
0.0
 11
146.07508804568721
 21
210.64808937725209
 31
0.0
  0
LINE
  5
18CB
  8
0
 62
     0
 10
145.95008804568721
 20
210.64808937725209
 30
0.0
 11
145.95008804568721
 21
210.64808937725209
 31
0.0
  0
LINE
  5
18CC
  8
0
 62
     0
 10
145.82508804568729
 20
210.64808937725209
 30
0.0
 11
145.82508804568729
 21
210.64808937725209
 31
0.0
  0
LINE
  5
18CD
  8
0
 62
     0
 10
145.70008804568721
 20
210.64808937725209
 30
0.0
 11
145.70008804568721
 21
210.64808937725209
 31
0.0
  0
LINE
  5
18CE
  8
0
 62
     0
 10
152.95008804568721
 20
210.64808937725209
 30
0.0
 11
152.95008804568721
 21
210.64808937725209
 31
0.0
  0
LINE
  5
18CF
  8
0
 62
     0
 10
152.82508804568721
 20
210.64808937725209
 30
0.0
 11
152.82508804568721
 21
210.64808937725209
 31
0.0
  0
LINE
  5
18D0
  8
0
 62
     0
 10
152.70008804568721
 20
210.64808937725209
 30
0.0
 11
152.70008804568721
 21
210.64808937725209
 31
0.0
  0
LINE
  5
18D1
  8
0
 62
     0
 10
152.57508804568721
 20
210.64808937725209
 30
0.0
 11
152.57508804568721
 21
210.64808937725209
 31
0.0
  0
LINE
  5
18D2
  8
0
 62
     0
 10
144.95008804568729
 20
210.64808937725209
 30
0.0
 11
144.95008804568729
 21
210.64808937725209
 31
0.0
  0
LINE
  5
18D3
  8
0
 62
     0
 10
144.82508804568729
 20
210.64808937725209
 30
0.0
 11
144.82508804568729
 21
210.64808937725209
 31
0.0
  0
LINE
  5
18D4
  8
0
 62
     0
 10
144.70008804568721
 20
210.64808937725209
 30
0.0
 11
144.70008804568721
 21
210.64808937725209
 31
0.0
  0
LINE
  5
18D5
  8
0
 62
     0
 10
144.57508804568721
 20
210.64808937725209
 30
0.0
 11
144.57508804568721
 21
210.64808937725209
 31
0.0
  0
LINE
  5
18D6
  8
0
 62
     0
 10
155.32508804568721
 20
210.64808937725209
 30
0.0
 11
155.32508804568721
 21
210.64808937725209
 31
0.0
  0
LINE
  5
18D7
  8
0
 62
     0
 10
155.20008804568729
 20
210.64808937725209
 30
0.0
 11
155.20008804568729
 21
210.64808937725209
 31
0.0
  0
LINE
  5
18D8
  8
0
 62
     0
 10
155.07508804568721
 20
210.64808937725209
 30
0.0
 11
155.07508804568721
 21
210.64808937725209
 31
0.0
  0
LINE
  5
18D9
  8
0
 62
     0
 10
154.95008804568721
 20
210.64808937725209
 30
0.0
 11
154.95008804568721
 21
210.64808937725209
 31
0.0
  0
LINE
  5
18DA
  8
0
 62
     0
 10
142.70008804568729
 20
210.64808937725209
 30
0.0
 11
142.70008804568729
 21
210.64808937725209
 31
0.0
  0
LINE
  5
18DB
  8
0
 62
     0
 10
142.57508804568721
 20
210.64808937725209
 30
0.0
 11
142.57508804568721
 21
210.64808937725209
 31
0.0
  0
LINE
  5
18DC
  8
0
 62
     0
 10
142.45008804568721
 20
210.64808937725209
 30
0.0
 11
142.45008804568721
 21
210.64808937725209
 31
0.0
  0
LINE
  5
18DD
  8
0
 62
     0
 10
142.32508804568721
 20
210.64808937725209
 30
0.0
 11
142.32508804568721
 21
210.64808937725209
 31
0.0
  0
LINE
  5
18DE
  8
0
 62
     0
 10
149.63758804568729
 20
210.77308937725201
 30
0.0
 11
149.63758804568729
 21
210.77308937725201
 31
0.0
  0
LINE
  5
18DF
  8
0
 62
     0
 10
149.51258804568729
 20
210.77308937725201
 30
0.0
 11
149.51258804568729
 21
210.77308937725201
 31
0.0
  0
LINE
  5
18E0
  8
0
 62
     0
 10
149.38758804568721
 20
210.77308937725201
 30
0.0
 11
149.38758804568721
 21
210.77308937725201
 31
0.0
  0
LINE
  5
18E1
  8
0
 62
     0
 10
149.26258804568721
 20
210.77308937725201
 30
0.0
 11
149.26258804568721
 21
210.77308937725201
 31
0.0
  0
LINE
  5
18E2
  8
0
 62
     0
 10
148.26258804568721
 20
210.77308937725201
 30
0.0
 11
148.26258804568721
 21
210.77308937725201
 31
0.0
  0
LINE
  5
18E3
  8
0
 62
     0
 10
148.13758804568721
 20
210.77308937725201
 30
0.0
 11
148.13758804568721
 21
210.77308937725201
 31
0.0
  0
LINE
  5
18E4
  8
0
 62
     0
 10
148.01258804568721
 20
210.77308937725201
 30
0.0
 11
148.01258804568721
 21
210.77308937725201
 31
0.0
  0
LINE
  5
18E5
  8
0
 62
     0
 10
147.88758804568721
 20
210.77308937725201
 30
0.0
 11
147.88758804568721
 21
210.77308937725201
 31
0.0
  0
LINE
  5
18E6
  8
0
 62
     0
 10
151.76258804568721
 20
210.77308937725201
 30
0.0
 11
151.76258804568721
 21
210.77308937725201
 31
0.0
  0
LINE
  5
18E7
  8
0
 62
     0
 10
151.63758804568721
 20
210.77308937725201
 30
0.0
 11
151.63758804568721
 21
210.77308937725201
 31
0.0
  0
LINE
  5
18E8
  8
0
 62
     0
 10
151.51258804568729
 20
210.77308937725201
 30
0.0
 11
151.51258804568729
 21
210.77308937725201
 31
0.0
  0
LINE
  5
18E9
  8
0
 62
     0
 10
151.38758804568721
 20
210.77308937725201
 30
0.0
 11
151.38758804568721
 21
210.77308937725201
 31
0.0
  0
LINE
  5
18EA
  8
0
 62
     0
 10
146.01258804568721
 20
210.77308937725201
 30
0.0
 11
146.01258804568721
 21
210.77308937725201
 31
0.0
  0
LINE
  5
18EB
  8
0
 62
     0
 10
145.88758804568721
 20
210.77308937725201
 30
0.0
 11
145.88758804568721
 21
210.77308937725201
 31
0.0
  0
LINE
  5
18EC
  8
0
 62
     0
 10
145.76258804568721
 20
210.77308937725201
 30
0.0
 11
145.76258804568721
 21
210.77308937725201
 31
0.0
  0
LINE
  5
18ED
  8
0
 62
     0
 10
145.63758804568721
 20
210.77308937725201
 30
0.0
 11
145.63758804568721
 21
210.77308937725201
 31
0.0
  0
LINE
  5
18EE
  8
0
 62
     0
 10
153.01258804568721
 20
210.77308937725201
 30
0.0
 11
153.01258804568721
 21
210.77308937725201
 31
0.0
  0
LINE
  5
18EF
  8
0
 62
     0
 10
152.88758804568721
 20
210.77308937725201
 30
0.0
 11
152.88758804568721
 21
210.77308937725201
 31
0.0
  0
LINE
  5
18F0
  8
0
 62
     0
 10
152.76258804568729
 20
210.77308937725201
 30
0.0
 11
152.76258804568729
 21
210.77308937725201
 31
0.0
  0
LINE
  5
18F1
  8
0
 62
     0
 10
152.63758804568729
 20
210.77308937725201
 30
0.0
 11
152.63758804568729
 21
210.77308937725201
 31
0.0
  0
LINE
  5
18F2
  8
0
 62
     0
 10
144.88758804568721
 20
210.77308937725201
 30
0.0
 11
144.88758804568721
 21
210.77308937725201
 31
0.0
  0
LINE
  5
18F3
  8
0
 62
     0
 10
144.76258804568721
 20
210.77308937725201
 30
0.0
 11
144.76258804568721
 21
210.77308937725201
 31
0.0
  0
LINE
  5
18F4
  8
0
 62
     0
 10
144.63758804568721
 20
210.77308937725201
 30
0.0
 11
144.63758804568721
 21
210.77308937725201
 31
0.0
  0
LINE
  5
18F5
  8
0
 62
     0
 10
144.51258804568721
 20
210.77308937725201
 30
0.0
 11
144.51258804568721
 21
210.77308937725201
 31
0.0
  0
LINE
  5
18F6
  8
0
 62
     0
 10
155.26258804568721
 20
210.77308937725201
 30
0.0
 11
155.26258804568721
 21
210.77308937725201
 31
0.0
  0
LINE
  5
18F7
  8
0
 62
     0
 10
155.13758804568721
 20
210.77308937725201
 30
0.0
 11
155.13758804568721
 21
210.77308937725201
 31
0.0
  0
LINE
  5
18F8
  8
0
 62
     0
 10
155.01258804568721
 20
210.77308937725201
 30
0.0
 11
155.01258804568721
 21
210.77308937725201
 31
0.0
  0
LINE
  5
18F9
  8
0
 62
     0
 10
154.88758804568721
 20
210.77308937725201
 30
0.0
 11
154.88758804568721
 21
210.77308937725201
 31
0.0
  0
LINE
  5
18FA
  8
0
 62
     0
 10
142.63758804568721
 20
210.77308937725201
 30
0.0
 11
142.63758804568721
 21
210.77308937725201
 31
0.0
  0
LINE
  5
18FB
  8
0
 62
     0
 10
142.51258804568721
 20
210.77308937725201
 30
0.0
 11
142.51258804568721
 21
210.77308937725201
 31
0.0
  0
LINE
  5
18FC
  8
0
 62
     0
 10
142.38758804568721
 20
210.77308937725201
 30
0.0
 11
142.38758804568721
 21
210.77308937725201
 31
0.0
  0
LINE
  5
18FD
  8
0
 62
     0
 10
142.26258804568721
 20
210.77308937725201
 30
0.0
 11
142.26258804568721
 21
210.77308937725201
 31
0.0
  0
LINE
  5
18FE
  8
0
 62
     0
 10
149.70008804568721
 20
210.89808937725209
 30
0.0
 11
149.70008804568721
 21
210.89808937725209
 31
0.0
  0
LINE
  5
18FF
  8
0
 62
     0
 10
149.57508804568721
 20
210.89808937725209
 30
0.0
 11
149.57508804568721
 21
210.89808937725209
 31
0.0
  0
LINE
  5
1900
  8
0
 62
     0
 10
149.45008804568721
 20
210.89808937725209
 30
0.0
 11
149.45008804568721
 21
210.89808937725209
 31
0.0
  0
LINE
  5
1901
  8
0
 62
     0
 10
149.32508804568721
 20
210.89808937725209
 30
0.0
 11
149.32508804568721
 21
210.89808937725209
 31
0.0
  0
LINE
  5
1902
  8
0
 62
     0
 10
149.20008804568721
 20
210.89808937725209
 30
0.0
 11
149.20008804568721
 21
210.89808937725209
 31
0.0
  0
LINE
  5
1903
  8
0
 62
     0
 10
148.32508804568721
 20
210.89808937725209
 30
0.0
 11
148.32508804568721
 21
210.89808937725209
 31
0.0
  0
LINE
  5
1904
  8
0
 62
     0
 10
148.20008804568721
 20
210.89808937725209
 30
0.0
 11
148.20008804568721
 21
210.89808937725209
 31
0.0
  0
LINE
  5
1905
  8
0
 62
     0
 10
148.07508804568729
 20
210.89808937725209
 30
0.0
 11
148.07508804568729
 21
210.89808937725209
 31
0.0
  0
LINE
  5
1906
  8
0
 62
     0
 10
147.95008804568729
 20
210.89808937725209
 30
0.0
 11
147.95008804568729
 21
210.89808937725209
 31
0.0
  0
LINE
  5
1907
  8
0
 62
     0
 10
151.70008804568721
 20
210.89808937725209
 30
0.0
 11
151.70008804568721
 21
210.89808937725209
 31
0.0
  0
LINE
  5
1908
  8
0
 62
     0
 10
151.57508804568721
 20
210.89808937725209
 30
0.0
 11
151.57508804568721
 21
210.89808937725209
 31
0.0
  0
LINE
  5
1909
  8
0
 62
     0
 10
151.45008804568721
 20
210.89808937725209
 30
0.0
 11
151.45008804568721
 21
210.89808937725209
 31
0.0
  0
LINE
  5
190A
  8
0
 62
     0
 10
151.32508804568721
 20
210.89808937725209
 30
0.0
 11
151.32508804568721
 21
210.89808937725209
 31
0.0
  0
LINE
  5
190B
  8
0
 62
     0
 10
146.07508804568721
 20
210.89808937725209
 30
0.0
 11
146.07508804568721
 21
210.89808937725209
 31
0.0
  0
LINE
  5
190C
  8
0
 62
     0
 10
145.95008804568721
 20
210.89808937725209
 30
0.0
 11
145.95008804568721
 21
210.89808937725209
 31
0.0
  0
LINE
  5
190D
  8
0
 62
     0
 10
145.82508804568729
 20
210.89808937725209
 30
0.0
 11
145.82508804568729
 21
210.89808937725209
 31
0.0
  0
LINE
  5
190E
  8
0
 62
     0
 10
145.70008804568721
 20
210.89808937725209
 30
0.0
 11
145.70008804568721
 21
210.89808937725209
 31
0.0
  0
LINE
  5
190F
  8
0
 62
     0
 10
152.95008804568721
 20
210.89808937725209
 30
0.0
 11
152.95008804568721
 21
210.89808937725209
 31
0.0
  0
LINE
  5
1910
  8
0
 62
     0
 10
152.82508804568721
 20
210.89808937725209
 30
0.0
 11
152.82508804568721
 21
210.89808937725209
 31
0.0
  0
LINE
  5
1911
  8
0
 62
     0
 10
152.70008804568721
 20
210.89808937725209
 30
0.0
 11
152.70008804568721
 21
210.89808937725209
 31
0.0
  0
LINE
  5
1912
  8
0
 62
     0
 10
152.57508804568721
 20
210.89808937725209
 30
0.0
 11
152.57508804568721
 21
210.89808937725209
 31
0.0
  0
LINE
  5
1913
  8
0
 62
     0
 10
144.82508804568729
 20
210.89808937725209
 30
0.0
 11
144.82508804568729
 21
210.89808937725209
 31
0.0
  0
LINE
  5
1914
  8
0
 62
     0
 10
144.70008804568721
 20
210.89808937725209
 30
0.0
 11
144.70008804568721
 21
210.89808937725209
 31
0.0
  0
LINE
  5
1915
  8
0
 62
     0
 10
144.57508804568721
 20
210.89808937725209
 30
0.0
 11
144.57508804568721
 21
210.89808937725209
 31
0.0
  0
LINE
  5
1916
  8
0
 62
     0
 10
144.45008804568721
 20
210.89808937725209
 30
0.0
 11
144.45008804568721
 21
210.89808937725209
 31
0.0
  0
LINE
  5
1917
  8
0
 62
     0
 10
155.32508804568721
 20
210.89808937725209
 30
0.0
 11
155.32508804568721
 21
210.89808937725209
 31
0.0
  0
LINE
  5
1918
  8
0
 62
     0
 10
155.20008804568729
 20
210.89808937725209
 30
0.0
 11
155.20008804568729
 21
210.89808937725209
 31
0.0
  0
LINE
  5
1919
  8
0
 62
     0
 10
155.07508804568721
 20
210.89808937725209
 30
0.0
 11
155.07508804568721
 21
210.89808937725209
 31
0.0
  0
LINE
  5
191A
  8
0
 62
     0
 10
154.95008804568721
 20
210.89808937725209
 30
0.0
 11
154.95008804568721
 21
210.89808937725209
 31
0.0
  0
LINE
  5
191B
  8
0
 62
     0
 10
142.70008804568729
 20
210.89808937725209
 30
0.0
 11
142.70008804568729
 21
210.89808937725209
 31
0.0
  0
LINE
  5
191C
  8
0
 62
     0
 10
142.57508804568721
 20
210.89808937725209
 30
0.0
 11
142.57508804568721
 21
210.89808937725209
 31
0.0
  0
LINE
  5
191D
  8
0
 62
     0
 10
142.45008804568721
 20
210.89808937725209
 30
0.0
 11
142.45008804568721
 21
210.89808937725209
 31
0.0
  0
LINE
  5
191E
  8
0
 62
     0
 10
142.32508804568721
 20
210.89808937725209
 30
0.0
 11
142.32508804568721
 21
210.89808937725209
 31
0.0
  0
LINE
  5
191F
  8
0
 62
     0
 10
149.76258804568721
 20
211.02308937725201
 30
0.0
 11
149.76258804568721
 21
211.02308937725201
 31
0.0
  0
LINE
  5
1920
  8
0
 62
     0
 10
149.63758804568729
 20
211.02308937725201
 30
0.0
 11
149.63758804568729
 21
211.02308937725201
 31
0.0
  0
LINE
  5
1921
  8
0
 62
     0
 10
149.51258804568729
 20
211.02308937725201
 30
0.0
 11
149.51258804568729
 21
211.02308937725201
 31
0.0
  0
LINE
  5
1922
  8
0
 62
     0
 10
149.38758804568721
 20
211.02308937725201
 30
0.0
 11
149.38758804568721
 21
211.02308937725201
 31
0.0
  0
LINE
  5
1923
  8
0
 62
     0
 10
149.26258804568721
 20
211.02308937725201
 30
0.0
 11
149.26258804568721
 21
211.02308937725201
 31
0.0
  0
LINE
  5
1924
  8
0
 62
     0
 10
148.26258804568721
 20
211.02308937725201
 30
0.0
 11
148.26258804568721
 21
211.02308937725201
 31
0.0
  0
LINE
  5
1925
  8
0
 62
     0
 10
148.13758804568721
 20
211.02308937725201
 30
0.0
 11
148.13758804568721
 21
211.02308937725201
 31
0.0
  0
LINE
  5
1926
  8
0
 62
     0
 10
148.01258804568721
 20
211.02308937725201
 30
0.0
 11
148.01258804568721
 21
211.02308937725201
 31
0.0
  0
LINE
  5
1927
  8
0
 62
     0
 10
147.88758804568721
 20
211.02308937725201
 30
0.0
 11
147.88758804568721
 21
211.02308937725201
 31
0.0
  0
LINE
  5
1928
  8
0
 62
     0
 10
151.63758804568721
 20
211.02308937725201
 30
0.0
 11
151.63758804568721
 21
211.02308937725201
 31
0.0
  0
LINE
  5
1929
  8
0
 62
     0
 10
151.51258804568729
 20
211.02308937725201
 30
0.0
 11
151.51258804568729
 21
211.02308937725201
 31
0.0
  0
LINE
  5
192A
  8
0
 62
     0
 10
151.38758804568721
 20
211.02308937725201
 30
0.0
 11
151.38758804568721
 21
211.02308937725201
 31
0.0
  0
LINE
  5
192B
  8
0
 62
     0
 10
151.26258804568721
 20
211.02308937725201
 30
0.0
 11
151.26258804568721
 21
211.02308937725201
 31
0.0
  0
LINE
  5
192C
  8
0
 62
     0
 10
146.01258804568721
 20
211.02308937725201
 30
0.0
 11
146.01258804568721
 21
211.02308937725201
 31
0.0
  0
LINE
  5
192D
  8
0
 62
     0
 10
145.88758804568721
 20
211.02308937725201
 30
0.0
 11
145.88758804568721
 21
211.02308937725201
 31
0.0
  0
LINE
  5
192E
  8
0
 62
     0
 10
145.76258804568721
 20
211.02308937725201
 30
0.0
 11
145.76258804568721
 21
211.02308937725201
 31
0.0
  0
LINE
  5
192F
  8
0
 62
     0
 10
145.63758804568721
 20
211.02308937725201
 30
0.0
 11
145.63758804568721
 21
211.02308937725201
 31
0.0
  0
LINE
  5
1930
  8
0
 62
     0
 10
153.01258804568721
 20
211.02308937725201
 30
0.0
 11
153.01258804568721
 21
211.02308937725201
 31
0.0
  0
LINE
  5
1931
  8
0
 62
     0
 10
152.88758804568721
 20
211.02308937725201
 30
0.0
 11
152.88758804568721
 21
211.02308937725201
 31
0.0
  0
LINE
  5
1932
  8
0
 62
     0
 10
152.76258804568729
 20
211.02308937725201
 30
0.0
 11
152.76258804568729
 21
211.02308937725201
 31
0.0
  0
LINE
  5
1933
  8
0
 62
     0
 10
152.63758804568729
 20
211.02308937725201
 30
0.0
 11
152.63758804568729
 21
211.02308937725201
 31
0.0
  0
LINE
  5
1934
  8
0
 62
     0
 10
144.76258804568721
 20
211.02308937725201
 30
0.0
 11
144.76258804568721
 21
211.02308937725201
 31
0.0
  0
LINE
  5
1935
  8
0
 62
     0
 10
144.63758804568721
 20
211.02308937725201
 30
0.0
 11
144.63758804568721
 21
211.02308937725201
 31
0.0
  0
LINE
  5
1936
  8
0
 62
     0
 10
144.51258804568721
 20
211.02308937725201
 30
0.0
 11
144.51258804568721
 21
211.02308937725201
 31
0.0
  0
LINE
  5
1937
  8
0
 62
     0
 10
144.38758804568721
 20
211.02308937725201
 30
0.0
 11
144.38758804568721
 21
211.02308937725201
 31
0.0
  0
LINE
  5
1938
  8
0
 62
     0
 10
144.26258804568729
 20
211.02308937725201
 30
0.0
 11
144.26258804568729
 21
211.02308937725201
 31
0.0
  0
LINE
  5
1939
  8
0
 62
     0
 10
155.26258804568721
 20
211.02308937725201
 30
0.0
 11
155.26258804568721
 21
211.02308937725201
 31
0.0
  0
LINE
  5
193A
  8
0
 62
     0
 10
155.13758804568721
 20
211.02308937725201
 30
0.0
 11
155.13758804568721
 21
211.02308937725201
 31
0.0
  0
LINE
  5
193B
  8
0
 62
     0
 10
155.01258804568721
 20
211.02308937725201
 30
0.0
 11
155.01258804568721
 21
211.02308937725201
 31
0.0
  0
LINE
  5
193C
  8
0
 62
     0
 10
154.88758804568721
 20
211.02308937725201
 30
0.0
 11
154.88758804568721
 21
211.02308937725201
 31
0.0
  0
LINE
  5
193D
  8
0
 62
     0
 10
142.63758804568721
 20
211.02308937725201
 30
0.0
 11
142.63758804568721
 21
211.02308937725201
 31
0.0
  0
LINE
  5
193E
  8
0
 62
     0
 10
142.51258804568721
 20
211.02308937725201
 30
0.0
 11
142.51258804568721
 21
211.02308937725201
 31
0.0
  0
LINE
  5
193F
  8
0
 62
     0
 10
142.38758804568721
 20
211.02308937725201
 30
0.0
 11
142.38758804568721
 21
211.02308937725201
 31
0.0
  0
LINE
  5
1940
  8
0
 62
     0
 10
142.26258804568721
 20
211.02308937725201
 30
0.0
 11
142.26258804568721
 21
211.02308937725201
 31
0.0
  0
LINE
  5
1941
  8
0
 62
     0
 10
149.95008804568729
 20
211.14808937725209
 30
0.0
 11
149.95008804568729
 21
211.14808937725209
 31
0.0
  0
LINE
  5
1942
  8
0
 62
     0
 10
149.82508804568721
 20
211.14808937725209
 30
0.0
 11
149.82508804568721
 21
211.14808937725209
 31
0.0
  0
LINE
  5
1943
  8
0
 62
     0
 10
149.70008804568721
 20
211.14808937725209
 30
0.0
 11
149.70008804568721
 21
211.14808937725209
 31
0.0
  0
LINE
  5
1944
  8
0
 62
     0
 10
149.57508804568721
 20
211.14808937725209
 30
0.0
 11
149.57508804568721
 21
211.14808937725209
 31
0.0
  0
LINE
  5
1945
  8
0
 62
     0
 10
149.45008804568721
 20
211.14808937725209
 30
0.0
 11
149.45008804568721
 21
211.14808937725209
 31
0.0
  0
LINE
  5
1946
  8
0
 62
     0
 10
148.32508804568721
 20
211.14808937725209
 30
0.0
 11
148.32508804568721
 21
211.14808937725209
 31
0.0
  0
LINE
  5
1947
  8
0
 62
     0
 10
148.20008804568721
 20
211.14808937725209
 30
0.0
 11
148.20008804568721
 21
211.14808937725209
 31
0.0
  0
LINE
  5
1948
  8
0
 62
     0
 10
148.07508804568729
 20
211.14808937725209
 30
0.0
 11
148.07508804568729
 21
211.14808937725209
 31
0.0
  0
LINE
  5
1949
  8
0
 62
     0
 10
147.95008804568729
 20
211.14808937725209
 30
0.0
 11
147.95008804568729
 21
211.14808937725209
 31
0.0
  0
LINE
  5
194A
  8
0
 62
     0
 10
151.57508804568721
 20
211.14808937725209
 30
0.0
 11
151.57508804568721
 21
211.14808937725209
 31
0.0
  0
LINE
  5
194B
  8
0
 62
     0
 10
151.45008804568721
 20
211.14808937725209
 30
0.0
 11
151.45008804568721
 21
211.14808937725209
 31
0.0
  0
LINE
  5
194C
  8
0
 62
     0
 10
151.32508804568721
 20
211.14808937725209
 30
0.0
 11
151.32508804568721
 21
211.14808937725209
 31
0.0
  0
LINE
  5
194D
  8
0
 62
     0
 10
151.20008804568729
 20
211.14808937725209
 30
0.0
 11
151.20008804568729
 21
211.14808937725209
 31
0.0
  0
LINE
  5
194E
  8
0
 62
     0
 10
151.07508804568729
 20
211.14808937725209
 30
0.0
 11
151.07508804568729
 21
211.14808937725209
 31
0.0
  0
LINE
  5
194F
  8
0
 62
     0
 10
146.07508804568721
 20
211.14808937725209
 30
0.0
 11
146.07508804568721
 21
211.14808937725209
 31
0.0
  0
LINE
  5
1950
  8
0
 62
     0
 10
145.95008804568721
 20
211.14808937725209
 30
0.0
 11
145.95008804568721
 21
211.14808937725209
 31
0.0
  0
LINE
  5
1951
  8
0
 62
     0
 10
145.82508804568729
 20
211.14808937725209
 30
0.0
 11
145.82508804568729
 21
211.14808937725209
 31
0.0
  0
LINE
  5
1952
  8
0
 62
     0
 10
145.70008804568721
 20
211.14808937725209
 30
0.0
 11
145.70008804568721
 21
211.14808937725209
 31
0.0
  0
LINE
  5
1953
  8
0
 62
     0
 10
152.95008804568721
 20
211.14808937725209
 30
0.0
 11
152.95008804568721
 21
211.14808937725209
 31
0.0
  0
LINE
  5
1954
  8
0
 62
     0
 10
152.82508804568721
 20
211.14808937725209
 30
0.0
 11
152.82508804568721
 21
211.14808937725209
 31
0.0
  0
LINE
  5
1955
  8
0
 62
     0
 10
152.70008804568721
 20
211.14808937725209
 30
0.0
 11
152.70008804568721
 21
211.14808937725209
 31
0.0
  0
LINE
  5
1956
  8
0
 62
     0
 10
152.57508804568721
 20
211.14808937725209
 30
0.0
 11
152.57508804568721
 21
211.14808937725209
 31
0.0
  0
LINE
  5
1957
  8
0
 62
     0
 10
144.70008804568721
 20
211.14808937725209
 30
0.0
 11
144.70008804568721
 21
211.14808937725209
 31
0.0
  0
LINE
  5
1958
  8
0
 62
     0
 10
144.57508804568721
 20
211.14808937725209
 30
0.0
 11
144.57508804568721
 21
211.14808937725209
 31
0.0
  0
LINE
  5
1959
  8
0
 62
     0
 10
144.45008804568721
 20
211.14808937725209
 30
0.0
 11
144.45008804568721
 21
211.14808937725209
 31
0.0
  0
LINE
  5
195A
  8
0
 62
     0
 10
144.32508804568721
 20
211.14808937725209
 30
0.0
 11
144.32508804568721
 21
211.14808937725209
 31
0.0
  0
LINE
  5
195B
  8
0
 62
     0
 10
144.20008804568721
 20
211.14808937725209
 30
0.0
 11
144.20008804568721
 21
211.14808937725209
 31
0.0
  0
LINE
  5
195C
  8
0
 62
     0
 10
144.07508804568721
 20
211.14808937725209
 30
0.0
 11
144.07508804568721
 21
211.14808937725209
 31
0.0
  0
LINE
  5
195D
  8
0
 62
     0
 10
143.95008804568721
 20
211.14808937725209
 30
0.0
 11
143.95008804568721
 21
211.14808937725209
 31
0.0
  0
LINE
  5
195E
  8
0
 62
     0
 10
155.32508804568721
 20
211.14808937725209
 30
0.0
 11
155.32508804568721
 21
211.14808937725209
 31
0.0
  0
LINE
  5
195F
  8
0
 62
     0
 10
155.20008804568729
 20
211.14808937725209
 30
0.0
 11
155.20008804568729
 21
211.14808937725209
 31
0.0
  0
LINE
  5
1960
  8
0
 62
     0
 10
155.07508804568721
 20
211.14808937725209
 30
0.0
 11
155.07508804568721
 21
211.14808937725209
 31
0.0
  0
LINE
  5
1961
  8
0
 62
     0
 10
154.95008804568721
 20
211.14808937725209
 30
0.0
 11
154.95008804568721
 21
211.14808937725209
 31
0.0
  0
LINE
  5
1962
  8
0
 62
     0
 10
142.70008804568729
 20
211.14808937725209
 30
0.0
 11
142.70008804568729
 21
211.14808937725209
 31
0.0
  0
LINE
  5
1963
  8
0
 62
     0
 10
142.57508804568721
 20
211.14808937725209
 30
0.0
 11
142.57508804568721
 21
211.14808937725209
 31
0.0
  0
LINE
  5
1964
  8
0
 62
     0
 10
142.45008804568721
 20
211.14808937725209
 30
0.0
 11
142.45008804568721
 21
211.14808937725209
 31
0.0
  0
LINE
  5
1965
  8
0
 62
     0
 10
142.32508804568721
 20
211.14808937725209
 30
0.0
 11
142.32508804568721
 21
211.14808937725209
 31
0.0
  0
LINE
  5
1966
  8
0
 62
     0
 10
151.38758804568721
 20
211.27308937725209
 30
0.0
 11
151.38758804568721
 21
211.27308937725209
 31
0.0
  0
LINE
  5
1967
  8
0
 62
     0
 10
151.26258804568721
 20
211.27308937725209
 30
0.0
 11
151.26258804568721
 21
211.27308937725209
 31
0.0
  0
LINE
  5
1968
  8
0
 62
     0
 10
151.13758804568721
 20
211.27308937725209
 30
0.0
 11
151.13758804568721
 21
211.27308937725209
 31
0.0
  0
LINE
  5
1969
  8
0
 62
     0
 10
151.01258804568721
 20
211.27308937725209
 30
0.0
 11
151.01258804568721
 21
211.27308937725209
 31
0.0
  0
LINE
  5
196A
  8
0
 62
     0
 10
150.88758804568721
 20
211.27308937725209
 30
0.0
 11
150.88758804568721
 21
211.27308937725209
 31
0.0
  0
LINE
  5
196B
  8
0
 62
     0
 10
150.76258804568721
 20
211.27308937725209
 30
0.0
 11
150.76258804568721
 21
211.27308937725209
 31
0.0
  0
LINE
  5
196C
  8
0
 62
     0
 10
150.63758804568721
 20
211.27308937725209
 30
0.0
 11
150.63758804568721
 21
211.27308937725209
 31
0.0
  0
LINE
  5
196D
  8
0
 62
     0
 10
150.51258804568729
 20
211.27308937725209
 30
0.0
 11
150.51258804568729
 21
211.27308937725209
 31
0.0
  0
LINE
  5
196E
  8
0
 62
     0
 10
150.38758804568721
 20
211.27308937725209
 30
0.0
 11
150.38758804568721
 21
211.27308937725209
 31
0.0
  0
LINE
  5
196F
  8
0
 62
     0
 10
150.26258804568721
 20
211.27308937725209
 30
0.0
 11
150.26258804568721
 21
211.27308937725209
 31
0.0
  0
LINE
  5
1970
  8
0
 62
     0
 10
150.13758804568721
 20
211.27308937725209
 30
0.0
 11
150.13758804568721
 21
211.27308937725209
 31
0.0
  0
LINE
  5
1971
  8
0
 62
     0
 10
150.01258804568721
 20
211.27308937725209
 30
0.0
 11
150.01258804568721
 21
211.27308937725209
 31
0.0
  0
LINE
  5
1972
  8
0
 62
     0
 10
149.88758804568721
 20
211.27308937725209
 30
0.0
 11
149.88758804568721
 21
211.27308937725209
 31
0.0
  0
LINE
  5
1973
  8
0
 62
     0
 10
149.76258804568721
 20
211.27308937725209
 30
0.0
 11
149.76258804568721
 21
211.27308937725209
 31
0.0
  0
LINE
  5
1974
  8
0
 62
     0
 10
149.63758804568729
 20
211.27308937725209
 30
0.0
 11
149.63758804568729
 21
211.27308937725209
 31
0.0
  0
LINE
  5
1975
  8
0
 62
     0
 10
149.51258804568729
 20
211.27308937725209
 30
0.0
 11
149.51258804568729
 21
211.27308937725209
 31
0.0
  0
LINE
  5
1976
  8
0
 62
     0
 10
148.26258804568721
 20
211.27308937725209
 30
0.0
 11
148.26258804568721
 21
211.27308937725209
 31
0.0
  0
LINE
  5
1977
  8
0
 62
     0
 10
148.13758804568721
 20
211.27308937725209
 30
0.0
 11
148.13758804568721
 21
211.27308937725209
 31
0.0
  0
LINE
  5
1978
  8
0
 62
     0
 10
148.01258804568721
 20
211.27308937725209
 30
0.0
 11
148.01258804568721
 21
211.27308937725209
 31
0.0
  0
LINE
  5
1979
  8
0
 62
     0
 10
147.88758804568721
 20
211.27308937725209
 30
0.0
 11
147.88758804568721
 21
211.27308937725209
 31
0.0
  0
LINE
  5
197A
  8
0
 62
     0
 10
153.01258804568721
 20
211.27308937725209
 30
0.0
 11
153.01258804568721
 21
211.27308937725209
 31
0.0
  0
LINE
  5
197B
  8
0
 62
     0
 10
152.88758804568721
 20
211.27308937725209
 30
0.0
 11
152.88758804568721
 21
211.27308937725209
 31
0.0
  0
LINE
  5
197C
  8
0
 62
     0
 10
152.76258804568729
 20
211.27308937725209
 30
0.0
 11
152.76258804568729
 21
211.27308937725209
 31
0.0
  0
LINE
  5
197D
  8
0
 62
     0
 10
152.63758804568729
 20
211.27308937725209
 30
0.0
 11
152.63758804568729
 21
211.27308937725209
 31
0.0
  0
LINE
  5
197E
  8
0
 62
     0
 10
146.01258804568721
 20
211.27308937725209
 30
0.0
 11
146.01258804568721
 21
211.27308937725209
 31
0.0
  0
LINE
  5
197F
  8
0
 62
     0
 10
145.88758804568721
 20
211.27308937725209
 30
0.0
 11
145.88758804568721
 21
211.27308937725209
 31
0.0
  0
LINE
  5
1980
  8
0
 62
     0
 10
145.76258804568721
 20
211.27308937725209
 30
0.0
 11
145.76258804568721
 21
211.27308937725209
 31
0.0
  0
LINE
  5
1981
  8
0
 62
     0
 10
145.63758804568721
 20
211.27308937725209
 30
0.0
 11
145.63758804568721
 21
211.27308937725209
 31
0.0
  0
LINE
  5
1982
  8
0
 62
     0
 10
155.26258804568721
 20
211.27308937725209
 30
0.0
 11
155.26258804568721
 21
211.27308937725209
 31
0.0
  0
LINE
  5
1983
  8
0
 62
     0
 10
155.13758804568721
 20
211.27308937725209
 30
0.0
 11
155.13758804568721
 21
211.27308937725209
 31
0.0
  0
LINE
  5
1984
  8
0
 62
     0
 10
155.01258804568721
 20
211.27308937725209
 30
0.0
 11
155.01258804568721
 21
211.27308937725209
 31
0.0
  0
LINE
  5
1985
  8
0
 62
     0
 10
154.88758804568721
 20
211.27308937725209
 30
0.0
 11
154.88758804568721
 21
211.27308937725209
 31
0.0
  0
LINE
  5
1986
  8
0
 62
     0
 10
144.51258804568721
 20
211.27308937725209
 30
0.0
 11
144.51258804568721
 21
211.27308937725209
 31
0.0
  0
LINE
  5
1987
  8
0
 62
     0
 10
144.38758804568721
 20
211.27308937725209
 30
0.0
 11
144.38758804568721
 21
211.27308937725209
 31
0.0
  0
LINE
  5
1988
  8
0
 62
     0
 10
144.26258804568729
 20
211.27308937725209
 30
0.0
 11
144.26258804568729
 21
211.27308937725209
 31
0.0
  0
LINE
  5
1989
  8
0
 62
     0
 10
144.13758804568721
 20
211.27308937725209
 30
0.0
 11
144.13758804568721
 21
211.27308937725209
 31
0.0
  0
LINE
  5
198A
  8
0
 62
     0
 10
144.01258804568721
 20
211.27308937725209
 30
0.0
 11
144.01258804568721
 21
211.27308937725209
 31
0.0
  0
LINE
  5
198B
  8
0
 62
     0
 10
143.88758804568721
 20
211.27308937725209
 30
0.0
 11
143.88758804568721
 21
211.27308937725209
 31
0.0
  0
LINE
  5
198C
  8
0
 62
     0
 10
143.76258804568721
 20
211.27308937725209
 30
0.0
 11
143.76258804568721
 21
211.27308937725209
 31
0.0
  0
LINE
  5
198D
  8
0
 62
     0
 10
143.63758804568721
 20
211.27308937725209
 30
0.0
 11
143.63758804568721
 21
211.27308937725209
 31
0.0
  0
LINE
  5
198E
  8
0
 62
     0
 10
143.51258804568721
 20
211.27308937725209
 30
0.0
 11
143.51258804568721
 21
211.27308937725209
 31
0.0
  0
LINE
  5
198F
  8
0
 62
     0
 10
143.38758804568729
 20
211.27308937725209
 30
0.0
 11
143.38758804568729
 21
211.27308937725209
 31
0.0
  0
LINE
  5
1990
  8
0
 62
     0
 10
143.26258804568729
 20
211.27308937725209
 30
0.0
 11
143.26258804568729
 21
211.27308937725209
 31
0.0
  0
LINE
  5
1991
  8
0
 62
     0
 10
143.13758804568721
 20
211.27308937725209
 30
0.0
 11
143.13758804568721
 21
211.27308937725209
 31
0.0
  0
LINE
  5
1992
  8
0
 62
     0
 10
143.01258804568721
 20
211.27308937725209
 30
0.0
 11
143.01258804568721
 21
211.27308937725209
 31
0.0
  0
LINE
  5
1993
  8
0
 62
     0
 10
142.88758804568721
 20
211.27308937725209
 30
0.0
 11
142.88758804568721
 21
211.27308937725209
 31
0.0
  0
LINE
  5
1994
  8
0
 62
     0
 10
142.76258804568721
 20
211.27308937725209
 30
0.0
 11
142.76258804568721
 21
211.27308937725209
 31
0.0
  0
LINE
  5
1995
  8
0
 62
     0
 10
142.63758804568721
 20
211.27308937725209
 30
0.0
 11
142.63758804568721
 21
211.27308937725209
 31
0.0
  0
LINE
  5
1996
  8
0
 62
     0
 10
142.51258804568721
 20
211.27308937725209
 30
0.0
 11
142.51258804568721
 21
211.27308937725209
 31
0.0
  0
LINE
  5
1997
  8
0
 62
     0
 10
142.38758804568721
 20
211.27308937725209
 30
0.0
 11
142.38758804568721
 21
211.27308937725209
 31
0.0
  0
LINE
  5
1998
  8
0
 62
     0
 10
142.26258804568721
 20
211.27308937725209
 30
0.0
 11
142.26258804568721
 21
211.27308937725209
 31
0.0
  0
LINE
  5
1999
  8
0
 62
     0
 10
151.20008804568729
 20
211.39808937725209
 30
0.0
 11
151.20008804568729
 21
211.39808937725209
 31
0.0
  0
LINE
  5
199A
  8
0
 62
     0
 10
151.07508804568729
 20
211.39808937725209
 30
0.0
 11
151.07508804568729
 21
211.39808937725209
 31
0.0
  0
LINE
  5
199B
  8
0
 62
     0
 10
150.95008804568721
 20
211.39808937725209
 30
0.0
 11
150.95008804568721
 21
211.39808937725209
 31
0.0
  0
LINE
  5
199C
  8
0
 62
     0
 10
150.82508804568721
 20
211.39808937725209
 30
0.0
 11
150.82508804568721
 21
211.39808937725209
 31
0.0
  0
LINE
  5
199D
  8
0
 62
     0
 10
150.70008804568721
 20
211.39808937725209
 30
0.0
 11
150.70008804568721
 21
211.39808937725209
 31
0.0
  0
LINE
  5
199E
  8
0
 62
     0
 10
150.57508804568721
 20
211.39808937725209
 30
0.0
 11
150.57508804568721
 21
211.39808937725209
 31
0.0
  0
LINE
  5
199F
  8
0
 62
     0
 10
150.45008804568721
 20
211.39808937725209
 30
0.0
 11
150.45008804568721
 21
211.39808937725209
 31
0.0
  0
LINE
  5
19A0
  8
0
 62
     0
 10
150.32508804568721
 20
211.39808937725209
 30
0.0
 11
150.32508804568721
 21
211.39808937725209
 31
0.0
  0
LINE
  5
19A1
  8
0
 62
     0
 10
150.20008804568721
 20
211.39808937725209
 30
0.0
 11
150.20008804568721
 21
211.39808937725209
 31
0.0
  0
LINE
  5
19A2
  8
0
 62
     0
 10
150.07508804568721
 20
211.39808937725209
 30
0.0
 11
150.07508804568721
 21
211.39808937725209
 31
0.0
  0
LINE
  5
19A3
  8
0
 62
     0
 10
149.95008804568729
 20
211.39808937725209
 30
0.0
 11
149.95008804568729
 21
211.39808937725209
 31
0.0
  0
LINE
  5
19A4
  8
0
 62
     0
 10
149.82508804568721
 20
211.39808937725209
 30
0.0
 11
149.82508804568721
 21
211.39808937725209
 31
0.0
  0
LINE
  5
19A5
  8
0
 62
     0
 10
148.32508804568721
 20
211.39808937725209
 30
0.0
 11
148.32508804568721
 21
211.39808937725209
 31
0.0
  0
LINE
  5
19A6
  8
0
 62
     0
 10
148.20008804568721
 20
211.39808937725209
 30
0.0
 11
148.20008804568721
 21
211.39808937725209
 31
0.0
  0
LINE
  5
19A7
  8
0
 62
     0
 10
148.07508804568729
 20
211.39808937725209
 30
0.0
 11
148.07508804568729
 21
211.39808937725209
 31
0.0
  0
LINE
  5
19A8
  8
0
 62
     0
 10
147.95008804568729
 20
211.39808937725209
 30
0.0
 11
147.95008804568729
 21
211.39808937725209
 31
0.0
  0
LINE
  5
19A9
  8
0
 62
     0
 10
152.95008804568721
 20
211.39808937725209
 30
0.0
 11
152.95008804568721
 21
211.39808937725209
 31
0.0
  0
LINE
  5
19AA
  8
0
 62
     0
 10
152.82508804568721
 20
211.39808937725209
 30
0.0
 11
152.82508804568721
 21
211.39808937725209
 31
0.0
  0
LINE
  5
19AB
  8
0
 62
     0
 10
152.70008804568721
 20
211.39808937725209
 30
0.0
 11
152.70008804568721
 21
211.39808937725209
 31
0.0
  0
LINE
  5
19AC
  8
0
 62
     0
 10
152.57508804568721
 20
211.39808937725209
 30
0.0
 11
152.57508804568721
 21
211.39808937725209
 31
0.0
  0
LINE
  5
19AD
  8
0
 62
     0
 10
146.07508804568721
 20
211.39808937725209
 30
0.0
 11
146.07508804568721
 21
211.39808937725209
 31
0.0
  0
LINE
  5
19AE
  8
0
 62
     0
 10
145.95008804568721
 20
211.39808937725209
 30
0.0
 11
145.95008804568721
 21
211.39808937725209
 31
0.0
  0
LINE
  5
19AF
  8
0
 62
     0
 10
145.82508804568729
 20
211.39808937725209
 30
0.0
 11
145.82508804568729
 21
211.39808937725209
 31
0.0
  0
LINE
  5
19B0
  8
0
 62
     0
 10
145.70008804568721
 20
211.39808937725209
 30
0.0
 11
145.70008804568721
 21
211.39808937725209
 31
0.0
  0
LINE
  5
19B1
  8
0
 62
     0
 10
155.32508804568721
 20
211.39808937725209
 30
0.0
 11
155.32508804568721
 21
211.39808937725209
 31
0.0
  0
LINE
  5
19B2
  8
0
 62
     0
 10
155.20008804568729
 20
211.39808937725209
 30
0.0
 11
155.20008804568729
 21
211.39808937725209
 31
0.0
  0
LINE
  5
19B3
  8
0
 62
     0
 10
155.07508804568721
 20
211.39808937725209
 30
0.0
 11
155.07508804568721
 21
211.39808937725209
 31
0.0
  0
LINE
  5
19B4
  8
0
 62
     0
 10
154.95008804568721
 20
211.39808937725209
 30
0.0
 11
154.95008804568721
 21
211.39808937725209
 31
0.0
  0
LINE
  5
19B5
  8
0
 62
     0
 10
144.32508804568721
 20
211.39808937725209
 30
0.0
 11
144.32508804568721
 21
211.39808937725209
 31
0.0
  0
LINE
  5
19B6
  8
0
 62
     0
 10
144.20008804568721
 20
211.39808937725209
 30
0.0
 11
144.20008804568721
 21
211.39808937725209
 31
0.0
  0
LINE
  5
19B7
  8
0
 62
     0
 10
144.07508804568721
 20
211.39808937725209
 30
0.0
 11
144.07508804568721
 21
211.39808937725209
 31
0.0
  0
LINE
  5
19B8
  8
0
 62
     0
 10
143.95008804568721
 20
211.39808937725209
 30
0.0
 11
143.95008804568721
 21
211.39808937725209
 31
0.0
  0
LINE
  5
19B9
  8
0
 62
     0
 10
143.82508804568721
 20
211.39808937725209
 30
0.0
 11
143.82508804568721
 21
211.39808937725209
 31
0.0
  0
LINE
  5
19BA
  8
0
 62
     0
 10
143.70008804568729
 20
211.39808937725209
 30
0.0
 11
143.70008804568729
 21
211.39808937725209
 31
0.0
  0
LINE
  5
19BB
  8
0
 62
     0
 10
143.57508804568721
 20
211.39808937725209
 30
0.0
 11
143.57508804568721
 21
211.39808937725209
 31
0.0
  0
LINE
  5
19BC
  8
0
 62
     0
 10
143.45008804568721
 20
211.39808937725209
 30
0.0
 11
143.45008804568721
 21
211.39808937725209
 31
0.0
  0
LINE
  5
19BD
  8
0
 62
     0
 10
143.32508804568721
 20
211.39808937725209
 30
0.0
 11
143.32508804568721
 21
211.39808937725209
 31
0.0
  0
LINE
  5
19BE
  8
0
 62
     0
 10
143.20008804568721
 20
211.39808937725209
 30
0.0
 11
143.20008804568721
 21
211.39808937725209
 31
0.0
  0
LINE
  5
19BF
  8
0
 62
     0
 10
143.07508804568721
 20
211.39808937725209
 30
0.0
 11
143.07508804568721
 21
211.39808937725209
 31
0.0
  0
LINE
  5
19C0
  8
0
 62
     0
 10
142.95008804568721
 20
211.39808937725209
 30
0.0
 11
142.95008804568721
 21
211.39808937725209
 31
0.0
  0
LINE
  5
19C1
  8
0
 62
     0
 10
142.82508804568721
 20
211.39808937725209
 30
0.0
 11
142.82508804568721
 21
211.39808937725209
 31
0.0
  0
LINE
  5
19C2
  8
0
 62
     0
 10
142.70008804568729
 20
211.39808937725209
 30
0.0
 11
142.70008804568729
 21
211.39808937725209
 31
0.0
  0
LINE
  5
19C3
  8
0
 62
     0
 10
142.57508804568721
 20
211.39808937725209
 30
0.0
 11
142.57508804568721
 21
211.39808937725209
 31
0.0
  0
LINE
  5
19C4
  8
0
 62
     0
 10
142.45008804568721
 20
211.39808937725209
 30
0.0
 11
142.45008804568721
 21
211.39808937725209
 31
0.0
  0
LINE
  5
19C5
  8
0
 62
     0
 10
142.32508804568721
 20
211.39808937725209
 30
0.0
 11
142.32508804568721
 21
211.39808937725209
 31
0.0
  0
LINE
  5
19C6
  8
0
 62
     0
 10
150.63758804568721
 20
211.52308937725209
 30
0.0
 11
150.63758804568721
 21
211.52308937725209
 31
0.0
  0
LINE
  5
19C7
  8
0
 62
     0
 10
150.51258804568729
 20
211.52308937725209
 30
0.0
 11
150.51258804568729
 21
211.52308937725209
 31
0.0
  0
LINE
  5
19C8
  8
0
 62
     0
 10
150.38758804568721
 20
211.52308937725209
 30
0.0
 11
150.38758804568721
 21
211.52308937725209
 31
0.0
  0
LINE
  5
19C9
  8
0
 62
     0
 10
148.26258804568721
 20
211.52308937725209
 30
0.0
 11
148.26258804568721
 21
211.52308937725209
 31
0.0
  0
LINE
  5
19CA
  8
0
 62
     0
 10
148.13758804568721
 20
211.52308937725209
 30
0.0
 11
148.13758804568721
 21
211.52308937725209
 31
0.0
  0
LINE
  5
19CB
  8
0
 62
     0
 10
148.01258804568721
 20
211.52308937725209
 30
0.0
 11
148.01258804568721
 21
211.52308937725209
 31
0.0
  0
LINE
  5
19CC
  8
0
 62
     0
 10
147.88758804568721
 20
211.52308937725209
 30
0.0
 11
147.88758804568721
 21
211.52308937725209
 31
0.0
  0
LINE
  5
19CD
  8
0
 62
     0
 10
153.01258804568721
 20
211.52308937725209
 30
0.0
 11
153.01258804568721
 21
211.52308937725209
 31
0.0
  0
LINE
  5
19CE
  8
0
 62
     0
 10
152.88758804568721
 20
211.52308937725209
 30
0.0
 11
152.88758804568721
 21
211.52308937725209
 31
0.0
  0
LINE
  5
19CF
  8
0
 62
     0
 10
152.76258804568729
 20
211.52308937725209
 30
0.0
 11
152.76258804568729
 21
211.52308937725209
 31
0.0
  0
LINE
  5
19D0
  8
0
 62
     0
 10
152.63758804568729
 20
211.52308937725209
 30
0.0
 11
152.63758804568729
 21
211.52308937725209
 31
0.0
  0
LINE
  5
19D1
  8
0
 62
     0
 10
146.01258804568721
 20
211.52308937725209
 30
0.0
 11
146.01258804568721
 21
211.52308937725209
 31
0.0
  0
LINE
  5
19D2
  8
0
 62
     0
 10
145.88758804568721
 20
211.52308937725209
 30
0.0
 11
145.88758804568721
 21
211.52308937725209
 31
0.0
  0
LINE
  5
19D3
  8
0
 62
     0
 10
145.76258804568721
 20
211.52308937725209
 30
0.0
 11
145.76258804568721
 21
211.52308937725209
 31
0.0
  0
LINE
  5
19D4
  8
0
 62
     0
 10
145.63758804568721
 20
211.52308937725209
 30
0.0
 11
145.63758804568721
 21
211.52308937725209
 31
0.0
  0
LINE
  5
19D5
  8
0
 62
     0
 10
155.26258804568721
 20
211.52308937725209
 30
0.0
 11
155.26258804568721
 21
211.52308937725209
 31
0.0
  0
LINE
  5
19D6
  8
0
 62
     0
 10
155.13758804568721
 20
211.52308937725209
 30
0.0
 11
155.13758804568721
 21
211.52308937725209
 31
0.0
  0
LINE
  5
19D7
  8
0
 62
     0
 10
155.01258804568721
 20
211.52308937725209
 30
0.0
 11
155.01258804568721
 21
211.52308937725209
 31
0.0
  0
LINE
  5
19D8
  8
0
 62
     0
 10
154.88758804568721
 20
211.52308937725209
 30
0.0
 11
154.88758804568721
 21
211.52308937725209
 31
0.0
  0
LINE
  5
19D9
  8
0
 62
     0
 10
143.76258804568721
 20
211.52308937725209
 30
0.0
 11
143.76258804568721
 21
211.52308937725209
 31
0.0
  0
LINE
  5
19DA
  8
0
 62
     0
 10
143.63758804568721
 20
211.52308937725209
 30
0.0
 11
143.63758804568721
 21
211.52308937725209
 31
0.0
  0
LINE
  5
19DB
  8
0
 62
     0
 10
143.51258804568721
 20
211.52308937725209
 30
0.0
 11
143.51258804568721
 21
211.52308937725209
 31
0.0
  0
LINE
  5
19DC
  8
0
 62
     0
 10
143.38758804568729
 20
211.52308937725209
 30
0.0
 11
143.38758804568729
 21
211.52308937725209
 31
0.0
  0
LINE
  5
19DD
  8
0
 62
     0
 10
143.26258804568729
 20
211.52308937725209
 30
0.0
 11
143.26258804568729
 21
211.52308937725209
 31
0.0
  0
LINE
  5
19DE
  8
0
 62
     0
 10
143.13758804568721
 20
211.52308937725209
 30
0.0
 11
143.13758804568721
 21
211.52308937725209
 31
0.0
  0
LINE
  5
19DF
  8
0
 62
     0
 10
143.01258804568721
 20
211.52308937725209
 30
0.0
 11
143.01258804568721
 21
211.52308937725209
 31
0.0
  0
LINE
  5
19E0
  8
0
 62
     0
 10
142.88758804568721
 20
211.52308937725209
 30
0.0
 11
142.88758804568721
 21
211.52308937725209
 31
0.0
  0
LINE
  5
19E1
  8
0
 62
     0
 10
142.76258804568721
 20
211.52308937725209
 30
0.0
 11
142.76258804568721
 21
211.52308937725209
 31
0.0
  0
LINE
  5
19E2
  8
0
 62
     0
 10
142.63758804568721
 20
211.52308937725209
 30
0.0
 11
142.63758804568721
 21
211.52308937725209
 31
0.0
  0
LINE
  5
19E3
  8
0
 62
     0
 10
142.51258804568721
 20
211.52308937725209
 30
0.0
 11
142.51258804568721
 21
211.52308937725209
 31
0.0
  0
LINE
  5
19E4
  8
0
 62
     0
 10
142.38758804568721
 20
211.52308937725209
 30
0.0
 11
142.38758804568721
 21
211.52308937725209
 31
0.0
  0
LINE
  5
19E5
  8
0
 62
     0
 10
142.26258804568721
 20
211.52308937725209
 30
0.0
 11
142.26258804568721
 21
211.52308937725209
 31
0.0
  0
ENDBLK
  5
19E7
  8
0
  0
ENDSEC
  0
SECTION
  2
ENTITIES
  0
LINE
  5
128A
  8
1
 10
119.2166674355914
 20
59.414441663135051
 30
0.0
 11
119.2166674355914
 21
84.914441663135037
 31
0.0
  0
LINE
  5
128B
  8
1
 10
106.46666743559121
 20
72.164441663134923
 30
0.0
 11
168.2166674355914
 21
72.164441663135108
 31
0.0
  0
INSERT
  5
1290
  8
3
  6
CONTINUOUS
  2
*X0
 10
0.0
 20
0.0
 30
0.0
1001
ACAD
1000
HATCH
1002
{
1070
    19
1000
DOTS
1040
2.0
1040
0.0
1000
ASC_BOUNDS
1070
     5
1070
     2
1070
     1
1005
1292
1070
     2
1070
     1
1005
12D4
1070
     2
1070
     1
1005
12C7
1070
     2
1070
     1
1005
12C6
1070
     2
1070
     1
1005
1291
1000
ASC_SEEDPOINT
1011
-464.11241195431268
1021
0.0
1031
0.0
1021
17.27308937725206
1031
0.0
1000
R14_HATCH_DATA
1000
1290
1011
1.0
1021
0.0
1031
0.0
1021
0.0
1031
0.0
1011
0.0
1021
0.0
1031
0.0
1021
1.0
1031
0.0
1011
0.0
1021
0.0
1031
0.0
1021
0.0
1031
1.0
1040
0.0
1010
0.0
1020
0.0
1030
1.0
1000
DOTS
1070
     0
1070
     1
1071
        5
1071
        1
1071
       12
1070
     1
1040
153.0511637965792
1040
211.5291520538232
1040
153.05116379657909
1040
210.3791520538233
1070
     1
1040
153.05116379657909
1040
210.3791520538233
1040
154.85116379657899
1040
210.3791520538233
1070
     1
1040
154.85116379657899
1040
210.3791520538233
1040
154.8511637965791
1040
211.52915205382331
1070
     1
1040
154.8511637965791
1040
211.52915205382331
1040
155.35116379657899
1040
211.5291520538232
1070
     1
1040
155.35116379657899
1040
211.5291520538232
1040
155.3511637965789
1040
208.72915205382321
1070
     1
1040
155.3511637965789
1040
208.72915205382321
1040
154.85116379657879
1040
208.72915205382321
1070
     1
1040
154.85116379657879
1040
208.72915205382321
1040
154.85116379657899
1040
210.02915205382331
1070
     1
1040
154.85116379657899
1040
210.02915205382331
1040
153.05116379657889
1040
210.02915205382331
1070
     1
1040
153.05116379657889
1040
210.02915205382331
1040
153.05116379657889
1040
208.72915205382321
1070
     1
1040
153.05116379657889
1040
208.72915205382321
1040
152.551163796579
1040
208.72915205382321
1070
     1
1040
152.551163796579
1040
208.72915205382321
1040
152.55116379657909
1040
211.52915205382331
1070
     1
1040
152.55116379657909
1040
211.52915205382331
1040
153.0511637965792
1040
211.5291520538232
1071
        1
1005
1291
1071
        1
1071
        8
1070
     2
1040
146.97815913155179
1040
210.14966052839941
1040
1.420508474576099
1040
0.170131079936561
1040
2.9714615736525412
1070
     0
1070
     1
1040
145.5781591315519
1040
209.90915205382331
1040
145.57815913155181
1040
211.52915205382331
1070
     1
1040
145.57815913155181
1040
211.52915205382331
1040
146.0781591315519
1040
211.52915205382331
1070
     1
1040
146.0781591315519
1040
211.52915205382331
1040
146.0781591315519
1040
209.90915205382331
1070
     2
1040
146.97815913155191
1040
209.98210386105231
1040
0.9029518072289025
1040
3.2224733888050632
1040
6.2023045719643468
1070
     1
1070
     1
1040
147.87815913155191
1040
209.90915205382331
1040
147.8781591315518
1040
211.52915205382331
1070
     1
1040
147.8781591315518
1040
211.52915205382331
1040
148.3781591315518
1040
211.52915205382331
1070
     1
1040
148.3781591315518
1040
211.52915205382331
1040
148.3781591315518
1040
209.90915205382419
1071
        1
1005
12C6
1071
       16
1071
       11
1070
     1
1040
142.71813519677499
1040
210.1791520538232
1040
143.61813519677511
1040
210.1791520538232
1070
     2
1040
143.61813519677511
1040
211.6193380354529
1040
1.440185981629696
1040
4.7123889803846888
1040
4.9513870559215336
1070
     1
1070
     2
1040
143.7312598339438
1040
211.15505607885751
1040
0.962321022928365
1040
4.951387055921538
1040
5.2441130476435411
1070
     1
1070
     2
1040
143.90345043003319
1040
210.8623320655056
1040
0.6227080823998561
1040
5.2441130476435553
1040
5.669670806508365
1070
     1
1070
     2
1040
144.1635890585971
1040
210.6791520538232
1040
0.3045461381778983
1040
5.6696708065095054
1040
6.2831853071795862
1070
     1
1070
     2
1040
144.16358905859701
1040
210.6791520538232
1040
0.3045461381780683
1040
0.0
1040
0.6135145006699113
1070
     1
1070
     2
1040
143.90345043003299
1040
210.49597204214049
1040
0.6227080824002286
1040
0.6135145006715855
1040
1.039072259536072
1070
     1
1070
     2
1040
143.73125983394419
1040
210.20324802878949
1040
0.9623210229277011
1040
1.03907225953605
1040
1.331798251258123
1070
     1
1070
     2
1040
143.61813519677511
1040
209.73896607219459
1040
1.4401859816286731
1040
1.331798251257797
1040
1.5707963267948959
1070
     1
1070
     1
1040
143.61813519677511
1040
211.1791520538232
1040
142.71813519677499
1040
211.1791520538232
1070
     1
1040
142.71813519677499
1040
211.1791520538232
1040
142.71813519677499
1040
210.1791520538232
1071
        1
1005
12C7
1071
        1
1071
       13
1070
     1
1040
143.61813519677511
1040
211.5291520538232
1040
142.21813519677491
1040
211.5291520538232
1070
     1
1040
142.21813519677491
1040
211.5291520538232
1040
142.21813519677499
1040
208.72915205382321
1070
     1
1040
142.21813519677499
1040
208.72915205382321
1040
142.71813519677499
1040
208.72915205382321
1070
     1
1040
142.71813519677499
1040
208.72915205382321
1040
142.71813519677511
1040
209.82915205382349
1070
     1
1040
142.71813519677511
1040
209.82915205382349
1040
143.61813519677511
1040
209.82915205382349
1070
     2
1040
143.61813519677511
1040
211.96589937542191
1040
2.1367473215983348
1040
4.7123889803846888
1040
4.9675072969369927
1070
     1
1070
     2
1040
143.7836074880787
1040
211.33142248446521
1040
1.4810476919298901
1040
4.9675072969368932
1040
5.2743105426414392
1070
     1
1070
     2
1040
144.03582993251689
1040
210.93083389623959
1040
1.007669007898842
1040
5.2743105426414418
1040
5.7012984313819812
1070
     1
1070
     2
1040
144.4184015323392
1040
210.6791520538234
1040
0.549733664435821
1040
5.7012984313818826
1040
6.2831853071795862
1070
     1
1070
     2
1040
144.41840153234
1040
210.6791520538234
1040
0.5497336644350526
1040
0.0
1040
0.5818868757988702
1070
     1
1070
     2
1040
144.03582993251769
1040
210.42747021140829
1040
1.0076690078974431
1040
0.581886875797237
1040
1.008874764538132
1070
     1
1070
     2
1040
143.78360748807901
1040
210.02688162318211
1040
1.481047691929289
1040
1.0088747645381411
1040
1.315678010242805
1070
     1
1070
     2
1040
143.618135196775
1040
209.39240473222571
1040
2.136747321597511
1040
1.3156780102424359
1040
1.570796326794843
1070
     1
1071
        1
1005
12D4
1071
       33
1071
       49
1070
     1
1040
151.25698418272231
1040
210.7153518290454
1040
151.7719678800035
1040
210.7153518290454
1070
     2
1040
151.3934587745737
1040
210.82915205371739
1040
0.3952462954016483
1040
5.9911287465331569
1040
6.2831853074473738
1070
     1
1070
     2
1040
151.3934587745741
1040
210.82915205382321
1040
0.3952462954012219
1040
0.0
1040
0.6557100692756555
1070
     1
1070
     2
1040
150.96320000355411
1040
210.49817387700699
1040
0.9380806749022042
1040
0.655710069273907
1040
1.0768549578752971
1070
     1
1070
     2
1040
150.67701530411949
1040
209.96668800662829
1040
1.541718739144897
1040
1.0768549578753199
1040
1.351350058482413
1070
     1
1070
     2
1040
150.4887050699752
1040
209.12239163867781
1040
2.4067604151454982
1040
1.3513500584822611
1040
1.5707963267948959
1070
     1
1070
     2
1040
150.4887050699752
1040
209.1223916386769
1040
2.4067604151464081
1040
1.5707963267948959
1040
1.790242595107544
1070
     1
1070
     2
1040
150.3003948358313
1040
209.96668800662781
1040
1.5417187391454841
1040
1.7902425951076351
1040
2.0647376957144772
1070
     1
1070
     2
1040
150.01421013639779
1040
210.49817387700421
1040
0.9380806749052876
1040
2.0647376957144772
1040
2.4858825843147438
1070
     1
1070
     2
1040
149.58395136537769
1040
210.82915205382321
1040
0.3952462954025289
1040
2.4858825843166801
1040
3.1415926535897931
1070
     1
1070
     2
1040
149.58395136537791
1040
210.82915205382321
1040
0.3952462954027567
1040
3.1415926535897931
1040
3.797302722863185
1070
     1
1070
     2
1040
150.0142101364099
1040
211.16013023062709
1040
0.9380806749057356
1040
3.797302722844444
1040
4.0265223461331727
1070
     1
1070
     1
1040
149.42008245207089
1040
210.43417730699261
1040
150.93604808035019
1040
209.76186051553859
1070
     2
1040
150.61133009015541
1040
208.82587395676009
1040
0.9907131832019546
1040
5.0463225703502284
1040
5.1760365893856113
1070
     0
1070
     2
1040
150.79747521196541
1040
209.19816420037981
1040
0.5744800371551707
1040
5.1760365893854949
1040
5.5913494935359411
1070
     0
1070
     2
1040
151.07630221622779
1040
209.4291520538234
1040
0.2124028537474802
1040
5.5913494935383703
1040
6.2831853071795862
1070
     0
1070
     2
1040
151.0763022162277
1040
209.4291520538234
1040
0.2124028537475908
1040
6.2831853071795862
1040
6.9750211208214203
1070
     0
1070
     2
1040
150.79747521196529
1040
209.66013990726719
1040
0.5744800371554232
1040
0.6918358136441789
1040
1.10714871779409
1070
     0
1070
     2
1040
150.6113300901556
1040
210.03243015088651
1040
0.9907131832018645
1040
1.10714871779409
1040
1.3665767558667421
1070
     0
1070
     2
1040
150.4887050699752
1040
210.62451612449749
1040
1.5953640706741219
1040
1.366576755866697
1040
1.5707963267948959
1070
     0
1070
     2
1040
150.4887050699752
1040
210.62451612449749
1040
1.5953640706741219
1040
1.5707963267948959
1040
1.7750158977230961
1070
     0
1070
     2
1040
150.3660800497949
1040
210.03243015088651
1040
0.9907131832018638
1040
1.7750158977230499
1040
2.0344439357957018
1070
     0
1070
     2
1040
150.17993492798499
1040
209.6601399072668
1040
0.5744800371549799
1040
2.0344439357957018
1040
2.4497568399460019
1070
     0
1070
     2
1040
149.90110792372261
1040
209.4291520538234
1040
0.2124028537474214
1040
2.449756839947653
1040
3.1415926535897931
1070
     0
1070
     2
1040
149.90110792372229
1040
209.4291520538234
1040
0.2124028537471645
1040
3.1415926535895249
1040
3.7070184662770611
1070
     0
1070
     1
1040
149.7217633360691
1040
209.54295227860101
1040
149.20544225997861
1040
209.54295227860101
1070
     2
1040
149.58395136537791
1040
209.42915205382329
1040
0.3952462954027869
1040
2.8495360926650508
1040
3.1415926535897212
1070
     1
1070
     2
1040
149.58395136537769
1040
209.4291520538234
1040
0.3952462954025293
1040
3.1415926535897931
1040
3.7973027228629048
1070
     1
1070
     2
1040
150.01421013639779
1040
209.76013023064229
1040
0.9380806749052871
1040
3.7973027228648411
1040
4.218447611465109
1070
     1
1070
     2
1040
150.3003948358313
1040
210.2916161010188
1040
1.5417187391454821
1040
4.218447611465109
1040
4.4929427120719501
1070
     1
1070
     2
1040
150.4887050699752
1040
211.13591246896971
1040
2.4067604151464068
1040
4.4929427120720407
1040
4.7123889803846888
1070
     1
1070
     2
1040
150.4887050699752
1040
211.1359124689688
1040
2.4067604151454982
1040
4.7123889803846888
1040
4.9318352486973254
1070
     1
1070
     2
1040
150.67701530411949
1040
210.29161610101829
1040
1.541718739144901
1040
4.9318352486971717
1040
5.206330349304265
1070
     1
1070
     2
1040
150.96320000355411
1040
209.76013023063959
1040
0.9380806749021978
1040
5.2063303493042881
1040
5.6274752379056787
1070
     1
1070
     2
1040
151.3934587745741
1040
209.4291520538234
1040
0.3952462954012224
1040
5.6274752379039299
1040
6.2831853071795862
1070
     1
1070
     2
1040
151.3934587745737
1040
209.4291520538234
1040
0.3952462954016482
1040
0.0
1040
0.6557100692748223
1070
     1
1070
     2
1040
150.96320000355371
1040
209.0981738770061
1040
0.9380806749032387
1040
0.6557100692743965
1040
0.8849296925688804
1070
     1
1070
     1
1040
151.5573276878726
1040
209.82412680065389
1040
149.92301964502789
1040
210.5463093413486
1070
     2
1040
150.17993492798351
1040
211.06013990726771
1040
0.5744800371543953
1040
2.0344439357894628
1040
2.4497568399427241
1070
     0
1070
     2
1040
149.90110792372241
1040
210.82915205382321
1040
0.212402853747195
1040
2.449756839946422
1040
3.1415926535897931
1070
     0
1070
     2
1040
149.90110792372261
1040
210.82915205382321
1040
0.2124028537474203
1040
3.1415926535897931
1040
3.8334284672319332
1070
     0
1070
     2
1040
150.17993492798499
1040
210.59816420037981
1040
0.5744800371549799
1040
3.833428467233583
1040
4.2487413713838826
1070
     0
1070
     2
1040
150.3660800497949
1040
210.22587395676001
1040
0.9907131832018645
1040
4.2487413713838826
1040
4.508169409456535
1070
     0
1070
     2
1040
150.4887050699752
1040
209.63378798314909
1040
1.5953640706741219
1040
4.5081694094564888
1040
4.7123889803846888
1070
     0
1070
     2
1040
150.4887050699752
1040
209.63378798314909
1040
1.5953640706741219
1040
4.7123889803846888
1040
4.9166085513128879
1070
     0
1070
     2
1040
150.6113300901556
1040
210.22587395676001
1040
0.9907131832018638
1040
4.9166085513128426
1040
5.1760365893854949
1070
     0
1070
     2
1040
150.79747521196529
1040
210.59816420037939
1040
0.574480037155425
1040
5.1760365893854949
1040
5.5913494935354073
1070
     0
1070
     2
1040
151.0763022162277
1040
210.82915205382321
1040
0.212402853747589
1040
5.5913494935377521
1040
6.2831853071795862
1070
     0
1070
     2
1040
151.07630221622779
1040
210.82915205382321
1040
0.2124028537474487
1040
6.2831853071795862
1040
6.8490154277212794
1070
     0
1071
        1
1005
1292
1070
     0
1070
     1
1040
0.0
1040
2.0
1070
     0
1070
     1
1040
0.0
1040
-464.11241195431268
1040
17.27308937725206
1040
0.0625
1040
0.125
1070
     2
1040
0.0
1040
-0.125
1071
        1
1040
-464.11241195431268
1040
17.27308937725206
1040
0.0
1002
}
  0
POLYLINE
  5
1291
  8
3
 66
     1
 10
0.0
 20
0.0
 30
0.0
 70
   129
1001
ACAD
1000
ASC_BOUNDS
1002
{
1070
    19
1005
1290
1002
}
  0
VERTEX
  5
19E8
  8
3
 10
153.0511637965792
 20
211.5291520538232
 30
0.0
  0
VERTEX
  5
19E9
  8
3
 10
153.05116379657909
 20
210.3791520538233
 30
0.0
  0
VERTEX
  5
19EA
  8
3
 10
154.85116379657899
 20
210.3791520538233
 30
0.0
  0
VERTEX
  5
19EB
  8
3
 10
154.8511637965791
 20
211.52915205382331
 30
0.0
  0
VERTEX
  5
19EC
  8
3
 10
155.35116379657899
 20
211.5291520538232
 30
0.0
  0
VERTEX
  5
19ED
  8
3
 10
155.3511637965789
 20
208.72915205382321
 30
0.0
  0
VERTEX
  5
19EE
  8
3
 10
154.85116379657879
 20
208.72915205382321
 30
0.0
  0
VERTEX
  5
19EF
  8
3
 10
154.85116379657899
 20
210.02915205382331
 30
0.0
  0
VERTEX
  5
19F0
  8
3
 10
153.05116379657889
 20
210.02915205382331
 30
0.0
  0
VERTEX
  5
19F1
  8
3
 10
153.05116379657889
 20
208.72915205382321
 30
0.0
  0
VERTEX
  5
19F2
  8
3
 10
152.551163796579
 20
208.72915205382321
 30
0.0
  0
VERTEX
  5
19F3
  8
3
 10
152.55116379657909
 20
211.52915205382331
 30
0.0
  0
SEQEND
  5
19F4
  8
3
  0
POLYLINE
  5
1292
  8
3
 66
     1
 10
0.0
 20
0.0
 30
0.0
1001
ACAD
1000
ASC_BOUNDS
1002
{
1070
    19
1005
1290
1002
}
  0
VERTEX
  5
1293
  8
0
 10
151.25698418272231
 20
210.7153518290454
 30
0.0
  0
VERTEX
  5
1294
  8
0
 10
151.7719678800035
 20
210.7153518290454
 30
0.0
 42
0.0731441652054269
 50
28.300755766006681
  0
VERTEX
  5
1295
  8
0
 10
151.78870506997529
 20
210.82915205382321
 30
0.0
 42
0.1654118402241002
  0
VERTEX
  5
1296
  8
0
 10
151.7067369893133
 20
211.07014249802839
 30
0.0
 42
0.1056769941633883
  0
VERTEX
  5
1297
  8
0
 10
151.4079438855178
 20
211.32412680065389
 30
0.0
 42
0.068731699995536
 70
     2
 50
151.69924423399331
  0
VERTEX
  5
1298
  8
0
 10
151.01263082971431
 20
211.4714334633785
 30
0.0
 42
0.0549166740501718
 50
151.69924423399331
  0
VERTEX
  5
1299
  8
0
 10
150.4887050699752
 20
211.52915205382331
 30
0.0
 42
0.054916674050175
  0
VERTEX
  5
129A
  8
0
 10
149.96477931023591
 20
211.47143346337839
 30
0.0
 42
0.068731699995473
  0
VERTEX
  5
129B
  8
0
 10
149.5694662544326
 20
211.32412680065389
 30
0.0
 42
0.1056769941631037
 70
     2
 50
208.30075576600669
  0
VERTEX
  5
129C
  8
0
 10
149.27067315063681
 20
211.07014249802839
 30
0.0
 42
0.1654118402234486
 50
208.30075576600669
  0
VERTEX
  5
129D
  8
0
 10
149.18870506997521
 20
210.82915205382321
 30
0.0
 42
0.165411840223518
  0
VERTEX
  5
129E
  8
0
 10
149.27067315063701
 20
210.5881616096178
 30
0.0
 42
0.0573677152738729
  0
VERTEX
  5
129F
  8
0
 10
149.42008245207089
 20
210.43417730699261
 30
0.0
  0
VERTEX
  5
12A0
  8
0
 10
150.93604808035019
 20
209.76186051553859
 30
0.0
 42
-0.0324398768999721
  0
VERTEX
  5
12A1
  8
0
 10
151.05439049492449
 20
209.71199476629801
 30
0.0
 42
-0.1042029417663218
 70
     2
 50
333.43494882292202
  0
VERTEX
  5
12A2
  8
0
 10
151.23986858859629
 20
209.5646548733892
 30
0.0
 42
-0.1747045211885041
  0
VERTEX
  5
12A3
  8
0
 10
151.28870506997529
 20
209.4291520538234
 30
0.0
 42
-0.1747045211886798
  0
VERTEX
  5
12A4
  8
0
 10
151.23986858859621
 20
209.2936492342574
 30
0.0
 42
-0.1042029417661885
  0
VERTEX
  5
12A5
  8
0
 10
151.05439049492449
 20
209.14630934134871
 30
0.0
 42
-0.0649481016502815
 70
     2
 50
206.56505117707789
  0
VERTEX
  5
12A6
  8
0
 10
150.81224970608611
 20
209.06230442743399
 30
0.0
 42
-0.0510992989620986
  0
VERTEX
  5
12A7
  8
0
 10
150.4887050699752
 20
209.02915205382331
 30
0.0
 42
-0.0510992989620986
  0
VERTEX
  5
12A8
  8
0
 10
150.16516043386429
 20
209.06230442743399
 30
0.0
 42
-0.0649481016502818
  0
VERTEX
  5
12A9
  8
0
 10
149.92301964502599
 20
209.14630934134871
 30
0.0
 42
-0.1042029417662831
 70
     2
 50
153.434948822922
  0
VERTEX
  5
12AA
  8
0
 10
149.7375415513543
 20
209.2936492342574
 30
0.0
 42
-0.1747045211887488
  0
VERTEX
  5
12AB
  8
0
 10
149.68870506997521
 20
209.4291520538234
 30
0.0
 42
-0.1423055512875743
  0
VERTEX
  5
12AC
  8
0
 10
149.7217633360691
 20
209.54295227860101
 30
0.0
  0
VERTEX
  5
12AD
  8
0
 10
149.20544225997861
 20
209.54295227860101
 30
0.0
 42
0.0731441652080551
  0
VERTEX
  5
12AE
  8
0
 10
149.18870506997521
 20
209.4291520538234
 30
0.0
 42
0.1654118402234486
  0
VERTEX
  5
12AF
  8
0
 10
149.27067315063681
 20
209.18816160961819
 30
0.0
 42
0.1056769941631037
  0
VERTEX
  5
12B0
  8
0
 10
149.5694662544326
 20
208.93417730699281
 30
0.0
 42
0.068731699995473
 70
     2
 50
151.69924423399331
  0
VERTEX
  5
12B1
  8
0
 10
149.96477931023591
 20
208.78687064426811
 30
0.0
 42
0.054916674050175
  0
VERTEX
  5
12B2
  8
0
 10
150.4887050699752
 20
208.7291520538233
 30
0.0
 42
0.0549166740501718
  0
VERTEX
  5
12B3
  8
0
 10
151.01263082971431
 20
208.78687064426811
 30
0.0
 42
0.068731699995536
  0
VERTEX
  5
12B4
  8
0
 10
151.4079438855178
 20
208.93417730699281
 30
0.0
 42
0.1056769941633883
 70
     2
 50
208.30075576600669
  0
VERTEX
  5
12B5
  8
0
 10
151.7067369893133
 20
209.18816160961819
 30
0.0
 42
0.1654118402241002
  0
VERTEX
  5
12B6
  8
0
 10
151.78870506997529
 20
209.4291520538234
 30
0.0
 42
0.165411840223883
  0
VERTEX
  5
12B7
  8
0
 10
151.70673698931341
 20
209.6701424980285
 30
0.0
 42
0.0573677152753158
  0
VERTEX
  5
12B8
  8
0
 10
151.5573276878726
 20
209.82412680065389
 30
0.0
  0
VERTEX
  5
12B9
  8
0
 10
149.92301964502789
 20
210.5463093413486
 30
0.0
 42
-0.1042029417670304
 70
     2
 50
333.43494882292202
  0
VERTEX
  5
12BA
  8
0
 10
149.73754155135441
 20
210.69364923425721
 30
0.0
 42
-0.1747045211890624
  0
VERTEX
  5
12BB
  8
0
 10
149.68870506997521
 20
210.82915205382321
 30
0.0
 42
-0.1747045211887488
  0
VERTEX
  5
12BC
  8
0
 10
149.7375415513543
 20
210.96465487338921
 30
0.0
 42
-0.1042029417662831
 50
206.565051177078
  0
VERTEX
  5
12BD
  8
0
 10
149.92301964502599
 20
211.1119947662979
 30
0.0
 42
-0.0649481016502818
 70
     2
 50
206.565051177078
  0
VERTEX
  5
12BE
  8
0
 10
150.16516043386429
 20
211.19599968021259
 30
0.0
 42
-0.0510992989620986
  0
VERTEX
  5
12BF
  8
0
 10
150.4887050699752
 20
211.2291520538233
 30
0.0
 42
-0.0510992989620986
  0
VERTEX
  5
12C0
  8
0
 10
150.81224970608611
 20
211.19599968021259
 30
0.0
 42
-0.0649481016502815
 50
153.434948822922
  0
VERTEX
  5
12C1
  8
0
 10
151.05439049492449
 20
211.1119947662979
 30
0.0
 42
-0.1042029417661885
 70
     2
 50
153.434948822922
  0
VERTEX
  5
12C2
  8
0
 10
151.23986858859621
 20
210.96465487338921
 30
0.0
 42
-0.1747045211886798
  0
VERTEX
  5
12C3
  8
0
 10
151.28870506997529
 20
210.82915205382321
 30
0.0
 42
-0.1424086766312409
  0
VERTEX
  5
12C4
  8
0
 10
151.25560077889961
 20
210.71527932792321
 30
0.0
 50
26.565051177078029
  0
SEQEND
  5
12C5
  8
0
  6
CONTINUOUS
 62
     0
  0
POLYLINE
  5
12C6
  8
3
 66
     1
 10
0.0
 20
0.0
 30
0.0
 70
   129
1001
ACAD
1000
ASC_BOUNDS
1002
{
1070
    19
1005
1290
1002
}
  0
VERTEX
  5
19F5
  8
3
 10
148.3781591315518
 20
209.90915205382419
 30
0.0
 42
-0.8428571428574707
  0
VERTEX
  5
19F6
  8
3
 10
145.5781591315519
 20
209.90915205382331
 30
0.0
  0
VERTEX
  5
19F7
  8
3
 10
145.57815913155181
 20
211.52915205382331
 30
0.0
  0
VERTEX
  5
19F8
  8
3
 10
146.0781591315519
 20
211.52915205382331
 30
0.0
  0
VERTEX
  5
19F9
  8
3
 10
146.0781591315519
 20
209.90915205382331
 30
0.0
 42
0.9222222222221308
  0
VERTEX
  5
19FA
  8
3
 10
147.87815913155191
 20
209.90915205382331
 30
0.0
  0
VERTEX
  5
19FB
  8
3
 10
147.8781591315518
 20
211.52915205382331
 30
0.0
  0
VERTEX
  5
19FC
  8
3
 10
148.3781591315518
 20
211.52915205382331
 30
0.0
  0
SEQEND
  5
19FD
  8
3
  0
POLYLINE
  5
12C7
  8
3
 66
     1
 10
0.0
 20
0.0
 30
0.0
 70
     1
1001
ACAD
1000
ASC_BOUNDS
1002
{
1070
    19
1005
1290
1002
}
  0
VERTEX
  5
12C8
  8
0
 10
142.71813519677499
 20
210.1791520538232
 30
0.0
  0
VERTEX
  5
12C9
  8
0
 10
143.61813519677511
 20
210.1791520538232
 30
0.0
 42
0.0598207225921702
  0
VERTEX
  5
12CA
  8
0
 10
143.95906941607871
 20
210.22008840804881
 30
0.0
 42
0.0733124203438316
  0
VERTEX
  5
12CB
  8
0
 10
144.2191759607837
 20
210.32559866323001
 30
0.0
 42
0.1067926625741322
 70
     2
 50
30.46554491946257
  0
VERTEX
  5
12CC
  8
0
 10
144.41259500088199
 20
210.50381126853381
 30
0.0
 42
0.1545927959857233
 50
30.46554491946257
  0
VERTEX
  5
12CD
  8
0
 10
144.46813519677499
 20
210.6791520538232
 30
0.0
 42
0.1545927959856755
  0
VERTEX
  5
12CE
  8
0
 10
144.41259500088199
 20
210.85449283911271
 30
0.0
 42
0.1067926625740517
  0
VERTEX
  5
12CF
  8
0
 10
144.2191759607837
 20
211.03270544441651
 30
0.0
 42
0.0733124203438496
 70
     2
 50
149.53445508053741
  0
VERTEX
  5
12D0
  8
0
 10
143.95906941607879
 20
211.13821569959759
 30
0.0
 42
0.0598207225922329
 50
149.53445508053741
  0
VERTEX
  5
12D1
  8
0
 10
143.61813519677511
 20
211.1791520538232
 30
0.0
  0
VERTEX
  5
12D2
  8
0
 10
142.71813519677499
 20
211.1791520538232
 30
0.0
  0
SEQEND
  5
12D3
  8
0
  6
CONTINUOUS
 62
     0
  0
POLYLINE
  5
12D4
  8
3
 66
     1
 10
0.0
 20
0.0
 30
0.0
 70
     1
1001
ACAD
1000
ASC_BOUNDS
1002
{
1070
    19
1005
1290
1002
}
  0
VERTEX
  5
12D5
  8
0
 10
143.61813519677511
 20
211.5291520538232
 30
0.0
  0
VERTEX
  5
12D6
  8
0
 10
142.21813519677491
 20
211.5291520538232
 30
0.0
  0
VERTEX
  5
12D7
  8
0
 10
142.21813519677499
 20
208.72915205382321
 30
0.0
  0
VERTEX
  5
12D8
  8
0
 10
142.71813519677499
 20
208.72915205382321
 30
0.0
  0
VERTEX
  5
12D9
  8
0
 10
142.71813519677511
 20
209.82915205382349
 30
0.0
  0
VERTEX
  5
12DA
  8
0
 10
143.61813519677511
 20
209.82915205382349
 30
0.0
 42
0.0638662016826598
  0
VERTEX
  5
12DB
  8
0
 10
144.1573645317377
 20
209.89831120543411
 30
0.0
 42
0.0768515768794634
  0
VERTEX
  5
12DC
  8
0
 10
144.57272935137689
 20
210.0781112898149
 30
0.0
 42
0.1071542864067526
 70
     2
 50
32.1957339347097
  0
VERTEX
  5
12DD
  8
0
 10
144.8776639380074
 20
210.37701773840411
 30
0.0
 42
0.1465066387553817
 50
32.1957339347097
  0
VERTEX
  5
12DE
  8
0
 10
144.96813519677499
 20
210.6791520538234
 30
0.0
 42
0.1465066387556817
  0
VERTEX
  5
12DF
  8
0
 10
144.8776639380072
 20
210.98128636924281
 30
0.0
 42
0.107154286406845
  0
VERTEX
  5
12E0
  8
0
 10
144.57272935137689
 20
211.28019281783179
 30
0.0
 42
0.0768515768794924
 70
     2
 50
147.80426606529031
  0
VERTEX
  5
12E1
  8
0
 10
144.1573645317377
 20
211.4599929022126
 30
0.0
 42
0.0638662016826858
 50
147.80426606529031
  0
SEQEND
  5
12E2
  8
0
  6
CONTINUOUS
 62
     0
  0
POLYLINE
  5
12E3
  8
3
 66
     1
 10
0.0
 20
0.0
 30
0.0
 70
   128
  0
VERTEX
  5
19FE
  8
3
 10
142.21813519677491
 20
211.5291520538232
 30
0.0
  0
VERTEX
  5
19FF
  8
3
 10
142.21813519677491
 20
211.5291520538232
 30
0.0
  0
SEQEND
  5
1A00
  8
3
  0
ARC
  5
12E4
  8
3
 10
127.86608938159441
 20
194.62915205382311
 30
0.0
 40
11.0
 50
90.0
 51
119.1627065961716
  0
ARC
  5
12E5
  8
3
 10
127.86608938159441
 20
225.62915205382319
 30
0.0
 40
11.0
 50
240.8372934038284
 51
270.0
  0
ARC
  5
12E6
  8
3
 10
119.21666743559121
 20
210.12915205382319
 30
0.0
 40
6.75
 50
60.837293403828362
 51
299.16270659617157
  0
ARC
  5
12E7
  8
0
 10
127.86608938159441
 20
194.62915205382311
 30
0.0
 40
10.0
 50
90.0
 51
119.1627065961716
  0
ARC
  5
12E8
  8
0
 10
127.86608938159441
 20
225.62915205382319
 30
0.0
 40
10.0
 50
240.8372934038284
 51
270.0
  0
ARC
  5
12E9
  8
0
 10
119.21666743559121
 20
210.12915205382319
 30
0.0
 40
7.75
 50
60.837293403828362
 51
299.16270659617157
  0
CIRCLE
  5
12EA
  8
0
 10
136.78528435436229
 20
210.1291520538233
 30
0.0
 40
0.7
  0
CIRCLE
  5
12EB
  8
0
 10
132.44930778799471
 20
210.12915205382319
 30
0.0
 40
0.7
  0
CIRCLE
  5
12EC
  8
0
 10
134.5311810559997
 20
210.1291520538233
 30
0.0
 40
0.7
  0
CIRCLE
  5
12ED
  8
0
 10
128.0110074798832
 20
210.07217172835561
 30
0.0
 40
0.7
  0
CIRCLE
  5
12EE
  8
0
 10
130.1566046733144
 20
210.07217172835561
 30
0.0
 40
0.7
  0
ARC
  5
12EF
  8
3
 10
111.44680051646139
 20
210.12915205382319
 30
0.0
 40
14.48250673635196
 50
340.40996929184388
 51
19.590030708156061
  0
LINE
  5
12F0
  8
1
 10
106.46666743559121
 20
210.12915205382319
 30
0.0
 11
168.2166674355914
 21
210.1291520538233
 31
0.0
  0
CIRCLE
  5
12F1
  8
0
 10
119.21666743559121
 20
210.12915205382319
 30
0.0
 40
4.0
  0
LINE
  5
12F2
  8
1
 10
119.2166674355914
 20
197.37915205382319
 30
0.0
 11
119.2166674355914
 21
222.8791520538233
 31
0.0
  0
LINE
  5
12F3
  8
0
 10
120.7166674343699
 20
210.99517745690329
 30
0.0
 11
120.7166674343699
 21
209.26312664933451
 31
0.0
  0
LINE
  5
12F4
  8
0
 10
120.7166674343685
 20
209.26312665074349
 30
0.0
 11
119.2166674343699
 21
208.39710124695881
 31
0.0
  0
LINE
  5
12F5
  8
0
 10
119.21666743559091
 20
208.39710124766481
 30
0.0
 11
117.71666743559091
 21
209.26312665144891
 31
0.0
  0
LINE
  5
12F6
  8
0
 10
117.7166674368119
 20
209.26312665074431
 30
0.0
 11
117.7166674368119
 21
210.99517745831309
 31
0.0
  0
LINE
  5
12F7
  8
0
 10
117.7166674368119
 20
210.99517745690321
 30
0.0
 11
119.2166674368119
 21
211.8612028606878
 31
0.0
  0
LINE
  5
12F8
  8
0
 10
119.21666743559091
 20
211.8612028599818
 30
0.0
 11
120.71666743559091
 21
210.99517745619769
 31
0.0
  0
LINE
  5
12F9
  8
0
 10
127.86608938159441
 20
204.62915205382319
 30
0.0
 11
157.71666743559121
 21
204.6291520538233
 31
0.0
  0
ARC
  5
12FA
  8
0
 10
157.71666743559121
 20
210.12915205382379
 30
0.0
 40
5.5
 50
270.0
 51
90.0
  0
LINE
  5
12FB
  8
0
 10
127.86608938159441
 20
215.62915205382319
 30
0.0
 11
157.71666743559121
 21
215.62915205382319
 31
0.0
  0
ARC
  5
12FC
  8
3
 10
157.71666743559121
 20
210.12915205382379
 30
0.0
 40
4.5
 50
270.0
 51
90.0
  0
LINE
  5
12FD
  8
3
 10
127.86608938159441
 20
214.62915205382319
 30
0.0
 11
157.71666743559121
 21
214.62915205382311
 31
0.0
  0
LINE
  5
12FE
  8
3
 10
127.86608938159441
 20
205.62915205382319
 30
0.0
 11
157.71666743559121
 21
205.6291520538233
 31
0.0
  0
CIRCLE
  5
136E
  8
0
 10
119.2166674355914
 20
72.164441663135051
 30
0.0
 40
2.458499999999999
  0
CIRCLE
  5
136F
  8
3
 10
119.2166674355914
 20
72.164441663135051
 30
0.0
 40
3.0
  0
LINE
  5
1370
  8
2
 10
196.75816743559119
 20
124.3142382391828
 30
0.0
 11
201.67516743559111
 21
124.3142382391828
 31
0.0
  0
LINE
  5
1371
  8
2
 10
201.67516743559111
 20
124.3142382391828
 30
0.0
 11
202.67516743559111
 21
123.3142382391828
 31
0.0
  0
LINE
  5
1372
  8
2
 10
195.75816743559119
 20
123.3142382391828
 30
0.0
 11
196.75816743559119
 21
124.3142382391828
 31
0.0
  0
LINE
  5
1373
  8
2
 10
196.75816743559119
 20
124.3142382391828
 30
0.0
 11
196.75816743559119
 21
133.3142382391828
 31
0.0
  0
LINE
  5
1374
  8
2
 10
196.21666743559109
 20
123.7727382391829
 30
0.0
 11
196.21666743559109
 21
133.3142382391828
 31
0.0
  0
LINE
  5
1375
  8
2
 10
196.21666743559109
 20
133.3142382391828
 30
0.0
 11
202.2166674355914
 21
133.31423823918271
 31
0.0
  0
LINE
  5
1376
  8
2
 10
202.21666743559109
 20
123.7727382391829
 30
0.0
 11
202.2166674355914
 21
133.3142382391828
 31
0.0
  0
LINE
  5
1377
  8
2
 10
201.67516743559111
 20
124.3142382391828
 30
0.0
 11
201.67516743559111
 21
133.3142382391828
 31
0.0
  0
LINE
  5
1378
  8
2
 10
55.758167435591297
 20
123.3142382391822
 30
0.0
 11
56.758167435591297
 21
124.3142382391822
 31
0.0
  0
LINE
  5
1379
  8
2
 10
61.67516743559144
 20
124.3142382391822
 30
0.0
 11
62.675167435591447
 21
123.3142382391822
 31
0.0
  0
LINE
  5
137A
  8
2
 10
56.758167435591297
 20
124.3142382391822
 30
0.0
 11
61.67516743559144
 21
124.3142382391822
 31
0.0
  0
LINE
  5
137B
  8
2
 10
56.216667435591383
 20
123.7727382391823
 30
0.0
 11
56.216667435591383
 21
133.3142382391822
 31
0.0
  0
LINE
  5
137C
  8
2
 10
56.758167435591297
 20
124.3142382391822
 30
0.0
 11
56.758167435591297
 21
133.3142382391822
 31
0.0
  0
LINE
  5
137D
  8
2
 10
61.67516743559144
 20
124.3142382391822
 30
0.0
 11
61.675167435591327
 21
133.3142382391822
 31
0.0
  0
LINE
  5
137E
  8
2
 10
62.216667435591368
 20
123.7727382391823
 30
0.0
 11
62.216667435591489
 21
133.3142382391822
 31
0.0
  0
LINE
  5
137F
  8
2
 10
56.216667435591383
 20
133.3142382391822
 30
0.0
 11
62.216667435591489
 21
133.31423823918209
 31
0.0
  0
LINE
  5
1380
  8
2
 10
116.2166674355915
 20
133.314238239182
 30
0.0
 11
122.2166674355916
 21
133.31423823918189
 31
0.0
  0
LINE
  5
1381
  8
2
 10
116.7581674355914
 20
124.3142382391819
 30
0.0
 11
121.6751674355915
 21
124.3142382391819
 31
0.0
  0
LINE
  5
1382
  8
2
 10
121.6751674355915
 20
124.3142382391819
 30
0.0
 11
122.6751674355915
 21
123.3142382391819
 31
0.0
  0
LINE
  5
1383
  8
2
 10
115.7581674355914
 20
123.3142382391819
 30
0.0
 11
116.7581674355914
 21
124.314238239182
 31
0.0
  0
LINE
  5
1384
  8
2
 10
122.2166674355915
 20
123.772738239182
 30
0.0
 11
122.2166674355916
 21
133.314238239182
 31
0.0
  0
LINE
  5
1385
  8
2
 10
121.6751674355915
 20
124.3142382391819
 30
0.0
 11
121.6751674355914
 21
133.314238239182
 31
0.0
  0
LINE
  5
1386
  8
2
 10
116.7581674355914
 20
124.3142382391819
 30
0.0
 11
116.7581674355914
 21
133.314238239182
 31
0.0
  0
LINE
  5
1387
  8
2
 10
116.2166674355915
 20
123.772738239182
 30
0.0
 11
116.2166674355915
 21
133.314238239182
 31
0.0
  0
LINE
  5
13A2
  8
3
 10
194.000947203409
 20
128.3142382391822
 30
0.0
 11
194.000947203409
 21
123.3142382391822
 31
0.0
  0
LINE
  5
13A3
  8
3
 10
194.75854241417451
 20
128.3142382391822
 30
0.0
 11
194.75854241417451
 21
123.3142382391822
 31
0.0
  0
LINE
  5
13A4
  8
3
 10
195.58945306788709
 20
128.3142382391822
 30
0.0
 11
195.58945306788709
 21
123.3142382391822
 31
0.0
  0
LINE
  5
13A5
  8
3
 10
196.59143308847709
 20
128.3142382391822
 30
0.0
 11
196.59143308847709
 21
123.3142382391821
 31
0.0
  0
LINE
  5
13A6
  8
3
 10
197.59341310906669
 20
128.3142382391822
 30
0.0
 11
197.5934131090672
 21
123.3142382391821
 31
0.0
  0
LINE
  5
13A7
  8
3
 10
198.54651616769129
 20
128.3142382391822
 30
0.0
 11
198.54651616769129
 21
123.3142382391821
 31
0.0
  0
LINE
  5
13A8
  8
3
 10
202.8438818032956
 20
128.3142382391822
 30
0.0
 11
202.8438818032954
 21
123.3142382391821
 31
0.0
  0
LINE
  5
13A9
  8
3
 10
203.67479245700829
 20
128.3142382391822
 30
0.0
 11
203.67479245700829
 21
123.3142382391821
 31
0.0
  0
LINE
  5
13AA
  8
3
 10
204.4323876677737
 20
128.3142382391822
 30
0.0
 11
204.4323876677737
 21
123.3142382391821
 31
0.0
  0
LINE
  5
13AB
  8
3
 10
199.88681870349151
 20
128.3142382391822
 30
0.0
 11
199.88681870349151
 21
123.3142382391821
 31
0.0
  0
LINE
  5
13AC
  8
3
 10
200.83992176211601
 20
128.3142382391822
 30
0.0
 11
200.83992176211601
 21
123.3142382391821
 31
0.0
  0
LINE
  5
13AD
  8
3
 10
201.84190178270561
 20
128.3142382391822
 30
0.0
 11
201.84190178270561
 21
123.3142382391821
 31
0.0
  0
LINE
  5
13AE
  8
3
 10
118.54651616769149
 20
128.31423823918209
 30
0.0
 11
118.54651616769149
 21
123.3142382391819
 31
0.0
  0
LINE
  5
13AF
  8
3
 10
117.593413109067
 20
128.31423823918209
 30
0.0
 11
117.5934131090673
 21
123.314238239182
 31
0.0
  0
LINE
  5
13B0
  8
3
 10
116.5914330884774
 20
128.31423823918209
 30
0.0
 11
116.5914330884774
 21
123.314238239182
 31
0.0
  0
LINE
  5
13B1
  8
3
 10
115.58945306788731
 20
128.31423823918209
 30
0.0
 11
115.58945306788721
 21
123.314238239182
 31
0.0
  0
LINE
  5
13B2
  8
3
 10
114.7585424141747
 20
128.31423823918209
 30
0.0
 11
114.7585424141747
 21
123.314238239182
 31
0.0
  0
LINE
  5
13B3
  8
3
 10
114.0009472034092
 20
128.31423823918209
 30
0.0
 11
114.0009472034092
 21
123.314238239182
 31
0.0
  0
LINE
  5
13B4
  8
3
 10
121.84190178270551
 20
128.31423823918209
 30
0.0
 11
121.8419017827057
 21
123.3142382391819
 31
0.0
  0
LINE
  5
13B5
  8
3
 10
120.83992176211591
 20
128.31423823918209
 30
0.0
 11
120.83992176211591
 21
123.3142382391819
 31
0.0
  0
LINE
  5
13B6
  8
3
 10
119.8868187034915
 20
128.31423823918209
 30
0.0
 11
119.8868187034915
 21
123.3142382391819
 31
0.0
  0
LINE
  5
13B7
  8
3
 10
124.4323876677737
 20
128.31423823918209
 30
0.0
 11
124.4323876677737
 21
123.3142382391819
 31
0.0
  0
LINE
  5
13B8
  8
3
 10
123.67479245700819
 20
128.31423823918209
 30
0.0
 11
123.67479245700819
 21
123.3142382391819
 31
0.0
  0
LINE
  5
13B9
  8
3
 10
122.8438818032956
 20
128.31423823918209
 30
0.0
 11
122.8438818032955
 21
123.3142382391819
 31
0.0
  0
ARC
  5
13BA
  8
0
 10
127.9666674355915
 20
70.164441663135051
 30
0.0
 40
1.0
 50
180.0000000000008
 51
270.0
  0
ARC
  5
13BB
  8
0
 10
127.9666674355913
 20
74.164441663135051
 30
0.0
 40
1.0
 50
90.0
 51
180.0
  0
LINE
  5
13BC
  8
0
 10
126.9666674355915
 20
70.164441663135051
 30
0.0
 11
126.9666674355913
 21
74.164441663135051
 31
0.0
  0
CIRCLE
  5
13BD
  8
0
 10
119.2166674355914
 20
72.164441663135051
 30
0.0
 40
5.9999999999998863
  0
CIRCLE
  5
13BE
  8
0
 10
119.2166674355914
 20
72.164441663135051
 30
0.0
 40
7.7500000000000142
  0
ARC
  5
13BF
  8
0
 10
127.86608938159419
 20
87.664441663134994
 30
0.0
 40
10.0
 50
240.8372934038284
 51
270.0
  0
ARC
  5
13C0
  8
0
 10
127.86608938159419
 20
56.664441663135001
 30
0.0
 40
10.0
 50
90.0
 51
119.1627065961716
  0
LINE
  5
13C1
  8
0
 10
53.716667435591262
 20
156.85294136675489
 30
0.0
 11
53.716667435591383
 21
154.14273891183379
 31
0.0
  0
ARC
  5
13C2
  8
0
 10
55.716667435591383
 20
156.85294136675489
 30
0.0
 40
2.0
 50
104.7867808085564
 51
180.0000000000008
  0
LINE
  5
13C3
  8
0
 10
64.716667435591376
 20
156.85294136675489
 30
0.0
 11
64.716667435591262
 21
154.1427389118397
 31
0.0
  0
ARC
  5
13C4
  8
0
 10
59.216667435590473
 20
143.80621798227531
 30
0.0
 40
15.508020256906979
 50
75.012719856152685
 51
104.98728014384059
  0
ARC
  5
13C5
  8
0
 10
62.716667435591368
 20
156.85294136675489
 30
0.0
 40
2.0
 50
359.9999999999992
 51
75.213219191443613
  0
LINE
  5
13C6
  8
0
 10
53.216667435591482
 20
132.3142382391824
 30
0.0
 11
53.216667435591603
 21
123.8142382391824
 31
0.0
  0
LINE
  5
13C7
  8
3
 10
62.843881803295517
 20
128.3142382391824
 30
0.0
 11
62.843881803295403
 21
123.3142382391823
 31
0.0
  0
LINE
  5
13C8
  8
3
 10
63.674792457008152
 20
128.3142382391824
 30
0.0
 11
63.674792457008152
 21
123.3142382391823
 31
0.0
  0
LINE
  5
13C9
  8
3
 10
64.432387667773583
 20
128.3142382391824
 30
0.0
 11
64.432387667773583
 21
123.3142382391823
 31
0.0
  0
LINE
  5
13CA
  8
0
 10
53.716667435591383
 20
123.3142382391824
 30
0.0
 11
53.216667435591383
 21
123.8142382391824
 31
0.0
  0
LINE
  5
13CB
  8
3
 10
54.000947203409162
 20
128.3142382391824
 30
0.0
 11
54.000947203409162
 21
123.3142382391823
 31
0.0
  0
LINE
  5
13CC
  8
3
 10
54.758542414174599
 20
128.3142382391824
 30
0.0
 11
54.758542414174599
 21
123.3142382391823
 31
0.0
  0
LINE
  5
13CD
  8
3
 10
55.589453067887227
 20
128.3142382391824
 30
0.0
 11
55.589453067887121
 21
123.3142382391823
 31
0.0
  0
LINE
  5
13CE
  8
3
 10
56.591433088477281
 20
128.3142382391824
 30
0.0
 11
56.591433088477281
 21
123.3142382391823
 31
0.0
  0
LINE
  5
13CF
  8
3
 10
57.59341310906688
 20
128.3142382391824
 30
0.0
 11
57.593413109067228
 21
123.3142382391823
 31
0.0
  0
LINE
  5
13D0
  8
3
 10
58.546516167691379
 20
128.3142382391824
 30
0.0
 11
58.546516167691379
 21
123.3142382391823
 31
0.0
  0
LINE
  5
13D1
  8
3
 10
59.886818703491372
 20
128.3142382391824
 30
0.0
 11
59.886818703491372
 21
123.3142382391823
 31
0.0
  0
LINE
  5
13D2
  8
3
 10
60.839921762115857
 20
128.3142382391824
 30
0.0
 11
60.839921762115857
 21
123.3142382391823
 31
0.0
  0
LINE
  5
13D3
  8
3
 10
61.841901782705463
 20
128.3142382391824
 30
0.0
 11
61.841901782705577
 21
123.3142382391823
 31
0.0
  0
LINE
  5
13D4
  8
0
 10
53.216667435591603
 20
128.3142382391824
 30
0.0
 11
65.216667435591376
 21
128.3142382391824
 31
0.0
  0
LINE
  5
13D5
  8
0
 10
53.716667435591383
 20
123.3142382391823
 30
0.0
 11
64.716667435591376
 21
123.3142382391823
 31
0.0
  0
LINE
  5
13D6
  8
0
 10
64.716667435591603
 20
123.3142382391824
 30
0.0
 11
65.216667435591603
 21
123.8142382391824
 31
0.0
  0
LINE
  5
13D7
  8
0
 10
65.216667435591489
 20
132.3142382391824
 30
0.0
 11
65.216667435591376
 21
123.8142382391824
 31
0.0
  0
LINE
  5
13D8
  8
0
 10
193.21666743559089
 20
132.31423823918249
 30
0.0
 11
193.21666743559109
 21
123.8142382391825
 31
0.0
  0
LINE
  5
13D9
  8
0
 10
193.71666743559089
 20
123.3142382391825
 30
0.0
 11
193.21666743559089
 21
123.8142382391825
 31
0.0
  0
LINE
  5
13DA
  8
0
 10
193.21666743559109
 20
128.31423823918249
 30
0.0
 11
205.21666743559089
 21
128.31423823918249
 31
0.0
  0
LINE
  5
13DB
  8
0
 10
193.71666743559089
 20
123.3142382391824
 30
0.0
 11
204.71666743559089
 21
123.3142382391823
 31
0.0
  0
LINE
  5
13DC
  8
0
 10
204.71666743559109
 20
123.3142382391825
 30
0.0
 11
205.21666743559121
 21
123.8142382391825
 31
0.0
  0
LINE
  5
13DD
  8
0
 10
205.21666743559089
 20
132.31423823918249
 30
0.0
 11
205.21666743559089
 21
123.8142382391825
 31
0.0
  0
LINE
  5
13DE
  8
0
 10
125.2166674355914
 20
132.31423823918209
 30
0.0
 11
125.21666743559121
 21
123.8142382391821
 31
0.0
  0
LINE
  5
13DF
  8
0
 10
124.7166674355915
 20
123.3142382391821
 30
0.0
 11
125.2166674355915
 21
123.8142382391821
 31
0.0
  0
LINE
  5
13E0
  8
0
 10
193.71666743559129
 20
151.31423823918249
 30
0.0
 11
192.96661032018761
 21
151.31423823918249
 31
0.0
  0
LINE
  5
13E1
  8
0
 10
191.91666675212571
 20
132.31423823918249
 30
0.0
 11
206.51666811905659
 21
132.31423823918249
 31
0.0
  0
ARC
  5
13E2
  8
0
 10
191.91666675212571
 20
132.6142382391825
 30
0.0
 40
0.3
 50
180.49999999999969
 51
270.0
  0
ARC
  5
13E3
  8
0
 10
206.51666811905659
 20
132.6142382391825
 30
0.0
 40
0.3
 50
270.0
 51
359.50000000000028
  0
LINE
  5
13E4
  8
0
 10
205.4667245509946
 20
151.31423823918249
 30
0.0
 11
204.7166674355914
 21
151.31423823918249
 31
0.0
  0
ARC
  5
13E5
  8
0
 10
205.4667245509946
 20
149.8142382391826
 30
0.0
 40
1.5
 50
359.50000000000028
 51
90.0
  0
LINE
  5
13E6
  8
0
 10
206.96666743559089
 20
149.801148435935
 30
0.0
 11
206.81665669597589
 21
132.611620278533
 31
0.0
  0
ARC
  5
13E7
  8
0
 10
192.96661032018761
 20
149.8142382391826
 30
0.0
 40
1.5
 50
90.0
 51
180.49999999999969
  0
LINE
  5
13E8
  8
0
 10
191.46666743559129
 20
149.801148435935
 30
0.0
 11
191.6166781752064
 21
132.611620278533
 31
0.0
  0
ARC
  5
13E9
  8
0
 10
66.516668119056817
 20
132.6142382391821
 30
0.0
 40
0.3
 50
270.0
 51
359.50000000000028
  0
LINE
  5
13EA
  8
0
 10
66.966667435591262
 20
149.80114843593461
 30
0.0
 11
66.816656695976121
 21
132.6116202785326
 31
0.0
  0
ARC
  5
13EB
  8
0
 10
65.466724550994954
 20
149.8142382391822
 30
0.0
 40
1.5
 50
359.50000000000028
 51
90.0
  0
ARC
  5
13EC
  8
0
 10
51.916666752125927
 20
132.6142382391821
 30
0.0
 40
0.3
 50
180.49999999999969
 51
270.0
  0
LINE
  5
13ED
  8
0
 10
51.466667435591489
 20
149.80114843593461
 30
0.0
 11
51.61667817520663
 21
132.6116202785326
 31
0.0
  0
ARC
  5
13EE
  8
0
 10
52.96661032018779
 20
149.8142382391822
 30
0.0
 40
1.5
 50
90.0
 51
180.49999999999969
  0
ARC
  5
13EF
  8
0
 10
136.35127298485941
 20
136.5368022613454
 30
0.0
 40
9.5
 50
123.5546371145798
 51
179.49999999999949
  0
ARC
  5
13F0
  8
0
 10
126.5166681190569
 20
132.6142382391821
 30
0.0
 40
0.3
 50
270.0
 51
359.50000000000028
  0
LINE
  5
13F1
  8
0
 10
126.8516347157498
 20
136.61970434857989
 30
0.0
 11
126.81665669597621
 21
132.6116202785326
 31
0.0
  0
ARC
  5
13F2
  8
0
 10
111.91666675212581
 20
132.6142382391821
 30
0.0
 40
0.3
 50
180.49999999999969
 51
270.0
  0
ARC
  5
13F3
  8
0
 10
112.9666103201876
 20
149.81423823918209
 30
0.0
 40
1.5
 50
90.0
 51
180.49999999999969
  0
LINE
  5
13F4
  8
0
 10
111.4666674355913
 20
149.80114843593449
 30
0.0
 11
111.6166781752065
 21
132.6116202785326
 31
0.0
  0
LINE
  5
13F5
  8
0
 10
113.71666743559121
 20
123.314238239182
 30
0.0
 11
124.71666743559121
 21
123.3142382391819
 31
0.0
  0
ARC
  5
13F6
  8
0
 10
156.8918146319709
 20
156.8182143218159
 30
0.0
 40
6.3244528036205443
 50
308.32142454088768
 51
0.5367721614574571
  0
ARC
  5
13F7
  8
0
 10
153.2808481453302
 20
146.32435939788911
 30
0.0
 40
7.0700000000000003
 50
51.565630368707808
 51
102.86485555742659
  0
ARC
  5
13F8
  8
0
 10
167.39184046321731
 20
87.724408802871906
 30
0.0
 40
67.34455088556183
 50
103.4683897250671
 51
122.6083261623718
  0
ARC
  5
13F9
  8
0
 10
119.9236674355912
 20
157.87923823918209
 30
0.0
 40
6.5650000000000004
 50
270.0
 51
325.30871213972551
  0
LINE
  5
13FA
  8
0
 10
115.2166674355914
 20
151.31423823918209
 30
0.0
 11
115.2166674355914
 21
151.51423823918191
 31
0.0
  0
LINE
  5
13FB
  8
1
 10
119.21666743559111
 20
118.31423823917829
 30
0.0
 11
119.21666743559121
 21
157.314238239182
 31
0.0
  0
LINE
  5
13FC
  8
0
 10
113.2166674355915
 20
128.31423823918209
 30
0.0
 11
125.21666743559121
 21
128.31423823918209
 31
0.0
  0
LINE
  5
13FD
  8
0
 10
111.91666675212581
 20
132.31423823918209
 30
0.0
 11
126.5166681190569
 21
132.31423823918209
 31
0.0
  0
LINE
  5
13FE
  8
0
 10
113.71666743559121
 20
123.3142382391821
 30
0.0
 11
113.21666743559121
 21
123.8142382391821
 31
0.0
  0
LINE
  5
13FF
  8
0
 10
119.9236674355912
 20
151.31423823918209
 30
0.0
 11
112.9666103201876
 21
151.31423823918209
 31
0.0
  0
ARC
  5
1400
  8
0
 10
159.24837880819891
 20
153.84423823918189
 30
0.0
 40
2.5299999999999989
 50
231.5656303687083
 51
308.21387582314372
  0
LINE
  5
1401
  8
0
 10
122.41666743559129
 20
152.314238239182
 30
0.0
 11
116.0166674355913
 21
152.314238239182
 31
0.0
  0
ARC
  5
1402
  8
0
 10
116.0166674355913
 20
151.51423823918191
 30
0.0
 40
0.8
 50
90.0
 51
180.0
  0
ARC
  5
1403
  8
0
 10
159.7920860611315
 20
42.188661772781643
 30
0.0
 40
117.14063778000531
 50
90.918797737773872
 51
107.1135122987472
  0
ARC
  5
1404
  8
0
 10
122.41666743559129
 20
151.51423823918191
 30
0.0
 40
0.8
 50
44.363387169531201
 51
90.0
  0
ARC
  5
1405
  8
0
 10
160.8031878664504
 20
156.93628367561999
 30
0.0
 40
2.4135188878910618
 50
358.60350426926368
 51
80.151858018774064
  0
LINE
  5
1406
  8
0
 10
157.913693950896
 20
159.314238239182
 30
0.0
 11
161.2159898962924
 21
159.314238239182
 31
0.0
  0
LINE
  5
1407
  8
0
 10
113.2166674355914
 20
132.31423823918209
 30
0.0
 11
113.2166674355915
 21
123.8142382391821
 31
0.0
  0
LINE
  5
1408
  8
0
 10
127.9666674355913
 20
75.164441663135023
 30
0.0
 11
156.21666743559129
 21
75.164441663134994
 31
0.0
  0
LINE
  5
1409
  8
0
 10
127.9666674355915
 20
69.164441663135051
 30
0.0
 11
156.21666743559121
 21
69.164441663134994
 31
0.0
  0
LINE
  5
140A
  8
0
 10
157.21666743559121
 20
70.164441663134994
 30
0.0
 11
157.21666743559129
 21
74.164441663134994
 31
0.0
  0
ARC
  5
140B
  8
0
 10
156.21666743559129
 20
74.164441663134994
 30
0.0
 40
1.0
 50
0.0
 51
90.0
  0
ARC
  5
140C
  8
0
 10
156.21666743559121
 20
70.164441663134994
 30
0.0
 40
1.0
 50
270.0
 51
359.9999999999992
  0
LINE
  5
140D
  8
1
 10
59.21666743559171
 20
164.3142382391824
 30
0.0
 11
59.216667435591042
 21
118.31423823917871
 31
0.0
  0
ARC
  5
140E
  8
0
 10
56.01666743559133
 20
151.51423823918219
 30
0.0
 40
0.8
 50
90.0
 51
180.0
  0
LINE
  5
140F
  8
0
 10
62.416667435591421
 20
152.31423823918229
 30
0.0
 11
56.01666743559133
 21
152.31423823918229
 31
0.0
  0
LINE
  5
1410
  8
0
 10
65.466724550994954
 20
151.31423823918209
 30
0.0
 11
52.96661032018779
 21
151.31423823918209
 31
0.0
  0
LINE
  5
1411
  8
0
 10
51.916666752125927
 20
132.31423823918209
 30
0.0
 11
66.516668119056817
 21
132.31423823918209
 31
0.0
  0
LINE
  5
1412
  8
0
 10
55.216667435591262
 20
151.31423823918209
 30
0.0
 11
55.216667435591368
 21
151.51423823918219
 31
0.0
  0
LINE
  5
1413
  8
0
 10
63.216667435591383
 20
151.31423823918209
 30
0.0
 11
63.216667435591383
 21
151.51423823918219
 31
0.0
  0
ARC
  5
1414
  8
0
 10
62.416667435591421
 20
151.51423823918219
 30
0.0
 40
0.8
 50
0.0
 51
90.0
  0
ARC
  5
1415
  8
0
 10
44.962105923194819
 20
154.75723029336919
 30
0.0
 40
8.7761008957460263
 50
336.90140580707259
 51
355.98493736893971
  0
ARC
  5
1416
  8
3
 10
59.216667435591368
 20
130.24922016183541
 30
0.0
 40
23.89351874999976
 50
76.43582064406931
 51
103.4559619983406
  0
ARC
  5
1417
  8
0
 10
157.71666743559101
 20
72.164441663134966
 30
0.0
 40
5.5
 50
270.0
 51
90.0
  0
LINE
  5
1418
  8
0
 10
127.86608938159419
 20
77.664441663134397
 30
0.0
 11
157.71666743559101
 21
77.66444166313434
 31
0.0
  0
LINE
  5
1419
  8
0
 10
127.86608938159419
 20
66.664441663134426
 30
0.0
 11
157.71666743559101
 21
66.664441663134482
 31
0.0
  0
ARC
  5
141A
  8
0
 10
73.471228947988152
 20
154.75723029336919
 30
0.0
 40
8.7761008957460263
 50
184.0150626310602
 51
203.09859419292741
  0
ARC
  5
141B
  8
0
 10
195.71666743559109
 20
156.852941366755
 30
0.0
 40
2.0
 50
104.7867808085564
 51
180.0000000000008
  0
ARC
  5
141C
  8
0
 10
184.9621059231946
 20
154.75723029336919
 30
0.0
 40
8.7761008957460263
 50
336.90140580707259
 51
355.98493736893971
  0
ARC
  5
141D
  8
0
 10
213.4712289479877
 20
154.75723029336919
 30
0.0
 40
8.7761008957460263
 50
184.0150626310602
 51
203.09859419292741
  0
ARC
  5
141E
  8
0
 10
202.71666743559109
 20
156.852941366755
 30
0.0
 40
2.0
 50
359.9999999999992
 51
75.213219191443613
  0
ARC
  5
141F
  8
0
 10
199.21666743559021
 20
143.8062179822754
 30
0.0
 40
15.508020256906979
 50
75.012719856152685
 51
104.98728014384059
  0
LINE
  5
1420
  8
1
 10
199.21666743559089
 20
164.3142382391824
 30
0.0
 11
199.21666743559089
 21
118.3142382391776
 31
0.0
  0
ARC
  5
1421
  8
0
 10
199.21666743559109
 20
157.05755000933061
 30
0.0
 40
5.7433117701486651
 50
196.73721751055169
 51
343.26278248944823
  0
LINE
  5
1422
  8
0
 10
204.71666743559109
 20
156.852941366755
 30
0.0
 11
204.71666743559089
 21
141.44691444251711
 31
0.0
  0
LINE
  5
1423
  8
0
 10
193.71666743559089
 20
156.852941366755
 30
0.0
 11
193.71666743559109
 21
141.44691444251711
 31
0.0
  0
LINE
  5
1424
  8
0
 10
202.21666743559089
 20
152.16003736625061
 30
0.0
 11
202.21666743559109
 21
141.44691444251711
 31
0.0
  0
LINE
  5
1425
  8
0
 10
196.21666743559089
 20
152.16003736625069
 30
0.0
 11
196.21666743559109
 21
141.4469144425172
 31
0.0
  0
TEXT
  5
1662
  8
0
 62
     3
 10
0.0
 20
0.0
 30
0.0
 40
10.0
  1
ESAL44C
  7
STANDARD1
  0
ENDSEC
  0
EOF
