  0
SECTION
  2
HEADER
  9
$ACADVER
  1
AC1009
  9
$INSBASE
 10
0.0
 20
0.0
 30
0.0
  9
$EXTMIN
 10
0.0
 20
-2.960436562073669
 30
0.0
  9
$EXTMAX
 10
150.00000000000011
 20
150.0
 30
0.0
  9
$LIMMIN
 10
0.0
 20
0.0
  9
$LIMMAX
 10
275.0
 20
175.0
  9
$ORTHOMODE
 70
     1
  9
$REGENMODE
 70
     1
  9
$FILLMODE
 70
     1
  9
$QTEXTMODE
 70
     0
  9
$MIRRTEXT
 70
     0
  9
$DRAGMODE
 70
     2
  9
$LTSCALE
 40
5.0
  9
$OSMODE
 70
    37
  9
$ATTMODE
 70
     1
  9
$TEXTSIZE
 40
4.000000000000048
  9
$TRACEWID
 40
0.05
  9
$TEXTSTYLE
  7
STANDARD
  9
$CLAYER
  8
0
  9
$CELTYPE
  6
BYLAYER
  9
$CECOLOR
 62
   256
  9
$DIMSCALE
 40
1.0
  9
$DIMASZ
 40
3.0
  9
$DIMEXO
 40
2.0
  9
$DIMDLI
 40
0.38
  9
$DIMRND
 40
0.0
  9
$DIMDLE
 40
0.0
  9
$DIMEXE
 40
2.0
  9
$DIMTP
 40
0.0
  9
$DIMTM
 40
0.0
  9
$DIMTXT
 40
3.0
  9
$DIMCEN
 40
0.0
  9
$DIMTSZ
 40
0.0
  9
$DIMTOL
 70
     0
  9
$DIMLIM
 70
     0
  9
$DIMTIH
 70
     0
  9
$DIMTOH
 70
     0
  9
$DIMSE1
 70
     0
  9
$DIMSE2
 70
     0
  9
$DIMTAD
 70
     1
  9
$DIMZIN
 70
     0
  9
$DIMBLK
  1

  9
$DIMASO
 70
     0
  9
$DIMSHO
 70
     0
  9
$DIMPOST
  1

  9
$DIMAPOST
  1

  9
$DIMALT
 70
     0
  9
$DIMALTD
 70
     2
  9
$DIMALTF
 40
25.399999999999999
  9
$DIMLFAC
 40
1.0
  9
$DIMTOFL
 70
     0
  9
$DIMTVP
 40
1.6000000000000001
  9
$DIMTIX
 70
     1
  9
$DIMSOXD
 70
     0
  9
$DIMSAH
 70
     0
  9
$DIMBLK1
  1

  9
$DIMBLK2
  1

  9
$DIMSTYLE
  2
STANDARD
  9
$DIMCLRD
 70
     4
  9
$DIMCLRE
 70
     4
  9
$DIMCLRT
 70
     4
  9
$DIMTFAC
 40
1.0
  9
$DIMGAP
 40
1.1999999999999991
  9
$LUNITS
 70
     2
  9
$LUPREC
 70
     1
  9
$SKETCHINC
 40
0.1
  9
$FILLETRAD
 40
22.0
  9
$AUNITS
 70
     0
  9
$AUPREC
 70
     1
  9
$MENU
  1
E:\r13\win\SUPPORT\ACAD
  9
$ELEVATION
 40
0.0
  9
$PELEVATION
 40
0.0
  9
$THICKNESS
 40
0.0
  9
$LIMCHECK
 70
     0
  9
$BLIPMODE
 70
     0
  9
$CHAMFERA
 40
1.1999999999999991
  9
$CHAMFERB
 40
1.1999999999999991
  9
$SKPOLY
 70
     0
  9
$TDCREATE
 40
2449954.6020138888
  9
$TDUPDATE
 40
2457164.3890122338
  9
$TDINDWG
 40
0.5067934838
  9
$TDUSRTIMER
 40
0.5067934838
  9
$USRTIMER
 70
     1
  9
$ANGBASE
 50
0.0
  9
$ANGDIR
 70
     0
  9
$PDMODE
 70
     0
  9
$PDSIZE
 40
0.0
  9
$PLINEWID
 40
0.0
  9
$COORDS
 70
     1
  9
$SPLFRAME
 70
     0
  9
$SPLINETYPE
 70
     6
  9
$SPLINESEGS
 70
     8
  9
$ATTDIA
 70
     0
  9
$ATTREQ
 70
     1
  9
$HANDLING
 70
     1
  9
$HANDSEED
  5
3E2D
  9
$SURFTAB1
 70
     6
  9
$SURFTAB2
 70
     6
  9
$SURFTYPE
 70
     6
  9
$SURFU
 70
     6
  9
$SURFV
 70
     6
  9
$UCSNAME
  2

  9
$UCSORG
 10
0.0
 20
0.0
 30
0.0
  9
$UCSXDIR
 10
1.0
 20
0.0
 30
0.0
  9
$UCSYDIR
 10
0.0
 20
1.0
 30
0.0
  9
$PUCSNAME
  2

  9
$PUCSORG
 10
0.0
 20
0.0
 30
0.0
  9
$PUCSXDIR
 10
1.0
 20
0.0
 30
0.0
  9
$PUCSYDIR
 10
0.0
 20
1.0
 30
0.0
  9
$USERI1
 70
     4
  9
$USERI2
 70
     1
  9
$USERI3
 70
     1
  9
$USERI4
 70
     0
  9
$USERI5
 70
     0
  9
$USERR1
 40
1.0
  9
$USERR2
 40
3.0
  9
$USERR3
 40
3.0
  9
$USERR4
 40
3.0
  9
$USERR5
 40
10.0
  9
$WORLDVIEW
 70
     1
  9
$SHADEDGE
 70
     3
  9
$SHADEDIF
 70
    70
  9
$TILEMODE
 70
     1
  9
$MAXACTVP
 70
    16
  9
$PLIMCHECK
 70
     0
  9
$PEXTMIN
 10
1.0000000000000000E+020
 20
1.0000000000000000E+020
 30
1.0000000000000000E+020
  9
$PEXTMAX
 10
-1.0000000000000000E+020
 20
-1.0000000000000000E+020
 30
-1.0000000000000000E+020
  9
$PLIMMIN
 10
0.0
 20
0.0
  9
$PLIMMAX
 10
12.0
 20
9.0
  9
$UNITMODE
 70
     0
  9
$VISRETAIN
 70
     0
  9
$PLINEGEN
 70
     0
  9
$PSLTSCALE
 70
     0
  0
ENDSEC
  0
SECTION
  2
TABLES
  0
TABLE
  2
VPORT
 70
     1
  0
VPORT
  2
*ACTIVE
 70
     0
 10
0.0
 20
0.0
 11
1.0
 21
1.0
 12
245.19230769230771
 22
135.0
 13
0.0
 23
0.0
 14
5.0
 24
5.0
 15
10.0
 25
10.0
 16
0.0
 26
0.0
 36
1.0
 17
0.0
 27
0.0
 37
0.0
 40
270.0
 41
1.816239316239316
 42
50.0
 43
0.0
 44
0.0
 50
0.0
 51
0.0
 71
     0
 72
   500
 73
     1
 74
     0
 75
     0
 76
     0
 77
     0
 78
     2
  0
ENDTAB
  0
TABLE
  2
LTYPE
 70
     4
  0
LTYPE
  2
CONTINUOUS
 70
     0
  3
Solid Line
 72
    65
 73
     0
 40
0.0
  0
LTYPE
  2
CENTER
 70
     0
  3
____ _ ____ _ ____ _ ____ _ ____ _ ____ _ ____
 72
    65
 73
     4
 40
2.0
 49
1.25
 49
-0.25
 49
0.25
 49
-0.25
  0
LTYPE
  2
HIDDEN
 70
     0
  3
_ _ _ _ _ _ _ _ _ _ _ _ _ _ _ _ _ _ _ _ _ _ _
 72
    65
 73
     2
 40
0.375
 49
0.25
 49
-0.125
  0
LTYPE
  2
PHANTOM2
 70
     0
  3
___ _ _ ___ _ _ ___ _ _ ___ _ _
 72
    65
 73
     6
 40
1.25
 49
0.625
 49
-0.125
 49
0.125
 49
-0.125
 49
0.125
 49
-0.125
  0
ENDTAB
  0
TABLE
  2
LAYER
 70
     4
  0
LAYER
  2
0
 70
     0
 62
     7
  6
CONTINUOUS
  0
LAYER
  2
1
 70
     0
 62
     1
  6
CENTER
  0
LAYER
  2
2
 70
     0
 62
     2
  6
HIDDEN
  0
LAYER
  2
DEFPOINTS
 70
     0
 62
     7
  6
CONTINUOUS
  0
ENDTAB
  0
TABLE
  2
STYLE
 70
     2
  0
STYLE
  2
STANDARD
 70
     0
 40
0.0
 41
1.0
 50
0.0
 71
     0
 42
4.000000000000048
  3
SIMPLEX
  4
BIGFONT
  0
STYLE
  2
STANDARD1
 70
     0
 40
0.0
 41
1.0
 50
0.0
 71
     0
 42
3.0
  3
txt
  4

  0
ENDTAB
  0
TABLE
  2
VIEW
 70
     1
  0
VIEW
  2
ALL
 70
     0
 40
270.0
 10
220.78595317725751
 20
135.0
 41
441.57190635451502
 11
0.0
 21
0.0
 31
1.0
 12
0.0
 22
0.0
 32
0.0
 42
50.0
 43
0.0
 44
0.0
 50
0.0
 71
     0
  0
ENDTAB
  0
TABLE
  2
UCS
 70
     0
  0
ENDTAB
  0
TABLE
  2
APPID
 70
     6
  0
APPID
  2
ACAD
 70
     0
  0
APPID
  2
ACAD_MLEADERVER
 70
     0
  0
APPID
  2
ACAD_NAV_VCDISPLAY
 70
     0
  0
APPID
  2
ACAD_EXEMPT_FROM_CAD_STANDARDS
 70
     0
  0
APPID
  2
ACAD_DSTYLE_DIMJAG
 70
     0
  0
APPID
  2
ACAD_DSTYLE_DIMTALN
 70
     0
  0
ENDTAB
  0
TABLE
  2
DIMSTYLE
 70
     1
  0
DIMSTYLE
  2
STANDARD
 70
     0
  3

  4

  5

  6

  7

 40
1.0
 41
0.18
 42
0.0625
 43
0.38
 44
0.18
 45
0.0
 46
0.0
 47
0.0
 48
0.0
140
0.18
141
0.09
142
0.0
143
25.399999999999999
144
1.0
145
0.0
146
1.0
147
0.09
 71
     0
 72
     0
 73
     1
 74
     1
 75
     0
 76
     0
 77
     0
 78
     0
170
     0
171
     2
172
     0
173
     0
174
     0
175
     0
176
     0
177
     0
178
     0
  0
ENDTAB
  0
ENDSEC
  0
SECTION
  2
BLOCKS
  0
BLOCK
  8
0
  2
$MODEL_SPACE
 70
     0
 10
0.0
 20
0.0
 30
0.0
  3
$MODEL_SPACE
  1

  0
ENDBLK
  5
B2D
  8
0
  0
BLOCK
 67
     1
  8
0
  2
$PAPER_SPACE
 70
     0
 10
0.0
 20
0.0
 30
0.0
  3
$PAPER_SPACE
  1

  0
ENDBLK
  5
B2B
 67
     1
  8
0
  0
ENDSEC
  0
SECTION
  2
ENTITIES
  0
TEXT
  5
180E
  8
0
 62
     3
 10
0.0
 20
0.0
 30
0.0
 40
10.0
  1
ESCSS18
  7
STANDARD1
  0
LINE
  5
3458
  8
2
 10
121.59999999999999
 20
82.5
 30
0.0
 11
133.80000000000001
 21
82.499999999999986
 31
0.0
  0
LINE
  5
3459
  8
2
 10
133.80000000000001
 20
86.5
 30
0.0
 11
121.59999999999999
 21
86.5
 31
0.0
  0
ARC
  5
345B
  8
2
 10
121.59999999999999
 20
82.300000000000026
 30
0.0
 40
0.1999999999999993
 50
90.0
 51
110.5560452195848
  0
ARC
  5
345C
  8
2
 10
121.59999999999999
 20
86.699999999999989
 30
0.0
 40
0.2000000000000028
 50
249.4439547804117
 51
270.0
  0
LINE
  5
345D
  8
2
 10
121.59999999999999
 20
86.5
 30
0.0
 11
121.59999999999999
 21
82.5
 31
0.0
  0
LINE
  5
345E
  8
2
 10
121.5297753116823
 20
86.512734164486176
 30
0.0
 11
121.12977531168229
 21
86.66273416448621
 31
0.0
  0
LINE
  5
345F
  8
2
 10
121.12977531168229
 20
82.337265835513776
 30
0.0
 11
121.5297753116823
 21
82.487265835513824
 31
0.0
  0
ARC
  5
3461
  8
2
 10
121.2
 20
82.149999999999977
 30
0.0
 40
0.1999999999999996
 50
110.55604521958131
 51
180.0
  0
ARC
  5
3462
  8
2
 10
121.2
 20
86.850000000000023
 30
0.0
 40
0.1999999999999993
 50
180.0
 51
249.44395478041869
  0
ARC
  5
3464
  8
2
 10
117.40000000000001
 20
81.399999999999977
 30
0.0
 40
0.399999999999995
 50
180.0
 51
270.0
  0
ARC
  5
3465
  8
2
 10
117.40000000000001
 20
87.600000000000037
 30
0.0
 40
0.4000000000000057
 50
90.0
 51
180.0
  0
LINE
  5
3468
  8
2
 10
121.0
 20
88.0
 30
0.0
 11
121.0
 21
81.0
 31
0.0
  0
LINE
  5
346A
  8
2
 10
133.80000000000001
 20
82.929500000000019
 30
0.0
 11
123.09999999999999
 21
82.929500000000019
 31
0.0
  0
LINE
  5
346B
  8
2
 10
123.09999999999999
 20
82.5
 30
0.0
 11
123.09999999999999
 21
86.5
 31
0.0
  0
LINE
  5
3494
  8
2
 10
137.0
 20
87.286437161916808
 30
0.0
 11
137.0
 21
80.818622164423289
 31
0.0
  0
LINE
  5
3495
  8
2
 10
137.0
 20
80.818622164423289
 30
0.0
 11
143.82133806994699
 21
80.818622164423289
 31
0.0
  0
LINE
  5
349D
  8
2
 10
121.0
 20
88.0
 30
0.0
 11
117.0
 21
88.0
 31
0.0
  0
LINE
  5
349E
  8
2
 10
117.0
 20
81.0
 30
0.0
 11
121.0
 21
81.0
 31
0.0
  0
LINE
  5
34A2
  8
2
 10
110.1786619300529
 20
80.818622164423289
 30
0.0
 11
117.0
 21
80.818622164423289
 31
0.0
  0
LINE
  5
34A3
  8
2
 10
117.0
 20
80.818622164423289
 30
0.0
 11
117.0
 21
87.286437161909248
 31
0.0
  0
LINE
  5
34A4
  8
1
 10
139.0
 20
55.5
 30
0.0
 11
115.0
 21
55.5
 31
0.0
  0
LINE
  5
34A5
  8
1
 10
139.0
 20
84.500000000000014
 30
0.0
 11
115.0
 21
84.500000000000014
 31
0.0
  0
LINE
  5
34A6
  8
1
 10
127.0
 20
46.999999999999979
 30
0.0
 11
127.0
 21
92.999999999999986
 31
0.0
  0
LINE
  5
34A7
  8
1
 10
150.0
 20
70.0
 30
0.0
 11
104.0
 21
70.0
 31
0.0
  0
LINE
  5
34A8
  8
0
 10
137.0
 20
88.181377835576725
 30
0.0
 11
135.33291665624941
 21
88.181377835576725
 31
0.0
  0
LINE
  5
34A9
  8
0
 10
137.0
 20
88.181377835576725
 30
0.0
 11
137.0
 21
87.286437161916808
 31
0.0
  0
LINE
  5
34AA
  8
0
 10
135.33291665624949
 20
51.818622164423289
 30
0.0
 11
137.0
 21
51.818622164423289
 31
0.0
  0
LINE
  5
34AB
  8
0
 10
137.0
 20
51.818622164423289
 30
0.0
 11
137.0
 21
52.71356283809132
 31
0.0
  0
POLYLINE
  5
34AC
  8
0
 66
     1
 10
0.0
 20
0.0
 30
0.0
  0
VERTEX
  5
3C47
  8
0
 10
137.0000000000062
 20
52.713562838086851
 30
0.0
  0
VERTEX
  5
3C48
  8
0
 10
137.52251144797461
 20
53.036735798842642
 30
0.0
  0
VERTEX
  5
3C49
  8
0
 10
138.0592782215484
 20
53.391634393616158
 30
0.0
  0
VERTEX
  5
3C4A
  8
0
 10
138.61151635761459
 20
53.78229079190276
 30
0.0
  0
VERTEX
  5
3C4B
  8
0
 10
139.16680128650179
 20
54.202767564749017
 30
0.0
  0
VERTEX
  5
3C4C
  8
0
 10
139.7111983463912
 20
54.643698787649868
 30
0.0
  0
VERTEX
  5
3C4D
  8
0
 10
140.25107272970209
 20
55.111033541773928
 30
0.0
  0
VERTEX
  5
3C4E
  8
0
 10
140.79168174236099
 20
55.61134014710472
 30
0.0
  0
VERTEX
  5
3C4F
  8
0
 10
141.31947150333551
 20
56.133643338176171
 30
0.0
  0
VERTEX
  5
3C50
  8
0
 10
141.61514481446059
 20
56.441997872001188
 30
0.0
  0
VERTEX
  5
3C51
  8
0
 10
141.90251731424209
 20
56.753272602141919
 30
0.0
  0
VERTEX
  5
3C52
  8
0
 10
142.18319589478091
 20
57.068931917595513
 30
0.0
  0
VERTEX
  5
3C53
  8
0
 10
142.45192967955461
 20
57.382552398132837
 30
0.0
  0
VERTEX
  5
3C54
  8
0
 10
142.8397548634552
 20
57.856165861545954
 30
0.0
  0
VERTEX
  5
3C55
  8
0
 10
143.0195369673007
 20
58.084683837739021
 30
0.0
  0
VERTEX
  5
3C56
  8
0
 10
143.1861266660884
 20
58.301807825255388
 30
0.0
  0
VERTEX
  5
3C57
  8
0
 10
143.4203810944822
 20
58.616306619990979
 30
0.0
  0
VERTEX
  5
3C58
  8
0
 10
143.6103531987018
 20
58.879657090617279
 30
0.0
  0
VERTEX
  5
3C59
  8
0
 10
143.73980845760619
 20
59.063597328091852
 30
0.0
  0
VERTEX
  5
3C5A
  8
0
 10
143.8108375858337
 20
59.166122838621867
 30
0.0
  0
VERTEX
  5
3C5B
  8
0
 10
143.8157245159486
 20
59.172654572623841
 30
0.0
  0
SEQEND
  5
3C5C
  8
0
  0
POLYLINE
  5
34AD
  8
0
 66
     1
 10
0.0
 20
0.0
 30
0.0
  0
VERTEX
  5
3C5D
  8
0
 10
137.0
 20
87.286437161916865
 30
0.0
  0
VERTEX
  5
3C5E
  8
0
 10
136.6651503178422
 20
87.482448620138371
 30
0.0
  0
VERTEX
  5
3C5F
  8
0
 10
136.3413732301851
 20
87.664007203823644
 30
0.0
  0
VERTEX
  5
3C60
  8
0
 10
136.03033373785121
 20
87.8312288383799
 30
0.0
  0
VERTEX
  5
3C61
  8
0
 10
135.74758852928429
 20
87.977261059678426
 30
0.0
  0
VERTEX
  5
3C62
  8
0
 10
135.5858093521027
 20
88.058302343894752
 30
0.0
  0
VERTEX
  5
3C63
  8
0
 10
135.45394541589101
 20
88.123022125975183
 30
0.0
  0
VERTEX
  5
3C64
  8
0
 10
135.36698226878579
 20
88.165053382787164
 30
0.0
  0
VERTEX
  5
3C65
  8
0
 10
135.33405312666849
 20
88.180856923749914
 30
0.0
  0
VERTEX
  5
3C66
  8
0
 10
135.33405312666849
 20
88.180856923749914
 30
0.0
  0
SEQEND
  5
3C67
  8
0
  0
ARC
  5
34AE
  8
0
 10
127.0
 20
70.0
 30
0.0
 40
20.000000000000021
 50
270.0
 51
294.62662453865812
  0
ARC
  5
34AF
  8
0
 10
127.0
 20
70.0
 30
0.0
 40
19.999999999999989
 50
327.22323647985399
 51
32.776958831774323
  0
ARC
  5
34B0
  8
0
 10
127.0
 20
69.999999999999943
 30
0.0
 40
20.000000000000039
 50
65.373413286878446
 51
90.0
  0
POLYLINE
  5
34B1
  8
0
 66
     1
 10
0.0
 20
0.0
 30
0.0
  0
VERTEX
  5
3C68
  8
0
 10
135.3340651293077
 20
51.819148578230532
 30
0.0
  0
VERTEX
  5
3C69
  8
0
 10
135.3535893241538
 20
51.828519239036211
 30
0.0
  0
VERTEX
  5
3C6A
  8
0
 10
135.42054261470321
 20
51.860772577073952
 30
0.0
  0
VERTEX
  5
3C6B
  8
0
 10
135.55834285088349
 20
51.928118399290923
 30
0.0
  0
VERTEX
  5
3C6C
  8
0
 10
135.74633939420971
 20
52.02210623714776
 30
0.0
  0
VERTEX
  5
3C6D
  8
0
 10
135.93036177763429
 20
52.116493568507558
 30
0.0
  0
VERTEX
  5
3C6E
  8
0
 10
136.13273358628501
 20
52.223055648867728
 30
0.0
  0
VERTEX
  5
3C6F
  8
0
 10
136.58076705022981
 20
52.469486718825628
 30
0.0
  0
VERTEX
  5
3C70
  8
0
 10
137.0000000000062
 20
52.713562838086887
 30
0.0
  0
SEQEND
  5
3C71
  8
0
  0
POLYLINE
  5
34B2
  8
0
 66
     1
 10
0.0
 20
0.0
 30
0.0
  0
VERTEX
  5
3C72
  8
0
 10
143.8156876072604
 20
80.827402749275961
 30
0.0
  0
VERTEX
  5
3C73
  8
0
 10
143.8156876072604
 20
80.827402749275961
 30
0.0
  0
VERTEX
  5
3C74
  8
0
 10
143.77220336724341
 20
80.889785917058376
 30
0.0
  0
VERTEX
  5
3C75
  8
0
 10
143.68129162556841
 20
81.020009070291906
 30
0.0
  0
VERTEX
  5
3C76
  8
0
 10
143.54262546329551
 20
81.215111873857211
 30
0.0
  0
VERTEX
  5
3C77
  8
0
 10
143.35628017529771
 20
81.470850413440075
 30
0.0
  0
VERTEX
  5
3C78
  8
0
 10
143.1247765934047
 20
81.778768180955012
 30
0.0
  0
VERTEX
  5
3C79
  8
0
 10
142.82758455794681
 20
82.159092276745625
 30
0.0
  0
VERTEX
  5
3C7A
  8
0
 10
142.48642658920059
 20
82.576347905295506
 30
0.0
  0
VERTEX
  5
3C7B
  8
0
 10
142.21584874190711
 20
82.893569006710365
 30
0.0
  0
VERTEX
  5
3C7C
  8
0
 10
141.92840228268099
 20
83.218107541151653
 30
0.0
  0
VERTEX
  5
3C7D
  8
0
 10
141.6217277048008
 20
83.551001798787183
 30
0.0
  0
VERTEX
  5
3C7E
  8
0
 10
141.30184346829321
 20
83.884372850225645
 30
0.0
  0
VERTEX
  5
3C7F
  8
0
 10
140.86977605109669
 20
84.313555667869878
 30
0.0
  0
VERTEX
  5
3C80
  8
0
 10
140.42125304590201
 20
84.735083906324505
 30
0.0
  0
VERTEX
  5
3C81
  8
0
 10
139.95276175782499
 20
85.151026818707976
 30
0.0
  0
VERTEX
  5
3C82
  8
0
 10
139.473575755317
 20
85.552380636459574
 30
0.0
  0
VERTEX
  5
3C83
  8
0
 10
138.99106796851731
 20
85.933408486480687
 30
0.0
  0
VERTEX
  5
3C84
  8
0
 10
138.50354943088871
 20
86.296191107270317
 30
0.0
  0
VERTEX
  5
3C85
  8
0
 10
138.00880950750189
 20
86.642755150647758
 30
0.0
  0
VERTEX
  5
3C86
  8
0
 10
137.51541296749011
 20
86.96779953352393
 30
0.0
  0
VERTEX
  5
3C87
  8
0
 10
137.0
 20
87.286437161916865
 30
0.0
  0
SEQEND
  5
3C88
  8
0
  0
ARC
  5
34B4
  8
0
 10
127.0
 20
70.0
 30
0.0
 40
9.0000000000000018
 50
270.0
 51
90.0
  0
LINE
  5
34B5
  8
0
 10
127.0
 20
50.0
 30
0.0
 11
127.0
 21
61.0
 31
0.0
  0
LINE
  5
34B7
  8
0
 10
127.0
 20
90.0
 30
0.0
 11
127.0
 21
79.0
 31
0.0
  0
LINE
  5
34B8
  8
0
 10
117.0
 20
52.713562838083163
 30
0.0
 11
117.0
 21
51.818622164423289
 31
0.0
  0
LINE
  5
34B9
  8
0
 10
117.0
 20
51.818622164423289
 30
0.0
 11
118.66708334375051
 21
51.818622164423289
 31
0.0
  0
LINE
  5
34BA
  8
0
 10
117.0
 20
87.286437161909248
 30
0.0
 11
117.0
 21
88.181377835576725
 31
0.0
  0
LINE
  5
34BB
  8
0
 10
118.66708334375051
 20
88.181377835576725
 30
0.0
 11
117.0
 21
88.181377835576725
 31
0.0
  0
POLYLINE
  5
34BC
  8
0
 66
     1
 10
0.0
 20
0.0
 30
0.0
  0
VERTEX
  5
3C89
  8
0
 10
117.0
 20
52.713562838083163
 30
0.0
  0
VERTEX
  5
3C8A
  8
0
 10
117.3348496821578
 20
52.517551379861651
 30
0.0
  0
VERTEX
  5
3C8B
  8
0
 10
117.6586267698149
 20
52.335992796176392
 30
0.0
  0
VERTEX
  5
3C8C
  8
0
 10
117.96966626214871
 20
52.168771161620093
 30
0.0
  0
VERTEX
  5
3C8D
  8
0
 10
118.2524114707156
 20
52.022738940321538
 30
0.0
  0
VERTEX
  5
3C8E
  8
0
 10
118.4141906478972
 20
51.941697656105283
 30
0.0
  0
VERTEX
  5
3C8F
  8
0
 10
118.546054584109
 20
51.876977874024838
 30
0.0
  0
VERTEX
  5
3C90
  8
0
 10
118.6330177312142
 20
51.834946617212829
 30
0.0
  0
VERTEX
  5
3C91
  8
0
 10
118.66594687333139
 20
51.819143076250057
 30
0.0
  0
VERTEX
  5
3C92
  8
0
 10
118.66594687333139
 20
51.819143076250057
 30
0.0
  0
SEQEND
  5
3C93
  8
0
  0
POLYLINE
  5
34BD
  8
0
 66
     1
 10
0.0
 20
0.0
 30
0.0
  0
VERTEX
  5
3C94
  8
0
 10
116.9999999999942
 20
87.286437161913398
 30
0.0
  0
VERTEX
  5
3C95
  8
0
 10
116.4774885520257
 20
86.963264201157585
 30
0.0
  0
VERTEX
  5
3C96
  8
0
 10
115.9407217784518
 20
86.608365606383984
 30
0.0
  0
VERTEX
  5
3C97
  8
0
 10
115.38848364238549
 20
86.217709208097276
 30
0.0
  0
VERTEX
  5
3C98
  8
0
 10
114.83319871349831
 20
85.797232435250976
 30
0.0
  0
VERTEX
  5
3C99
  8
0
 10
114.2888016536088
 20
85.356301212350161
 30
0.0
  0
VERTEX
  5
3C9A
  8
0
 10
113.7489272702979
 20
84.888966458226093
 30
0.0
  0
VERTEX
  5
3C9B
  8
0
 10
113.20831825763911
 20
84.388659852895273
 30
0.0
  0
VERTEX
  5
3C9C
  8
0
 10
112.68052849666461
 20
83.866356661823886
 30
0.0
  0
VERTEX
  5
3C9D
  8
0
 10
112.38485518553939
 20
83.558002127998805
 30
0.0
  0
VERTEX
  5
3C9E
  8
0
 10
112.097482685758
 20
83.246727397858095
 30
0.0
  0
VERTEX
  5
3C9F
  8
0
 10
111.81680410521911
 20
82.931068082404522
 30
0.0
  0
VERTEX
  5
3CA0
  8
0
 10
111.5480703204455
 20
82.617447601867184
 30
0.0
  0
VERTEX
  5
3CA1
  8
0
 10
111.1602451365448
 20
82.14383413845411
 30
0.0
  0
VERTEX
  5
3CA2
  8
0
 10
110.9804630326994
 20
81.915316162260979
 30
0.0
  0
VERTEX
  5
3CA3
  8
0
 10
110.8138733339116
 20
81.698192174744634
 30
0.0
  0
VERTEX
  5
3CA4
  8
0
 10
110.5796189055178
 20
81.383693380008992
 30
0.0
  0
VERTEX
  5
3CA5
  8
0
 10
110.3896468012982
 20
81.120342909382714
 30
0.0
  0
VERTEX
  5
3CA6
  8
0
 10
110.2601915423938
 20
80.936402671908183
 30
0.0
  0
VERTEX
  5
3CA7
  8
0
 10
110.1891624141663
 20
80.833877161378098
 30
0.0
  0
VERTEX
  5
3CA8
  8
0
 10
110.1842754840513
 20
80.827345427376088
 30
0.0
  0
SEQEND
  5
3CA9
  8
0
  0
ARC
  5
34BE
  8
0
 10
127.0
 20
69.999999999999829
 30
0.0
 40
20.000000000000171
 50
90.0
 51
114.62662453865801
  0
ARC
  5
34BF
  8
0
 10
127.0
 20
70.0
 30
0.0
 40
20.000000000000011
 50
147.22323647985411
 51
212.77695883177429
  0
ARC
  5
34C0
  8
0
 10
127.0
 20
70.000000000000057
 30
0.0
 40
20.00000000000006
 50
245.3734132868785
 51
270.0
  0
POLYLINE
  5
34C1
  8
0
 66
     1
 10
0.0
 20
0.0
 30
0.0
  0
VERTEX
  5
3CAA
  8
0
 10
110.1843123927396
 20
59.172597250724031
 30
0.0
  0
VERTEX
  5
3CAB
  8
0
 10
110.1843123927396
 20
59.172597250724031
 30
0.0
  0
VERTEX
  5
3CAC
  8
0
 10
110.22779663275659
 20
59.11021408294161
 30
0.0
  0
VERTEX
  5
3CAD
  8
0
 10
110.31870837443159
 20
58.979990929708102
 30
0.0
  0
VERTEX
  5
3CAE
  8
0
 10
110.45737453670451
 20
58.784888126142761
 30
0.0
  0
VERTEX
  5
3CAF
  8
0
 10
110.6437198247023
 20
58.529149586559903
 30
0.0
  0
VERTEX
  5
3CB0
  8
0
 10
110.8752234065953
 20
58.221231819044959
 30
0.0
  0
VERTEX
  5
3CB1
  8
0
 10
111.17241544205319
 20
57.840907723254311
 30
0.0
  0
VERTEX
  5
3CB2
  8
0
 10
111.5135734107994
 20
57.423652094704437
 30
0.0
  0
VERTEX
  5
3CB3
  8
0
 10
111.7841512580929
 20
57.106430993289621
 30
0.0
  0
VERTEX
  5
3CB4
  8
0
 10
112.07159771731899
 20
56.78189245884834
 30
0.0
  0
VERTEX
  5
3CB5
  8
0
 10
112.3782722951992
 20
56.44899820121281
 30
0.0
  0
VERTEX
  5
3CB6
  8
0
 10
112.6981565317068
 20
56.115627149774348
 30
0.0
  0
VERTEX
  5
3CB7
  8
0
 10
113.13022394890341
 20
55.686444332130122
 30
0.0
  0
VERTEX
  5
3CB8
  8
0
 10
113.57874695409799
 20
55.264916093675481
 30
0.0
  0
VERTEX
  5
3CB9
  8
0
 10
114.047238242175
 20
54.848973181291989
 30
0.0
  0
VERTEX
  5
3CBA
  8
0
 10
114.526424244683
 20
54.447619363540383
 30
0.0
  0
VERTEX
  5
3CBB
  8
0
 10
115.0089320314827
 20
54.066591513519313
 30
0.0
  0
VERTEX
  5
3CBC
  8
0
 10
115.4964505691113
 20
53.703808892729683
 30
0.0
  0
VERTEX
  5
3CBD
  8
0
 10
115.99119049249811
 20
53.357244849352213
 30
0.0
  0
VERTEX
  5
3CBE
  8
0
 10
116.48458703251001
 20
53.032200466476041
 30
0.0
  0
VERTEX
  5
3CBF
  8
0
 10
117.0
 20
52.713562838083192
 30
0.0
  0
SEQEND
  5
3CC0
  8
0
  0
POLYLINE
  5
34C2
  8
0
 66
     1
 10
0.0
 20
0.0
 30
0.0
  0
VERTEX
  5
3CC1
  8
0
 10
118.6659348706925
 20
88.18085142176956
 30
0.0
  0
VERTEX
  5
3CC2
  8
0
 10
118.6464106758462
 20
88.171480760963775
 30
0.0
  0
VERTEX
  5
3CC3
  8
0
 10
118.57945738529681
 20
88.139227422926027
 30
0.0
  0
VERTEX
  5
3CC4
  8
0
 10
118.44165714911649
 20
88.071881600709048
 30
0.0
  0
VERTEX
  5
3CC5
  8
0
 10
118.2536606057902
 20
87.977893762852204
 30
0.0
  0
VERTEX
  5
3CC6
  8
0
 10
118.0696382223657
 20
87.883506431492435
 30
0.0
  0
VERTEX
  5
3CC7
  8
0
 10
117.867266413715
 20
87.776944351132272
 30
0.0
  0
VERTEX
  5
3CC8
  8
0
 10
117.4192329497703
 20
87.530513281174365
 30
0.0
  0
VERTEX
  5
3CC9
  8
0
 10
116.9999999999942
 20
87.286437161913398
 30
0.0
  0
SEQEND
  5
3CCA
  8
0
  0
ARC
  5
34C5
  8
0
 10
127.0
 20
70.0
 30
0.0
 40
9.0000000000000018
 50
90.0
 51
270.0
  0
LINE
  5
34FD
  8
1
 10
127.0
 20
130.0
 30
0.0
 11
127.0
 21
150.0
 31
0.0
  0
LINE
  5
34FE
  8
1
 10
150.00000000000011
 20
140.0
 30
0.0
 11
104.0
 21
140.0
 31
0.0
  0
POLYLINE
  5
34FF
  8
0
 66
     1
 10
0.0
 20
0.0
 30
0.0
  0
VERTEX
  5
3CCB
  8
0
 10
140.67390529733959
 20
143.68137779520171
 30
0.0
  0
VERTEX
  5
3CCC
  8
0
 10
140.79168174236091
 20
143.67969375626811
 30
0.0
  0
VERTEX
  5
3CCD
  8
0
 10
141.05825116949751
 20
143.66265699230931
 30
0.0
  0
VERTEX
  5
3CCE
  8
0
 10
141.31947150333551
 20
143.6264361139088
 30
0.0
  0
VERTEX
  5
3CCF
  8
0
 10
141.61514481446059
 20
143.55881760946281
 30
0.0
  0
VERTEX
  5
3CD0
  8
0
 10
141.90251731424209
 20
143.46148097683579
 30
0.0
  0
VERTEX
  5
3CD1
  8
0
 10
142.18319589478091
 20
143.3303146106976
 30
0.0
  0
VERTEX
  5
3CD2
  8
0
 10
142.45192967955461
 20
143.1636275439059
 30
0.0
  0
VERTEX
  5
3CD3
  8
0
 10
142.65139918489689
 20
143.00758151739751
 30
0.0
  0
VERTEX
  5
3CD4
  8
0
 10
142.8397548634552
 20
142.82860835061359
 30
0.0
  0
VERTEX
  5
3CD5
  8
0
 10
143.0195369673007
 20
142.62144086853129
 30
0.0
  0
VERTEX
  5
3CD6
  8
0
 10
143.18612666608851
 20
142.38797313188681
 30
0.0
  0
VERTEX
  5
3CD7
  8
0
 10
143.30892529245921
 20
142.18160686999681
 30
0.0
  0
VERTEX
  5
3CD8
  8
0
 10
143.4203810944822
 20
141.95989178744031
 30
0.0
  0
VERTEX
  5
3CD9
  8
0
 10
143.52220860239049
 20
141.71682346604899
 30
0.0
  0
VERTEX
  5
3CDA
  8
0
 10
143.61035319870189
 20
141.45960978282409
 30
0.0
  0
VERTEX
  5
3CDB
  8
0
 10
143.682279484139
 20
141.19676104995401
 30
0.0
  0
VERTEX
  5
3CDC
  8
0
 10
143.7398084576063
 20
140.92375150960211
 30
0.0
  0
VERTEX
  5
3CDD
  8
0
 10
143.78357671826811
 20
140.63230944965551
 30
0.0
  0
VERTEX
  5
3CDE
  8
0
 10
143.8108375858337
 20
140.33479262299289
 30
0.0
  0
VERTEX
  5
3CDF
  8
0
 10
143.82081586363819
 20
140.0738702077395
 30
0.0
  0
VERTEX
  5
3CE0
  8
0
 10
143.81804768080781
 20
139.81240175257139
 30
0.0
  0
VERTEX
  5
3CE1
  8
0
 10
143.80181732276591
 20
139.54425592675909
 30
0.0
  0
VERTEX
  5
3CE2
  8
0
 10
143.77220336724341
 20
139.2796549135272
 30
0.0
  0
VERTEX
  5
3CE3
  8
0
 10
143.73238879510819
 20
139.0361792465807
 30
0.0
  0
VERTEX
  5
3CE4
  8
0
 10
143.68129162556841
 20
138.79908122779901
 30
0.0
  0
VERTEX
  5
3CE5
  8
0
 10
143.61747360376501
 20
138.5638557225746
 30
0.0
  0
VERTEX
  5
3CE6
  8
0
 10
143.54262546329559
 20
138.33805753198209
 30
0.0
  0
VERTEX
  5
3CE7
  8
0
 10
143.45470692750251
 20
138.11697274621949
 30
0.0
  0
VERTEX
  5
3CE8
  8
0
 10
143.35628017529771
 20
137.90792075902479
 30
0.0
  0
VERTEX
  5
3CE9
  8
0
 10
143.24535709077409
 20
137.7073270781809
 30
0.0
  0
VERTEX
  5
3CEA
  8
0
 10
143.12477659340479
 20
137.5205968146966
 30
0.0
  0
VERTEX
  5
3CEB
  8
0
 10
142.9812048641368
 20
137.33094515684709
 30
0.0
  0
VERTEX
  5
3CEC
  8
0
 10
142.82758455794689
 20
137.15875136612729
 30
0.0
  0
VERTEX
  5
3CED
  8
0
 10
142.66135320999399
 20
137.00103808890481
 30
0.0
  0
VERTEX
  5
3CEE
  8
0
 10
142.48642658920059
 20
136.8611936366168
 30
0.0
  0
VERTEX
  5
3CEF
  8
0
 10
142.21584874190719
 20
136.68761079701079
 30
0.0
  0
VERTEX
  5
3CF0
  8
0
 10
141.92840228268111
 20
136.5490154314713
 30
0.0
  0
VERTEX
  5
3CF1
  8
0
 10
141.62172770480089
 20
136.44304270726059
 30
0.0
  0
VERTEX
  5
3CF2
  8
0
 10
141.30184346829321
 20
136.3704620155265
 30
0.0
  0
VERTEX
  5
3CF3
  8
0
 10
141.0876374495208
 20
136.34040893541831
 30
0.0
  0
VERTEX
  5
3CF4
  8
0
 10
140.86977605109669
 20
136.32334645645011
 30
0.0
  0
VERTEX
  5
3CF5
  8
0
 10
140.67428980556269
 20
136.3186221689532
 30
0.0
  0
SEQEND
  5
3CF6
  8
0
  0
POLYLINE
  5
3500
  8
0
 66
     1
 10
0.0
 20
0.0
 30
0.0
  0
VERTEX
  5
3CF7
  8
0
 10
140.67428980556269
 20
136.3186221689532
 30
0.0
  0
VERTEX
  5
3CF8
  8
0
 10
140.64696839931199
 20
136.3187133754879
 30
0.0
  0
VERTEX
  5
3CF9
  8
0
 10
140.42125304590209
 20
136.326135777514
 30
0.0
  0
VERTEX
  5
3CFA
  8
0
 10
140.18815356525079
 20
136.34562157885489
 30
0.0
  0
VERTEX
  5
3CFB
  8
0
 10
139.9527617578251
 20
136.37664425572069
 30
0.0
  0
VERTEX
  5
3CFC
  8
0
 10
139.71398622485901
 20
136.41903771372819
 30
0.0
  0
VERTEX
  5
3CFD
  8
0
 10
139.47357575531711
 20
136.47224749106741
 30
0.0
  0
VERTEX
  5
3CFE
  8
0
 10
139.23280750449189
 20
136.5356495133625
 30
0.0
  0
VERTEX
  5
3CFF
  8
0
 10
138.9910679685174
 20
136.6091471752427
 30
0.0
  0
VERTEX
  5
3D00
  8
0
 10
138.50354943088871
 20
136.78655320964569
 30
0.0
  0
VERTEX
  5
3D01
  8
0
 10
138.25593297194189
 20
136.89152383572721
 30
0.0
  0
VERTEX
  5
3D02
  8
0
 10
138.00880950750189
 20
137.00648314976311
 30
0.0
  0
VERTEX
  5
3D03
  8
0
 10
137.76134310913011
 20
137.13218221140491
 30
0.0
  0
VERTEX
  5
3D04
  8
0
 10
137.51541296749011
 20
137.26824081760219
 30
0.0
  0
VERTEX
  5
3D05
  8
0
 10
137.25596421203031
 20
137.42483345735201
 30
0.0
  0
VERTEX
  5
3D06
  8
0
 10
137.0
 20
137.59410916478649
 30
0.0
  0
SEQEND
  5
3D07
  8
0
  0
LINE
  5
3501
  8
0
 10
137.0
 20
142.40589083522229
 30
0.0
 11
137.0
 21
137.59410916478649
 31
0.0
  0
LINE
  5
3502
  8
0
 10
127.0
 20
147.0
 30
0.0
 11
146.65685222729221
 21
147.0
 31
0.0
  0
ARC
  5
3503
  8
0
 10
146.65685222729221
 20
146.90000000000001
 30
0.0
 40
0.1000000000000032
 50
4.0363996936465529
 51
90.0
  0
LINE
  5
3504
  8
0
 10
127.0
 20
147.0
 30
0.0
 11
127.0
 21
133.0
 31
0.0
  0
LINE
  5
3505
  8
0
 10
127.0
 20
133.0
 30
0.0
 11
146.65685222729221
 21
133.0
 31
0.0
  0
ARC
  5
3506
  8
0
 10
146.65685222729221
 20
133.09999999999999
 30
0.0
 40
0.1000000000000023
 50
270.0
 51
355.96360030634702
  0
POLYLINE
  5
3509
  8
0
 66
     1
 10
0.0
 20
0.0
 30
0.0
  0
VERTEX
  5
3D08
  8
0
 10
137.0000000000058
 20
142.40589083521749
 30
0.0
  0
VERTEX
  5
3D09
  8
0
 10
137.2594728378003
 20
142.57738112487181
 30
0.0
  0
VERTEX
  5
3D0A
  8
0
 10
137.5225114479743
 20
142.73584945557519
 30
0.0
  0
VERTEX
  5
3D0B
  8
0
 10
137.79002623881351
 20
142.88295106495491
 30
0.0
  0
VERTEX
  5
3D0C
  8
0
 10
138.0592782215482
 20
143.01783651613081
 30
0.0
  0
VERTEX
  5
3D0D
  8
0
 10
138.33517655762861
 20
143.14317148807169
 30
0.0
  0
VERTEX
  5
3D0E
  8
0
 10
138.61151635761451
 20
143.2560739925089
 30
0.0
  0
VERTEX
  5
3D0F
  8
0
 10
138.8894871045903
 20
143.3570903777829
 30
0.0
  0
VERTEX
  5
3D10
  8
0
 10
139.16680128650179
 20
143.4452475639942
 30
0.0
  0
VERTEX
  5
3D11
  8
0
 10
139.4398017253173
 20
143.5194618237696
 30
0.0
  0
VERTEX
  5
3D12
  8
0
 10
139.7111983463912
 20
143.58040374846229
 30
0.0
  0
VERTEX
  5
3D13
  8
0
 10
139.98243701463599
 20
143.62787031178391
 30
0.0
  0
VERTEX
  5
3D14
  8
0
 10
140.2510727297022
 20
143.66077148462591
 30
0.0
  0
VERTEX
  5
3D15
  8
0
 10
140.52331749824921
 20
143.6786682349005
 30
0.0
  0
VERTEX
  5
3D16
  8
0
 10
140.67390529733959
 20
143.68137779520171
 30
0.0
  0
SEQEND
  5
3D17
  8
0
  0
POLYLINE
  5
350A
  8
0
 66
     1
 10
0.0
 20
0.0
 30
0.0
  0
VERTEX
  5
3D18
  8
0
 10
137.0
 20
137.59410916478649
 30
0.0
  0
VERTEX
  5
3D19
  8
0
 10
136.6651503178422
 20
137.84186585298539
 30
0.0
  0
VERTEX
  5
3D1A
  8
0
 10
136.34137323018521
 20
138.11808576645279
 30
0.0
  0
VERTEX
  5
3D1B
  8
0
 10
136.182728470515
 20
138.27112725174081
 30
0.0
  0
VERTEX
  5
3D1C
  8
0
 10
136.03033373785129
 20
138.43301014852631
 30
0.0
  0
VERTEX
  5
3D1D
  8
0
 10
135.88388313502091
 20
138.6067785129342
 30
0.0
  0
VERTEX
  5
3D1E
  8
0
 10
135.7475885292844
 20
138.7911996479487
 30
0.0
  0
VERTEX
  5
3D1F
  8
0
 10
135.58580935210281
 20
139.0560576300914
 30
0.0
  0
VERTEX
  5
3D20
  8
0
 10
135.51510580218181
 20
139.19889050166071
 30
0.0
  0
VERTEX
  5
3D21
  8
0
 10
135.4539454158911
 20
139.3471191203827
 30
0.0
  0
VERTEX
  5
3D22
  8
0
 10
135.40441922642191
 20
139.49830109951671
 30
0.0
  0
VERTEX
  5
3D23
  8
0
 10
135.36698226878579
 20
139.65369598674599
 30
0.0
  0
VERTEX
  5
3D24
  8
0
 10
135.3423500217385
 20
139.81816223664561
 30
0.0
  0
VERTEX
  5
3D25
  8
0
 10
135.3329845747372
 20
139.9845385137366
 30
0.0
  0
VERTEX
  5
3D26
  8
0
 10
135.33756897713539
 20
140.12765440922041
 30
0.0
  0
VERTEX
  5
3D27
  8
0
 10
135.3535893241538
 20
140.26976246986581
 30
0.0
  0
VERTEX
  5
3D28
  8
0
 10
135.38165790329899
 20
140.4141791573756
 30
0.0
  0
VERTEX
  5
3D29
  8
0
 10
135.42054261470321
 20
140.55548765287691
 30
0.0
  0
VERTEX
  5
3D2A
  8
0
 10
135.4828541626575
 20
140.72668728918811
 30
0.0
  0
VERTEX
  5
3D2B
  8
0
 10
135.55834285088349
 20
140.89118157453549
 30
0.0
  0
VERTEX
  5
3D2C
  8
0
 10
135.6474578960233
 20
141.05277971999681
 30
0.0
  0
VERTEX
  5
3D2D
  8
0
 10
135.74633939420991
 20
141.20697876642009
 30
0.0
  0
VERTEX
  5
3D2E
  8
0
 10
135.9303617776344
 20
141.45066432930739
 30
0.0
  0
VERTEX
  5
3D2F
  8
0
 10
136.13273358628501
 20
141.677551336877
 30
0.0
  0
VERTEX
  5
3D30
  8
0
 10
136.35193490609839
 20
141.89167617740881
 30
0.0
  0
VERTEX
  5
3D31
  8
0
 10
136.58076705022981
 20
142.09010335172721
 30
0.0
  0
VERTEX
  5
3D32
  8
0
 10
136.7882288269081
 20
142.25309194578449
 30
0.0
  0
VERTEX
  5
3D33
  8
0
 10
137.0
 20
142.40589083522229
 30
0.0
  0
SEQEND
  5
3D34
  8
0
  0
ARC
  5
350B
  8
0
 10
48.874999999995453
 20
139.99999999999969
 30
0.0
 40
98.125000000004633
 50
355.96360030635992
 51
4.0363996936400612
  0
POLYLINE
  5
350C
  8
0
 66
     1
 10
0.0
 20
0.0
 30
0.0
  0
VERTEX
  5
3D35
  8
0
 10
113.3260947026605
 20
136.3186222047984
 30
0.0
  0
VERTEX
  5
3D36
  8
0
 10
113.20831825763911
 20
136.32030624373189
 30
0.0
  0
VERTEX
  5
3D37
  8
0
 10
112.9417488305026
 20
136.33734300769081
 30
0.0
  0
VERTEX
  5
3D38
  8
0
 10
112.68052849666461
 20
136.3735638860912
 30
0.0
  0
VERTEX
  5
3D39
  8
0
 10
112.38485518553949
 20
136.44118239053731
 30
0.0
  0
VERTEX
  5
3D3A
  8
0
 10
112.097482685758
 20
136.53851902316421
 30
0.0
  0
VERTEX
  5
3D3B
  8
0
 10
111.81680410521911
 20
136.6696853893024
 30
0.0
  0
VERTEX
  5
3D3C
  8
0
 10
111.5480703204455
 20
136.83637245609421
 30
0.0
  0
VERTEX
  5
3D3D
  8
0
 10
111.3486008151032
 20
136.99241848260249
 30
0.0
  0
VERTEX
  5
3D3E
  8
0
 10
111.1602451365449
 20
137.17139164938641
 30
0.0
  0
VERTEX
  5
3D3F
  8
0
 10
110.9804630326994
 20
137.37855913146871
 30
0.0
  0
VERTEX
  5
3D40
  8
0
 10
110.8138733339116
 20
137.61202686811319
 30
0.0
  0
VERTEX
  5
3D41
  8
0
 10
110.69107470754091
 20
137.81839313000319
 30
0.0
  0
VERTEX
  5
3D42
  8
0
 10
110.5796189055178
 20
138.04010821255969
 30
0.0
  0
VERTEX
  5
3D43
  8
0
 10
110.47779139760959
 20
138.28317653395101
 30
0.0
  0
VERTEX
  5
3D44
  8
0
 10
110.3896468012982
 20
138.54039021717591
 30
0.0
  0
VERTEX
  5
3D45
  8
0
 10
110.3177205158612
 20
138.80323895004599
 30
0.0
  0
VERTEX
  5
3D46
  8
0
 10
110.2601915423938
 20
139.07624849039789
 30
0.0
  0
VERTEX
  5
3D47
  8
0
 10
110.21642328173201
 20
139.36769055034449
 30
0.0
  0
VERTEX
  5
3D48
  8
0
 10
110.1891624141664
 20
139.66520737700711
 30
0.0
  0
VERTEX
  5
3D49
  8
0
 10
110.1791841363619
 20
139.9261297922605
 30
0.0
  0
VERTEX
  5
3D4A
  8
0
 10
110.18195231919231
 20
140.18759824742861
 30
0.0
  0
VERTEX
  5
3D4B
  8
0
 10
110.1981826772342
 20
140.45574407324099
 30
0.0
  0
VERTEX
  5
3D4C
  8
0
 10
110.22779663275669
 20
140.72034508647269
 30
0.0
  0
VERTEX
  5
3D4D
  8
0
 10
110.26761120489201
 20
140.9638207534193
 30
0.0
  0
VERTEX
  5
3D4E
  8
0
 10
110.31870837443159
 20
141.20091877220111
 30
0.0
  0
VERTEX
  5
3D4F
  8
0
 10
110.38252639623499
 20
141.4361442774254
 30
0.0
  0
VERTEX
  5
3D50
  8
0
 10
110.45737453670451
 20
141.66194246801791
 30
0.0
  0
VERTEX
  5
3D51
  8
0
 10
110.5452930724976
 20
141.88302725378051
 30
0.0
  0
VERTEX
  5
3D52
  8
0
 10
110.6437198247024
 20
142.09207924097521
 30
0.0
  0
VERTEX
  5
3D53
  8
0
 10
110.75464290922601
 20
142.2926729218191
 30
0.0
  0
VERTEX
  5
3D54
  8
0
 10
110.8752234065953
 20
142.4794031853034
 30
0.0
  0
VERTEX
  5
3D55
  8
0
 10
111.0187951358633
 20
142.66905484315291
 30
0.0
  0
VERTEX
  5
3D56
  8
0
 10
111.17241544205319
 20
142.84124863387271
 30
0.0
  0
VERTEX
  5
3D57
  8
0
 10
111.33864679000609
 20
142.99896191109519
 30
0.0
  0
VERTEX
  5
3D58
  8
0
 10
111.5135734107994
 20
143.1388063633832
 30
0.0
  0
VERTEX
  5
3D59
  8
0
 10
111.7841512580929
 20
143.31238920298921
 30
0.0
  0
VERTEX
  5
3D5A
  8
0
 10
112.07159771731899
 20
143.4509845685287
 30
0.0
  0
VERTEX
  5
3D5B
  8
0
 10
112.3782722951992
 20
143.55695729273941
 30
0.0
  0
VERTEX
  5
3D5C
  8
0
 10
112.6981565317069
 20
143.6295379844735
 30
0.0
  0
VERTEX
  5
3D5D
  8
0
 10
112.9123625504793
 20
143.65959106458169
 30
0.0
  0
VERTEX
  5
3D5E
  8
0
 10
113.13022394890341
 20
143.67665354354989
 30
0.0
  0
VERTEX
  5
3D5F
  8
0
 10
113.32571019443731
 20
143.6813778310468
 30
0.0
  0
SEQEND
  5
3D60
  8
0
  0
POLYLINE
  5
350D
  8
0
 66
     1
 10
0.0
 20
0.0
 30
0.0
  0
VERTEX
  5
3D61
  8
0
 10
113.32571019443731
 20
143.6813778310468
 30
0.0
  0
VERTEX
  5
3D62
  8
0
 10
113.3530316006881
 20
143.6812866245121
 30
0.0
  0
VERTEX
  5
3D63
  8
0
 10
113.57874695409799
 20
143.673864222486
 30
0.0
  0
VERTEX
  5
3D64
  8
0
 10
113.8118464347493
 20
143.65437842114511
 30
0.0
  0
VERTEX
  5
3D65
  8
0
 10
114.047238242175
 20
143.62335574427931
 30
0.0
  0
VERTEX
  5
3D66
  8
0
 10
114.286013775141
 20
143.58096228627181
 30
0.0
  0
VERTEX
  5
3D67
  8
0
 10
114.526424244683
 20
143.52775250893259
 30
0.0
  0
VERTEX
  5
3D68
  8
0
 10
114.7671924955082
 20
143.4643504866375
 30
0.0
  0
VERTEX
  5
3D69
  8
0
 10
115.0089320314827
 20
143.3908528247573
 30
0.0
  0
VERTEX
  5
3D6A
  8
0
 10
115.4964505691114
 20
143.21344679035431
 30
0.0
  0
VERTEX
  5
3D6B
  8
0
 10
115.7440670280582
 20
143.10847616427279
 30
0.0
  0
VERTEX
  5
3D6C
  8
0
 10
115.99119049249821
 20
142.99351685023689
 30
0.0
  0
VERTEX
  5
3D6D
  8
0
 10
116.23865689087
 20
142.8678177885952
 30
0.0
  0
VERTEX
  5
3D6E
  8
0
 10
116.48458703251001
 20
142.73175918239781
 30
0.0
  0
VERTEX
  5
3D6F
  8
0
 10
116.74403578796981
 20
142.57516654264799
 30
0.0
  0
VERTEX
  5
3D70
  8
0
 10
117.0
 20
142.40589083521351
 30
0.0
  0
SEQEND
  5
3D71
  8
0
  0
LINE
  5
350E
  8
0
 10
117.0
 20
137.59410916477771
 30
0.0
 11
117.0
 21
142.40589083521351
 31
0.0
  0
LINE
  5
350F
  8
0
 10
127.0
 20
133.0
 30
0.0
 11
107.34314777270789
 21
133.0
 31
0.0
  0
ARC
  5
3510
  8
0
 10
107.34314777270789
 20
133.09999999999999
 30
0.0
 40
0.1000000000000032
 50
184.0363996936465
 51
270.0
  0
LINE
  5
3512
  8
0
 10
127.0
 20
147.0
 30
0.0
 11
107.34314777270789
 21
147.0
 31
0.0
  0
ARC
  5
3513
  8
0
 10
107.34314777270789
 20
146.90000000000001
 30
0.0
 40
0.1000000000000023
 50
90.0
 51
175.96360030634699
  0
POLYLINE
  5
3516
  8
0
 66
     1
 10
0.0
 20
0.0
 30
0.0
  0
VERTEX
  5
3D72
  8
0
 10
116.9999999999943
 20
137.59410916478251
 30
0.0
  0
VERTEX
  5
3D73
  8
0
 10
116.7405271621998
 20
137.42261887512819
 30
0.0
  0
VERTEX
  5
3D74
  8
0
 10
116.4774885520258
 20
137.26415054442481
 30
0.0
  0
VERTEX
  5
3D75
  8
0
 10
116.2099737611866
 20
137.11704893504509
 30
0.0
  0
VERTEX
  5
3D76
  8
0
 10
115.9407217784519
 20
136.98216348386919
 30
0.0
  0
VERTEX
  5
3D77
  8
0
 10
115.6648234423715
 20
136.85682851192831
 30
0.0
  0
VERTEX
  5
3D78
  8
0
 10
115.38848364238559
 20
136.7439260074911
 30
0.0
  0
VERTEX
  5
3D79
  8
0
 10
115.1105128954098
 20
136.64290962221719
 30
0.0
  0
VERTEX
  5
3D7A
  8
0
 10
114.83319871349831
 20
136.5547524360058
 30
0.0
  0
VERTEX
  5
3D7B
  8
0
 10
114.5601982746828
 20
136.4805381762304
 30
0.0
  0
VERTEX
  5
3D7C
  8
0
 10
114.2888016536088
 20
136.41959625153771
 30
0.0
  0
VERTEX
  5
3D7D
  8
0
 10
114.01756298536409
 20
136.37212968821609
 30
0.0
  0
VERTEX
  5
3D7E
  8
0
 10
113.748927270298
 20
136.33922851537409
 30
0.0
  0
VERTEX
  5
3D7F
  8
0
 10
113.4766825017509
 20
136.3213317650995
 30
0.0
  0
VERTEX
  5
3D80
  8
0
 10
113.3260947026605
 20
136.3186222047984
 30
0.0
  0
SEQEND
  5
3D81
  8
0
  0
POLYLINE
  5
3517
  8
0
 66
     1
 10
0.0
 20
0.0
 30
0.0
  0
VERTEX
  5
3D82
  8
0
 10
117.0
 20
142.40589083521351
 30
0.0
  0
VERTEX
  5
3D83
  8
0
 10
117.33484968215789
 20
142.15813414701461
 30
0.0
  0
VERTEX
  5
3D84
  8
0
 10
117.6586267698149
 20
141.88191423354721
 30
0.0
  0
VERTEX
  5
3D85
  8
0
 10
117.8172715294851
 20
141.72887274825919
 30
0.0
  0
VERTEX
  5
3D86
  8
0
 10
117.96966626214881
 20
141.56698985147369
 30
0.0
  0
VERTEX
  5
3D87
  8
0
 10
118.1161168649792
 20
141.3932214870658
 30
0.0
  0
VERTEX
  5
3D88
  8
0
 10
118.2524114707157
 20
141.2088003520513
 30
0.0
  0
VERTEX
  5
3D89
  8
0
 10
118.4141906478973
 20
140.9439423699086
 30
0.0
  0
VERTEX
  5
3D8A
  8
0
 10
118.48489419781831
 20
140.80110949833929
 30
0.0
  0
VERTEX
  5
3D8B
  8
0
 10
118.546054584109
 20
140.6528808796173
 30
0.0
  0
VERTEX
  5
3D8C
  8
0
 10
118.59558077357821
 20
140.50169890048329
 30
0.0
  0
VERTEX
  5
3D8D
  8
0
 10
118.6330177312143
 20
140.3463040132541
 30
0.0
  0
VERTEX
  5
3D8E
  8
0
 10
118.6576499782616
 20
140.18183776335439
 30
0.0
  0
VERTEX
  5
3D8F
  8
0
 10
118.6670154252629
 20
140.0154614862634
 30
0.0
  0
VERTEX
  5
3D90
  8
0
 10
118.6624310228646
 20
139.8723455907797
 30
0.0
  0
VERTEX
  5
3D91
  8
0
 10
118.6464106758462
 20
139.73023753013419
 30
0.0
  0
VERTEX
  5
3D92
  8
0
 10
118.6183420967011
 20
139.5858208426244
 30
0.0
  0
VERTEX
  5
3D93
  8
0
 10
118.57945738529681
 20
139.44451234712309
 30
0.0
  0
VERTEX
  5
3D94
  8
0
 10
118.5171458373426
 20
139.27331271081189
 30
0.0
  0
VERTEX
  5
3D95
  8
0
 10
118.44165714911649
 20
139.10881842546451
 30
0.0
  0
VERTEX
  5
3D96
  8
0
 10
118.3525421039767
 20
138.94722028000319
 30
0.0
  0
VERTEX
  5
3D97
  8
0
 10
118.2536606057903
 20
138.79302123357991
 30
0.0
  0
VERTEX
  5
3D98
  8
0
 10
118.0696382223657
 20
138.54933567069261
 30
0.0
  0
VERTEX
  5
3D99
  8
0
 10
117.867266413715
 20
138.322448663123
 30
0.0
  0
VERTEX
  5
3D9A
  8
0
 10
117.64806509390159
 20
138.1083238225913
 30
0.0
  0
VERTEX
  5
3D9B
  8
0
 10
117.4192329497703
 20
137.90989664827291
 30
0.0
  0
VERTEX
  5
3D9C
  8
0
 10
117.2117711730919
 20
137.74690805421551
 30
0.0
  0
VERTEX
  5
3D9D
  8
0
 10
117.0
 20
137.59410916477771
 30
0.0
  0
SEQEND
  5
3D9E
  8
0
  0
ARC
  5
3518
  8
0
 10
205.12500000000469
 20
140.00000000000031
 30
0.0
 40
98.125000000004633
 50
175.96360030635989
 51
184.03639969363979
  0
LINE
  5
3521
  8
2
 10
50.0
 20
78.999999999999943
 30
0.0
 11
64.0
 21
78.999999999999943
 31
0.0
  0
LINE
  5
3522
  8
2
 10
50.0
 20
60.999999999999972
 30
0.0
 11
64.0
 21
60.999999999999972
 31
0.0
  0
LINE
  5
3527
  8
1
 10
47.0
 20
70.0
 30
0.0
 11
67.0
 21
70.0
 31
0.0
  0
LINE
  5
3529
  8
1
 10
62.5
 20
55.499999999999972
 30
0.0
 11
51.5
 21
55.499999999999972
 31
0.0
  0
LINE
  5
352A
  8
1
 10
56.999999999999879
 20
47.0
 30
0.0
 11
57.000000000000021
 21
93.0
 31
0.0
  0
LINE
  5
352B
  8
1
 10
62.5
 20
84.499999999999929
 30
0.0
 11
51.5
 21
84.499999999999929
 31
0.0
  0
LINE
  5
353C
  8
0
 10
58.732050807568889
 20
84.499999999999929
 30
0.0
 11
57.86602540378442
 21
82.999999999999943
 31
0.0
  0
LINE
  5
353D
  8
0
 10
55.267949192431097
 20
84.499999999999929
 30
0.0
 11
56.13397459621558
 21
85.999999999999943
 31
0.0
  0
LINE
  5
353E
  8
0
 10
56.13397459621558
 20
82.999999999999943
 30
0.0
 11
55.267949192431097
 21
84.499999999999929
 31
0.0
  0
LINE
  5
353F
  8
0
 10
57.86602540378442
 20
85.999999999999943
 30
0.0
 11
58.732050807568889
 21
84.499999999999929
 31
0.0
  0
LINE
  5
3540
  8
0
 10
56.13397459621558
 20
85.999999999999943
 30
0.0
 11
57.86602540378442
 21
85.999999999999943
 31
0.0
  0
LINE
  5
3541
  8
0
 10
57.86602540378442
 20
82.999999999999943
 30
0.0
 11
56.13397459621558
 21
82.999999999999943
 31
0.0
  0
ARC
  5
354C
  8
0
 10
50.100000000000023
 20
50.343147772707788
 30
0.0
 40
0.1000000000000094
 50
180.0
 51
265.96360030634378
  0
ARC
  5
354D
  8
0
 10
56.999999999999829
 20
148.12500000000381
 30
0.0
 40
98.125000000003865
 50
265.96360030636009
 51
274.03639969363991
  0
ARC
  5
354E
  8
0
 10
63.89999999999997
 20
50.34314777270783
 30
0.0
 40
0.100000000000003
 50
274.03639969364309
 51
0.0
  0
ARC
  5
354F
  8
0
 10
63.89999999999997
 20
89.656852227292106
 30
0.0
 40
0.1000000000000032
 50
0.0
 51
85.963600306356867
  0
ARC
  5
3550
  8
0
 10
56.999999999999829
 20
-8.1250000000039222
 30
0.0
 40
98.125000000003894
 50
85.963600306356867
 51
94.036399693639865
  0
ARC
  5
3551
  8
0
 10
50.100000000000023
 20
89.656852227292106
 30
0.0
 40
0.1000000000000117
 50
94.036399693656179
 51
180.0
  0
ARC
  5
3552
  8
0
 10
57.0
 20
55.499999999999972
 30
0.0
 40
3.6813778355767011
 50
229.19171991490111
 51
310.80828008491829
  0
CIRCLE
  5
3553
  8
0
 10
57.0
 20
55.499999999999972
 30
0.0
 40
3.5000000000000009
  0
ARC
  5
3554
  8
0
 10
57.0
 20
84.499999999999929
 30
0.0
 40
3.6813778355767051
 50
49.19171991488664
 51
130.80828008491829
  0
CIRCLE
  5
3555
  8
0
 10
57.0
 20
84.499999999999929
 30
0.0
 40
3.5000000000000009
  0
LINE
  5
3557
  8
0
 10
50.0
 20
50.34314777270783
 30
0.0
 11
50.0
 21
89.656852227292106
 31
0.0
  0
LINE
  5
355A
  8
0
 10
64.0
 20
50.343147772707788
 30
0.0
 11
64.0
 21
89.656852227292106
 31
0.0
  0
POLYLINE
  5
3560
  8
0
 66
     1
 10
0.0
 20
0.0
 30
0.0
  0
VERTEX
  5
3D9F
  8
0
 10
59.40589083522292
 20
87.28643716190868
 30
0.0
  0
VERTEX
  5
3DA0
  8
0
 10
59.577381124872261
 20
87.128632355126513
 30
0.0
  0
VERTEX
  5
3DA1
  8
0
 10
59.735849455575362
 20
86.963264201157358
 30
0.0
  0
VERTEX
  5
3DA2
  8
0
 10
59.88295106495503
 20
86.789360632994445
 30
0.0
  0
VERTEX
  5
3DA3
  8
0
 10
60.017836516130899
 20
86.608365606383813
 30
0.0
  0
VERTEX
  5
3DA4
  8
0
 10
60.143171488071687
 20
86.416517630596616
 30
0.0
  0
VERTEX
  5
3DA5
  8
0
 10
60.256073992509009
 20
86.217709208097176
 30
0.0
  0
VERTEX
  5
3DA6
  8
0
 10
60.35709037778286
 20
86.010795266894775
 30
0.0
  0
VERTEX
  5
3DA7
  8
0
 10
60.445247563994251
 20
85.797232435250976
 30
0.0
  0
VERTEX
  5
3DA8
  8
0
 10
60.519461823769582
 20
85.579787138905942
 30
0.0
  0
VERTEX
  5
3DA9
  8
0
 10
60.580403748462352
 20
85.356301212350104
 30
0.0
  0
VERTEX
  5
3DAA
  8
0
 10
60.627870311783909
 20
85.125383567775202
 30
0.0
  0
VERTEX
  5
3DAB
  8
0
 10
60.660771484625961
 20
84.888966458226037
 30
0.0
  0
VERTEX
  5
3DAC
  8
0
 10
60.678668234900492
 20
84.641219209368501
 30
0.0
  0
VERTEX
  5
3DAD
  8
0
 10
60.67969375626808
 20
84.388659852895216
 30
0.0
  0
VERTEX
  5
3DAE
  8
0
 10
60.662656992309223
 20
84.129219192935295
 30
0.0
  0
VERTEX
  5
3DAF
  8
0
 10
60.626436113908817
 20
83.866356661823758
 30
0.0
  0
VERTEX
  5
3DB0
  8
0
 10
60.558817609462771
 20
83.558002127998748
 30
0.0
  0
VERTEX
  5
3DB1
  8
0
 10
60.46148097683573
 20
83.246727397858024
 30
0.0
  0
VERTEX
  5
3DB2
  8
0
 10
60.330314610697542
 20
82.931068082404465
 30
0.0
  0
VERTEX
  5
3DB3
  8
0
 10
60.163627543905811
 20
82.617447601867127
 30
0.0
  0
VERTEX
  5
3DB4
  8
0
 10
60.007581517397512
 20
82.377052806682215
 30
0.0
  0
VERTEX
  5
3DB5
  8
0
 10
59.828608350613592
 20
82.143834138454054
 30
0.0
  0
VERTEX
  5
3DB6
  8
0
 10
59.621440868531288
 20
81.915316162260908
 30
0.0
  0
VERTEX
  5
3DB7
  8
0
 10
59.387973131886781
 20
81.698192174744577
 30
0.0
  0
VERTEX
  5
3DB8
  8
0
 10
59.181606869996763
 20
81.534697696681803
 30
0.0
  0
VERTEX
  5
3DB9
  8
0
 10
58.959891787440249
 20
81.383693380008992
 30
0.0
  0
VERTEX
  5
3DBA
  8
0
 10
58.716823466048993
 20
81.243486446909628
 30
0.0
  0
VERTEX
  5
3DBB
  8
0
 10
58.459609782824032
 20
81.120342909382714
 30
0.0
  0
VERTEX
  5
3DBC
  8
0
 10
58.196761049953977
 20
81.018606742367027
 30
0.0
  0
VERTEX
  5
3DBD
  8
0
 10
57.923751509602077
 20
80.936402671908127
 30
0.0
  0
VERTEX
  5
3DBE
  8
0
 10
57.632309449655558
 20
80.873369462498658
 30
0.0
  0
VERTEX
  5
3DBF
  8
0
 10
57.334792622992893
 20
80.833877161378098
 30
0.0
  0
VERTEX
  5
3DC0
  8
0
 10
57.073870207739503
 20
80.819386114061047
 30
0.0
  0
VERTEX
  5
3DC1
  8
0
 10
56.812401752571361
 20
80.823405153428325
 30
0.0
  0
VERTEX
  5
3DC2
  8
0
 10
56.544255926759028
 20
80.846966142780559
 30
0.0
  0
VERTEX
  5
3DC3
  8
0
 10
56.279654913527281
 20
80.889785917058376
 30
0.0
  0
VERTEX
  5
3DC4
  8
0
 10
56.036179246580673
 20
80.947048567334889
 30
0.0
  0
VERTEX
  5
3DC5
  8
0
 10
55.799081227798922
 20
81.020009070291906
 30
0.0
  0
VERTEX
  5
3DC6
  8
0
 10
55.563855722574601
 20
81.110322581492127
 30
0.0
  0
VERTEX
  5
3DC7
  8
0
 10
55.338057531982031
 20
81.215111873857211
 30
0.0
  0
VERTEX
  5
3DC8
  8
0
 10
55.11697274621951
 20
81.336671502166325
 30
0.0
  0
VERTEX
  5
3DC9
  8
0
 10
54.907920759024762
 20
81.470850413440075
 30
0.0
  0
VERTEX
  5
3DCA
  8
0
 10
54.70732707818086
 20
81.619703017569066
 30
0.0
  0
VERTEX
  5
3DCB
  8
0
 10
54.520596814696603
 20
81.778768180955012
 30
0.0
  0
VERTEX
  5
3DCC
  8
0
 10
54.330945156847122
 20
81.964530435991776
 30
0.0
  0
VERTEX
  5
3DCD
  8
0
 10
54.158751366127262
 20
82.159092276745625
 30
0.0
  0
VERTEX
  5
3DCE
  8
0
 10
54.001038088904863
 20
82.364885451960561
 30
0.0
  0
VERTEX
  5
3DCF
  8
0
 10
53.861193636616861
 20
82.576347905295506
 30
0.0
  0
VERTEX
  5
3DD0
  8
0
 10
53.687610797010791
 20
82.893569006710365
 30
0.0
  0
VERTEX
  5
3DD1
  8
0
 10
53.549015431471332
 20
83.218107541151653
 30
0.0
  0
VERTEX
  5
3DD2
  8
0
 10
53.443042707260531
 20
83.551001798787127
 30
0.0
  0
VERTEX
  5
3DD3
  8
0
 10
53.370462015526471
 20
83.884372850225645
 30
0.0
  0
VERTEX
  5
3DD4
  8
0
 10
53.340408935418282
 20
84.100084899135084
 30
0.0
  0
VERTEX
  5
3DD5
  8
0
 10
53.323346456450111
 20
84.313555667869878
 30
0.0
  0
VERTEX
  5
3DD6
  8
0
 10
53.318713375487839
 20
84.525901628178246
 30
0.0
  0
VERTEX
  5
3DD7
  8
0
 10
53.326135777514018
 20
84.735083906324462
 30
0.0
  0
VERTEX
  5
3DD8
  8
0
 10
53.345621578854832
 20
84.945042672920124
 30
0.0
  0
VERTEX
  5
3DD9
  8
0
 10
53.376644255720691
 20
85.151026818707976
 30
0.0
  0
VERTEX
  5
3DDA
  8
0
 10
53.419037713728237
 20
85.353964905163238
 30
0.0
  0
VERTEX
  5
3DDB
  8
0
 10
53.472247491067378
 20
85.552380636459574
 30
0.0
  0
VERTEX
  5
3DDC
  8
0
 10
53.535649513362557
 20
85.745321284925012
 30
0.0
  0
VERTEX
  5
3DDD
  8
0
 10
53.609147175242747
 20
85.933408486480687
 30
0.0
  0
VERTEX
  5
3DDE
  8
0
 10
53.78655320964566
 20
86.296191107270317
 30
0.0
  0
VERTEX
  5
3DDF
  8
0
 10
53.891523835727241
 20
86.472291899504398
 30
0.0
  0
VERTEX
  5
3DE0
  8
0
 10
54.006483149763078
 20
86.642755150647758
 30
0.0
  0
VERTEX
  5
3DE1
  8
0
 10
54.132182211404881
 20
86.808287348099896
 30
0.0
  0
VERTEX
  5
3DE2
  8
0
 10
54.268240817602248
 20
86.96779953352393
 30
0.0
  0
VERTEX
  5
3DE3
  8
0
 10
54.424833457351951
 20
87.13080137919934
 30
0.0
  0
VERTEX
  5
3DE4
  8
0
 10
54.594109164786524
 20
87.286437161916808
 30
0.0
  0
SEQEND
  5
3DE5
  8
0
  0
POLYLINE
  5
3561
  8
0
 66
     1
 10
0.0
 20
0.0
 30
0.0
  0
VERTEX
  5
3DE6
  8
0
 10
54.594109164777763
 20
52.713562838090688
 30
0.0
  0
VERTEX
  5
3DE7
  8
0
 10
54.422618875128187
 20
52.871367644872997
 30
0.0
  0
VERTEX
  5
3DE8
  8
0
 10
54.264150544424858
 20
53.036735798842358
 30
0.0
  0
VERTEX
  5
3DE9
  8
0
 10
54.117048935045148
 20
53.210639367005342
 30
0.0
  0
VERTEX
  5
3DEA
  8
0
 10
53.982163483869208
 20
53.391634393615959
 30
0.0
  0
VERTEX
  5
3DEB
  8
0
 10
53.85682851192837
 20
53.583482369403207
 30
0.0
  0
VERTEX
  5
3DEC
  8
0
 10
53.743926007491041
 20
53.78229079190266
 30
0.0
  0
VERTEX
  5
3DED
  8
0
 10
53.642909622217132
 20
53.989204733105112
 30
0.0
  0
VERTEX
  5
3DEE
  8
0
 10
53.554752436005742
 20
54.202767564748967
 30
0.0
  0
VERTEX
  5
3DEF
  8
0
 10
53.480538176230432
 20
54.420212861094001
 30
0.0
  0
VERTEX
  5
3DF0
  8
0
 10
53.419596251537662
 20
54.643698787649811
 30
0.0
  0
VERTEX
  5
3DF1
  8
0
 10
53.372129688216091
 20
54.874616432224713
 30
0.0
  0
VERTEX
  5
3DF2
  8
0
 10
53.339228515374032
 20
55.111033541773878
 30
0.0
  0
VERTEX
  5
3DF3
  8
0
 10
53.321331765099451
 20
55.358780790631442
 30
0.0
  0
VERTEX
  5
3DF4
  8
0
 10
53.32030624373192
 20
55.611340147104698
 30
0.0
  0
VERTEX
  5
3DF5
  8
0
 10
53.33734300769077
 20
55.870780807064612
 30
0.0
  0
VERTEX
  5
3DF6
  8
0
 10
53.373563886091169
 20
56.133643338176078
 30
0.0
  0
VERTEX
  5
3DF7
  8
0
 10
53.441182390537222
 20
56.441997872001139
 30
0.0
  0
VERTEX
  5
3DF8
  8
0
 10
53.538519023164213
 20
56.753272602141863
 30
0.0
  0
VERTEX
  5
3DF9
  8
0
 10
53.669685389302458
 20
57.068931917595449
 30
0.0
  0
VERTEX
  5
3DFA
  8
0
 10
53.836372456094132
 20
57.382552398132788
 30
0.0
  0
VERTEX
  5
3DFB
  8
0
 10
53.992418482602432
 20
57.622947193317692
 30
0.0
  0
VERTEX
  5
3DFC
  8
0
 10
54.171391649386408
 20
57.856165861545882
 30
0.0
  0
VERTEX
  5
3DFD
  8
0
 10
54.378559131468698
 20
58.084683837738957
 30
0.0
  0
VERTEX
  5
3DFE
  8
0
 10
54.612026868113219
 20
58.301807825255374
 30
0.0
  0
VERTEX
  5
3DFF
  8
0
 10
54.818393130003251
 20
58.465302303318111
 30
0.0
  0
VERTEX
  5
3E00
  8
0
 10
55.040108212559737
 20
58.616306619990951
 30
0.0
  0
VERTEX
  5
3E01
  8
0
 10
55.283176533951007
 20
58.756513553090279
 30
0.0
  0
VERTEX
  5
3E02
  8
0
 10
55.540390217175911
 20
58.879657090617258
 30
0.0
  0
VERTEX
  5
3E03
  8
0
 10
55.803238950046023
 20
58.981393257632867
 30
0.0
  0
VERTEX
  5
3E04
  8
0
 10
56.076248490397909
 20
59.063597328091817
 30
0.0
  0
VERTEX
  5
3E05
  8
0
 10
56.367690550344427
 20
59.126630537501292
 30
0.0
  0
VERTEX
  5
3E06
  8
0
 10
56.66520737700705
 20
59.166122838621853
 30
0.0
  0
VERTEX
  5
3E07
  8
0
 10
56.926129792260497
 20
59.180613885938897
 30
0.0
  0
VERTEX
  5
3E08
  8
0
 10
57.187598247428582
 20
59.176594846571611
 30
0.0
  0
VERTEX
  5
3E09
  8
0
 10
57.455744073240908
 20
59.153033857219377
 30
0.0
  0
VERTEX
  5
3E0A
  8
0
 10
57.720345086472719
 20
59.110214082941582
 30
0.0
  0
VERTEX
  5
3E0B
  8
0
 10
57.963820753419327
 20
59.052951432665083
 30
0.0
  0
VERTEX
  5
3E0C
  8
0
 10
58.200918772201071
 20
58.97999092970803
 30
0.0
  0
VERTEX
  5
3E0D
  8
0
 10
58.436144277425399
 20
58.889677418507773
 30
0.0
  0
VERTEX
  5
3E0E
  8
0
 10
58.661942468017962
 20
58.784888126142732
 30
0.0
  0
VERTEX
  5
3E0F
  8
0
 10
58.883027253780483
 20
58.663328497833611
 30
0.0
  0
VERTEX
  5
3E10
  8
0
 10
59.092079240975238
 20
58.529149586559861
 30
0.0
  0
VERTEX
  5
3E11
  8
0
 10
59.292672921819133
 20
58.38029698243087
 30
0.0
  0
VERTEX
  5
3E12
  8
0
 10
59.47940318530339
 20
58.221231819044931
 30
0.0
  0
VERTEX
  5
3E13
  8
0
 10
59.669054843152871
 20
58.035469564008189
 30
0.0
  0
VERTEX
  5
3E14
  8
0
 10
59.841248633872738
 20
57.840907723254311
 30
0.0
  0
VERTEX
  5
3E15
  8
0
 10
59.99896191109513
 20
57.635114548039411
 30
0.0
  0
VERTEX
  5
3E16
  8
0
 10
60.138806363383132
 20
57.423652094704437
 30
0.0
  0
VERTEX
  5
3E17
  8
0
 10
60.312389202989209
 20
57.106430993289621
 30
0.0
  0
VERTEX
  5
3E18
  8
0
 10
60.450984568528661
 20
56.781892458848318
 30
0.0
  0
VERTEX
  5
3E19
  8
0
 10
60.556957292739469
 20
56.44899820121281
 30
0.0
  0
VERTEX
  5
3E1A
  8
0
 10
60.629537984473522
 20
56.115627149774348
 30
0.0
  0
VERTEX
  5
3E1B
  8
0
 10
60.659591064581662
 20
55.89991510086486
 30
0.0
  0
VERTEX
  5
3E1C
  8
0
 10
60.676653543549889
 20
55.686444332130087
 30
0.0
  0
VERTEX
  5
3E1D
  8
0
 10
60.681286624512147
 20
55.47409837182169
 30
0.0
  0
VERTEX
  5
3E1E
  8
0
 10
60.673864222485967
 20
55.264916093675481
 30
0.0
  0
VERTEX
  5
3E1F
  8
0
 10
60.654378421145161
 20
55.054957327079819
 30
0.0
  0
VERTEX
  5
3E20
  8
0
 10
60.623355744279309
 20
54.848973181291989
 30
0.0
  0
VERTEX
  5
3E21
  8
0
 10
60.580962286271749
 20
54.646035094836691
 30
0.0
  0
VERTEX
  5
3E22
  8
0
 10
60.527752508932622
 20
54.447619363540348
 30
0.0
  0
VERTEX
  5
3E23
  8
0
 10
60.464350486637443
 20
54.254678715074959
 30
0.0
  0
VERTEX
  5
3E24
  8
0
 10
60.390852824757239
 20
54.066591513519278
 30
0.0
  0
VERTEX
  5
3E25
  8
0
 10
60.21344679035434
 20
53.703808892729683
 30
0.0
  0
VERTEX
  5
3E26
  8
0
 10
60.108476164272808
 20
53.527708100495552
 30
0.0
  0
VERTEX
  5
3E27
  8
0
 10
59.993516850236908
 20
53.357244849352192
 30
0.0
  0
VERTEX
  5
3E28
  8
0
 10
59.867817788595119
 20
53.191712651900069
 30
0.0
  0
VERTEX
  5
3E29
  8
0
 10
59.731759182397752
 20
53.032200466476041
 30
0.0
  0
VERTEX
  5
3E2A
  8
0
 10
59.575166542648049
 20
52.869198620800603
 30
0.0
  0
VERTEX
  5
3E2B
  8
0
 10
59.405890835213491
 20
52.713562838083128
 30
0.0
  0
SEQEND
  5
3E2C
  8
0
  0
LINE
  5
35EF
  8
0
 10
58.732050807568889
 20
55.500000000000057
 30
0.0
 11
57.86602540378442
 21
57.000000000000057
 31
0.0
  0
LINE
  5
35F0
  8
0
 10
55.267949192431097
 20
55.500000000000057
 30
0.0
 11
56.13397459621558
 21
54.00000000000005
 31
0.0
  0
LINE
  5
35F1
  8
0
 10
56.13397459621558
 20
57.000000000000057
 30
0.0
 11
55.267949192431097
 21
55.500000000000057
 31
0.0
  0
LINE
  5
35F2
  8
0
 10
57.86602540378442
 20
54.00000000000005
 30
0.0
 11
58.732050807568889
 21
55.500000000000057
 31
0.0
  0
LINE
  5
35F3
  8
0
 10
56.13397459621558
 20
54.00000000000005
 30
0.0
 11
57.86602540378442
 21
54.00000000000005
 31
0.0
  0
LINE
  5
35F4
  8
0
 10
57.86602540378442
 20
57.000000000000057
 30
0.0
 11
56.13397459621558
 21
57.000000000000057
 31
0.0
  0
LINE
  5
37AB
  8
2
 10
121.59999999999999
 20
57.5
 30
0.0
 11
133.80000000000001
 21
57.5
 31
0.0
  0
LINE
  5
37AC
  8
2
 10
133.80000000000001
 20
53.5
 30
0.0
 11
121.59999999999999
 21
53.5
 31
0.0
  0
ARC
  5
37AE
  8
2
 10
121.59999999999999
 20
57.699999999999989
 30
0.0
 40
0.1999999999999993
 50
249.4439547804152
 51
270.0
  0
ARC
  5
37AF
  8
2
 10
121.59999999999999
 20
53.300000000000011
 30
0.0
 40
0.2000000000000028
 50
90.0
 51
110.5560452195883
  0
LINE
  5
37B0
  8
2
 10
121.59999999999999
 20
53.5
 30
0.0
 11
121.59999999999999
 21
57.5
 31
0.0
  0
LINE
  5
37B1
  8
2
 10
121.5297753116823
 20
53.487265835513817
 30
0.0
 11
121.12977531168229
 21
53.33726583551379
 31
0.0
  0
LINE
  5
37B2
  8
2
 10
121.12977531168229
 20
57.66273416448621
 30
0.0
 11
121.5297753116823
 21
57.512734164486183
 31
0.0
  0
ARC
  5
37B3
  8
2
 10
121.2
 20
57.850000000000023
 30
0.0
 40
0.1999999999999996
 50
180.0
 51
249.44395478041869
  0
ARC
  5
37B4
  8
2
 10
121.2
 20
53.14999999999997
 30
0.0
 40
0.1999999999999993
 50
110.55604521958131
 51
180.0
  0
ARC
  5
37B5
  8
2
 10
117.40000000000001
 20
58.600000000000023
 30
0.0
 40
0.399999999999995
 50
90.0
 51
180.0
  0
ARC
  5
37B6
  8
2
 10
117.40000000000001
 20
52.399999999999977
 30
0.0
 40
0.4000000000000057
 50
180.0
 51
270.0
  0
LINE
  5
37B7
  8
2
 10
121.0
 20
52.0
 30
0.0
 11
121.0
 21
59.0
 31
0.0
  0
LINE
  5
37B8
  8
2
 10
133.80000000000001
 20
57.070499999999981
 30
0.0
 11
123.09999999999999
 21
57.070499999999981
 31
0.0
  0
LINE
  5
37B9
  8
2
 10
123.09999999999999
 20
57.5
 30
0.0
 11
123.09999999999999
 21
53.5
 31
0.0
  0
LINE
  5
37BA
  8
2
 10
133.80000000000001
 20
53.929500000000019
 30
0.0
 11
123.09999999999999
 21
53.929500000000019
 31
0.0
  0
LINE
  5
37BB
  8
2
 10
137.0
 20
52.713562838083192
 30
0.0
 11
137.0
 21
59.181377835576711
 31
0.0
  0
LINE
  5
37BC
  8
2
 10
137.0
 20
59.181377835576711
 30
0.0
 11
143.82133806994699
 21
59.181377835576711
 31
0.0
  0
LINE
  5
37BD
  8
2
 10
121.0
 20
52.0
 30
0.0
 11
117.0
 21
52.0
 31
0.0
  0
LINE
  5
37BE
  8
2
 10
117.0
 20
59.0
 30
0.0
 11
121.0
 21
59.0
 31
0.0
  0
LINE
  5
37BF
  8
2
 10
110.1786619300529
 20
59.181377835576711
 30
0.0
 11
117.0
 21
59.181377835576711
 31
0.0
  0
LINE
  5
37C0
  8
2
 10
117.0
 20
59.181377835576711
 30
0.0
 11
117.0
 21
52.713562838090752
 31
0.0
  0
LINE
  5
38DB
  8
2
 10
133.80000000000001
 20
81.000000002848267
 30
0.0
 11
133.80000000000001
 21
87.99999999715115
 31
0.0
  0
LINE
  5
38DC
  8
2
 10
133.80000000000001
 20
87.99999999715115
 30
0.0
 11
136.94226497472559
 21
87.999999997151164
 31
0.0
  0
LINE
  5
38DD
  8
2
 10
136.9422649747253
 20
81.000000002848267
 30
0.0
 11
133.80000000000001
 21
81.000000002848267
 31
0.0
  0
LINE
  5
38DE
  8
2
 10
137.0
 20
81.100000000000335
 30
0.0
 11
136.9422649747253
 21
81.000000002848267
 31
0.0
  0
ARC
  5
38DF
  8
2
 10
131.8876445983301
 20
82.750000001424453
 30
0.0
 40
5.054620376395234
 50
339.74384199953931
 51
20.256158000455471
  0
ARC
  5
38E0
  8
2
 10
131.8876445983301
 20
86.249999998575575
 30
0.0
 40
5.054620376395234
 50
339.74384199954437
 51
20.256158000460658
  0
LINE
  5
38E1
  8
2
 10
136.62965758380949
 20
84.500000000000014
 30
0.0
 11
133.80000000000001
 21
84.500000000000014
 31
0.0
  0
LINE
  5
38E2
  8
2
 10
137.0
 20
87.899999999999679
 30
0.0
 11
136.94226497472559
 21
87.999999997151164
 31
0.0
  0
LINE
  5
38E3
  8
2
 10
133.80000000000001
 20
52.000000002848282
 30
0.0
 11
133.80000000000001
 21
58.99999999715115
 31
0.0
  0
LINE
  5
38E4
  8
2
 10
133.80000000000001
 20
58.99999999715115
 30
0.0
 11
136.94226497472559
 21
58.999999997151171
 31
0.0
  0
LINE
  5
38E5
  8
2
 10
136.9422649747253
 20
52.000000002848267
 30
0.0
 11
133.80000000000001
 21
52.000000002848282
 31
0.0
  0
LINE
  5
38E6
  8
2
 10
137.0
 20
52.10000000000035
 30
0.0
 11
136.9422649747253
 21
52.000000002848267
 31
0.0
  0
ARC
  5
38E7
  8
2
 10
131.8876445983301
 20
53.750000001424461
 30
0.0
 40
5.054620376395234
 50
339.74384199953943
 51
20.256158000455539
  0
ARC
  5
38E8
  8
2
 10
131.8876445983301
 20
57.249999998575582
 30
0.0
 40
5.054620376395234
 50
339.74384199954437
 51
20.256158000460658
  0
LINE
  5
38E9
  8
2
 10
136.62965758380949
 20
55.500000000000007
 30
0.0
 11
133.80000000000001
 21
55.5
 31
0.0
  0
LINE
  5
38EA
  8
2
 10
137.0
 20
58.899999999999679
 30
0.0
 11
136.94226497472559
 21
58.999999997151171
 31
0.0
  0
LINE
  5
38EB
  8
2
 10
133.80000000000001
 20
86.070499999999996
 30
0.0
 11
123.09999999999999
 21
86.070499999999996
 31
0.0
  0
ENDSEC
  0
EOF
