  0
SECTION
  2
HEADER
  9
$ACADVER
  1
AC1009
  9
$INSBASE
 10
0.0
 20
0.0
 30
0.0
  9
$EXTMIN
 10
0.0
 20
-2.960436562073669
 30
0.0
  9
$EXTMAX
 10
287.7371233666517
 20
194.81195719693511
 30
0.0
  9
$LIMMIN
 10
0.0
 20
0.0
  9
$LIMMAX
 10
385.0
 20
270.0
  9
$ORTHOMODE
 70
     1
  9
$REGENMODE
 70
     1
  9
$FILLMODE
 70
     1
  9
$QTEXTMODE
 70
     0
  9
$MIRRTEXT
 70
     0
  9
$DRAGMODE
 70
     2
  9
$LTSCALE
 40
10.0
  9
$OSMODE
 70
  3071
  9
$ATTMODE
 70
     1
  9
$TEXTSIZE
 40
0.2
  9
$TRACEWID
 40
0.05
  9
$TEXTSTYLE
  7
STANDARD
  9
$CLAYER
  8
0
  9
$CELTYPE
  6
BYLAYER
  9
$CECOLOR
 62
   256
  9
$DIMSCALE
 40
1.0
  9
$DIMASZ
 40
3.0
  9
$DIMEXO
 40
0.0625
  9
$DIMDLI
 40
0.38
  9
$DIMRND
 40
0.0
  9
$DIMDLE
 40
0.0
  9
$DIMEXE
 40
0.18
  9
$DIMTP
 40
0.0
  9
$DIMTM
 40
0.0
  9
$DIMTXT
 40
3.0
  9
$DIMCEN
 40
0.09
  9
$DIMTSZ
 40
0.0
  9
$DIMTOL
 70
     0
  9
$DIMLIM
 70
     0
  9
$DIMTIH
 70
     1
  9
$DIMTOH
 70
     1
  9
$DIMSE1
 70
     0
  9
$DIMSE2
 70
     0
  9
$DIMTAD
 70
     0
  9
$DIMZIN
 70
     0
  9
$DIMBLK
  1

  9
$DIMASO
 70
     1
  9
$DIMSHO
 70
     1
  9
$DIMPOST
  1

  9
$DIMAPOST
  1

  9
$DIMALT
 70
     0
  9
$DIMALTD
 70
     2
  9
$DIMALTF
 40
25.399999999999999
  9
$DIMLFAC
 40
1.0
  9
$DIMTOFL
 70
     0
  9
$DIMTVP
 40
0.0
  9
$DIMTIX
 70
     0
  9
$DIMSOXD
 70
     0
  9
$DIMSAH
 70
     0
  9
$DIMBLK1
  1

  9
$DIMBLK2
  1

  9
$DIMSTYLE
  2
STANDARD
  9
$DIMCLRD
 70
     0
  9
$DIMCLRE
 70
     0
  9
$DIMCLRT
 70
     0
  9
$DIMTFAC
 40
1.0
  9
$DIMGAP
 40
0.09
  9
$LUNITS
 70
     2
  9
$LUPREC
 70
     4
  9
$SKETCHINC
 40
0.1
  9
$FILLETRAD
 40
0.0
  9
$AUNITS
 70
     0
  9
$AUPREC
 70
     0
  9
$MENU
  1
E:\r13\win\SUPPORT\ACAD
  9
$ELEVATION
 40
0.0
  9
$PELEVATION
 40
0.0
  9
$THICKNESS
 40
0.0
  9
$LIMCHECK
 70
     0
  9
$BLIPMODE
 70
     0
  9
$CHAMFERA
 40
0.0
  9
$CHAMFERB
 40
0.0
  9
$SKPOLY
 70
     0
  9
$TDCREATE
 40
2450364.4513542829
  9
$TDUPDATE
 40
2456598.6872465741
  9
$TDINDWG
 40
0.0018526389
  9
$TDUSRTIMER
 40
0.0018526389
  9
$USRTIMER
 70
     1
  9
$ANGBASE
 50
0.0
  9
$ANGDIR
 70
     0
  9
$PDMODE
 70
     0
  9
$PDSIZE
 40
0.0
  9
$PLINEWID
 40
0.0
  9
$COORDS
 70
     1
  9
$SPLFRAME
 70
     0
  9
$SPLINETYPE
 70
     6
  9
$SPLINESEGS
 70
     8
  9
$ATTDIA
 70
     0
  9
$ATTREQ
 70
     1
  9
$HANDLING
 70
     1
  9
$HANDSEED
  5
27C
  9
$SURFTAB1
 70
     6
  9
$SURFTAB2
 70
     6
  9
$SURFTYPE
 70
     6
  9
$SURFU
 70
     6
  9
$SURFV
 70
     6
  9
$UCSNAME
  2

  9
$UCSORG
 10
0.0
 20
0.0
 30
0.0
  9
$UCSXDIR
 10
1.0
 20
0.0
 30
0.0
  9
$UCSYDIR
 10
0.0
 20
1.0
 30
0.0
  9
$PUCSNAME
  2

  9
$PUCSORG
 10
0.0
 20
0.0
 30
0.0
  9
$PUCSXDIR
 10
1.0
 20
0.0
 30
0.0
  9
$PUCSYDIR
 10
0.0
 20
1.0
 30
0.0
  9
$USERI1
 70
     3
  9
$USERI2
 70
     1
  9
$USERI3
 70
     1
  9
$USERI4
 70
     0
  9
$USERI5
 70
     0
  9
$USERR1
 40
1.0
  9
$USERR2
 40
3.0
  9
$USERR3
 40
3.0
  9
$USERR4
 40
3.0
  9
$USERR5
 40
10.0
  9
$WORLDVIEW
 70
     1
  9
$SHADEDGE
 70
     3
  9
$SHADEDIF
 70
    70
  9
$TILEMODE
 70
     1
  9
$MAXACTVP
 70
    16
  9
$PLIMCHECK
 70
     0
  9
$PEXTMIN
 10
1.0000000000000000E+020
 20
1.0000000000000000E+020
 30
1.0000000000000000E+020
  9
$PEXTMAX
 10
-1.0000000000000000E+020
 20
-1.0000000000000000E+020
 30
-1.0000000000000000E+020
  9
$PLIMMIN
 10
0.0
 20
0.0
  9
$PLIMMAX
 10
12.0
 20
9.0
  9
$UNITMODE
 70
     0
  9
$VISRETAIN
 70
     0
  9
$PLINEGEN
 70
     0
  9
$PSLTSCALE
 70
     0
  0
ENDSEC
  0
SECTION
  2
TABLES
  0
TABLE
  2
VPORT
 70
     1
  0
VPORT
  2
*ACTIVE
 70
     0
 10
0.0
 20
0.0
 11
1.0
 21
1.0
 12
192.49412581440311
 22
169.9063198933564
 13
0.0
 23
0.0
 14
5.0
 24
5.0
 15
0.0
 25
0.0
 16
0.0
 26
0.0
 36
1.0
 17
0.0
 27
0.0
 37
0.0
 40
348.89937369551939
 41
1.831871345029239
 42
50.0
 43
0.0
 44
0.0
 50
0.0
 51
0.0
 71
     0
 72
   100
 73
     1
 74
     0
 75
     0
 76
     0
 77
     0
 78
     0
  0
ENDTAB
  0
TABLE
  2
LTYPE
 70
     5
  0
LTYPE
  2
CONTINUOUS
 70
     0
  3
Solid Line
 72
    65
 73
     0
 40
0.0
  0
LTYPE
  2
CENTER
 70
     0
  3
____ _ ____ _ ____ _ ____ _ ____ _ ____ _ ____
 72
    65
 73
     4
 40
2.0
 49
1.25
 49
-0.25
 49
0.25
 49
-0.25
  0
LTYPE
  2
HIDDEN
 70
     0
  3
_ _ _ _ _ _ _ _ _ _ _ _ _ _ _ _ _ _ _ _ _ _ _
 72
    65
 73
     2
 40
0.375
 49
0.25
 49
-0.125
  0
LTYPE
  2
TRATTEGGIATA
 70
     0
  3
__ __ __ __ __ __ __ __ __ __ __ __ __ __ __ __
 72
    65
 73
     2
 40
0.75
 49
0.5
 49
-0.25
  0
LTYPE
  2
PHANTOM2
 70
     0
  3
___ _ _ ___ _ _ ___ _ _ ___ _ _
 72
    65
 73
     6
 40
1.25
 49
0.625
 49
-0.125
 49
0.125
 49
-0.125
 49
0.125
 49
-0.125
  0
ENDTAB
  0
TABLE
  2
LAYER
 70
     4
  0
LAYER
  2
0
 70
     0
 62
     7
  6
CONTINUOUS
  0
LAYER
  2
1
 70
     0
 62
     1
  6
CENTER
  0
LAYER
  2
2
 70
     0
 62
     2
  6
HIDDEN
  0
LAYER
  2
3
 70
     0
 62
     3
  6
CONTINUOUS
  0
ENDTAB
  0
TABLE
  2
STYLE
 70
     2
  0
STYLE
  2
STANDARD
 70
     0
 40
0.0
 41
1.0
 50
0.0
 71
     0
 42
0.2
  3
SIMPLEX
  4
BIGFONT
  0
STYLE
  2
STANDARD1
 70
     0
 40
0.0
 41
1.0
 50
0.0
 71
     0
 42
3.0
  3
txt
  4

  0
ENDTAB
  0
TABLE
  2
VIEW
 70
     0
  0
ENDTAB
  0
TABLE
  2
UCS
 70
     0
  0
ENDTAB
  0
TABLE
  2
APPID
 70
     4
  0
APPID
  2
ACAD
 70
     0
  0
APPID
  2
ACAD_EXEMPT_FROM_CAD_STANDARDS
 70
     0
  0
APPID
  2
ACAD_MLEADERVER
 70
     0
  0
APPID
  2
ACAD_NAV_VCDISPLAY
 70
     0
  0
ENDTAB
  0
TABLE
  2
DIMSTYLE
 70
     1
  0
DIMSTYLE
  2
STANDARD
 70
     0
  3

  4

  5

  6

  7

 40
1.0
 41
0.18
 42
0.0625
 43
0.38
 44
0.18
 45
0.0
 46
0.0
 47
0.0
 48
0.0
140
0.18
141
0.09
142
0.0
143
25.399999999999999
144
1.0
145
0.0
146
1.0
147
0.09
 71
     0
 72
     0
 73
     1
 74
     1
 75
     0
 76
     0
 77
     0
 78
     0
170
     0
171
     2
172
     0
173
     0
174
     0
175
     0
176
     0
177
     0
178
     0
  0
ENDTAB
  0
ENDSEC
  0
SECTION
  2
BLOCKS
  0
BLOCK
  8
0
  2
$MODEL_SPACE
 70
     0
 10
0.0
 20
0.0
 30
0.0
  3
$MODEL_SPACE
  1

  0
ENDBLK
  5
110
  8
0
  0
BLOCK
 67
     1
  8
0
  2
$PAPER_SPACE
 70
     0
 10
0.0
 20
0.0
 30
0.0
  3
$PAPER_SPACE
  1

  0
ENDBLK
  5
10E
 67
     1
  8
0
  0
ENDSEC
  0
SECTION
  2
ENTITIES
  0
LINE
  5
37
  8
0
 10
169.4871233666517
 20
170.86334365580359
 30
0.0
 11
55.487123366651609
 21
170.8633436558039
 31
0.0
  0
LINE
  5
38
  8
0
 10
165.48712336665159
 20
189.66334365580349
 30
0.0
 11
59.487123366651673
 21
189.66334365580391
 31
0.0
  0
LINE
  5
39
  8
1
 10
65.737123366651673
 20
171.5868775391389
 30
0.0
 11
65.737123366651673
 21
149.95347721195671
 31
0.0
  0
LINE
  5
3A
  8
0
 10
55.487123366651609
 20
185.6633436558038
 30
0.0
 11
55.487123366651609
 21
155.6633436558038
 31
0.0
  0
LINE
  5
3B
  8
1
 10
54.220303923793118
 20
163.39334365580379
 30
0.0
 11
77.53120876687106
 21
163.39334365580379
 31
0.0
  0
CIRCLE
  5
3C
  8
2
 10
65.737123366651673
 20
163.39334365580379
 30
0.0
 40
3.25
  0
LINE
  5
3D
  8
0
 10
56.487123366651552
 20
154.66334365580369
 30
0.0
 11
168.48712336665139
 21
154.66334365580369
 31
0.0
  0
ARC
  5
3E
  8
0
 10
56.487123366651552
 20
155.6633436558038
 30
0.0
 40
1.0
 50
180.0
 51
270.0
  0
ARC
  5
3F
  8
0
 10
59.487123366651673
 20
185.6633436558038
 30
0.0
 40
4.0
 50
90.0
 51
180.0
  0
LINE
  5
40
  8
1
 10
159.23712336665159
 20
173.5666162170379
 30
0.0
 11
159.23712336665159
 21
149.95347721195671
 31
0.0
  0
LINE
  5
43
  8
1
 10
112.4871233666515
 20
194.81195719693511
 30
0.0
 11
112.4871233666515
 21
150.58652747710289
 31
0.0
  0
CIRCLE
  5
44
  8
0
 10
102.4871233666515
 20
180.26334365580371
 30
0.0
 40
1.5
  0
CIRCLE
  5
45
  8
0
 10
117.4871233666515
 20
180.26334365580371
 30
0.0
 40
1.5
  0
CIRCLE
  5
46
  8
0
 10
107.4871233666515
 20
180.26334365580371
 30
0.0
 40
1.5
  0
CIRCLE
  5
47
  8
0
 10
112.4871233666515
 20
180.26334365580371
 30
0.0
 40
1.5
  0
CIRCLE
  5
48
  8
0
 10
122.4871233666515
 20
180.26334365580371
 30
0.0
 40
1.5
  0
LINE
  5
49
  8
0
 10
169.4871233666517
 20
185.6633436558038
 30
0.0
 11
169.4871233666517
 21
155.6633436558038
 31
0.0
  0
LINE
  5
4B
  8
1
 10
170.75394280950991
 20
163.39334365580379
 30
0.0
 11
147.4430379664322
 21
163.39334365580379
 31
0.0
  0
ARC
  5
4C
  8
0
 10
168.48712336665139
 20
155.6633436558038
 30
0.0
 40
1.0
 50
270.0
 51
0.0
  0
ARC
  5
4D
  8
0
 10
165.48712336665159
 20
185.6633436558038
 30
0.0
 40
4.0
 50
0.0
 51
90.0
  0
LINE
  5
4E
  8
0
 10
168.48712336665139
 20
104.2633436558036
 30
0.0
 11
56.487123366651552
 21
104.2633436558036
 31
0.0
  0
LINE
  5
4F
  8
0
 10
55.487123366651609
 20
71.263343655803723
 30
0.0
 11
55.487123366651609
 21
103.2633436558036
 31
0.0
  0
LINE
  5
50
  8
0
 10
75.487123366651616
 20
71.263343655803723
 30
0.0
 11
55.487123366651609
 21
71.263343655803723
 31
0.0
  0
LINE
  5
51
  8
2
 10
58.487123366651439
 20
82.263343655803695
 30
0.0
 11
58.487123366651439
 21
101.56334365580371
 31
0.0
  0
LINE
  5
52
  8
2
 10
72.987123366651616
 20
82.263343655803695
 30
0.0
 11
72.987123366651616
 21
101.56334365580371
 31
0.0
  0
LINE
  5
54
  8
2
 10
58.487123366651439
 20
82.263343655803695
 30
0.0
 11
72.987123366651616
 21
82.263343655803666
 31
0.0
  0
ARC
  5
55
  8
0
 10
56.487123366651552
 20
103.2633436558036
 30
0.0
 40
1.0
 50
90.0
 51
179.99999999999989
  0
LINE
  5
56
  8
2
 10
55.487123366651609
 20
101.56334365580371
 30
0.0
 11
58.487123366651439
 21
101.56334365580371
 31
0.0
  0
LINE
  5
57
  8
2
 10
75.487123366651616
 20
101.56334365580371
 30
0.0
 11
72.987123366651616
 21
101.56334365580371
 31
0.0
  0
LINE
  5
58
  8
1
 10
112.4871233666515
 20
107.5133621826718
 30
0.0
 11
112.4871233666515
 21
76.363530463986081
 31
0.0
  0
LINE
  5
5A
  8
0
 10
169.4871233666517
 20
71.263343655803723
 30
0.0
 11
169.4871233666517
 21
103.2633436558036
 31
0.0
  0
LINE
  5
5B
  8
0
 10
149.4871233666517
 20
71.263343655803723
 30
0.0
 11
169.4871233666517
 21
71.263343655803723
 31
0.0
  0
LINE
  5
5C
  8
3
 10
149.4871233666517
 20
79.663343655803772
 30
0.0
 11
169.4871233666517
 21
79.663343655803772
 31
0.0
  0
LINE
  5
5D
  8
3
 10
149.4871233666517
 20
79.263343655803681
 30
0.0
 11
169.4871233666517
 21
79.263343655803681
 31
0.0
  0
ARC
  5
5E
  8
0
 10
168.48712336665139
 20
103.2633436558036
 30
0.0
 40
1.0
 50
0.0
 51
90.0
  0
ARC
  5
5F
  8
0
 10
277.69258302151587
 20
80.922398037211124
 30
0.0
 40
25.0
 50
110.9908212671527
 51
183.42065216725371
  0
ARC
  5
62
  8
0
 10
277.69258302151587
 20
80.922398037211124
 30
0.0
 40
22.600000000000001
 50
113.3445350979373
 51
185.48201984930091
  0
LINE
  5
63
  8
0
 10
271.73712336665142
 20
71.263343655803723
 30
0.0
 11
252.73712336665159
 21
71.263343655803723
 31
0.0
  0
LINE
  5
64
  8
0
 10
271.73712336665142
 20
71.263343655803723
 30
0.0
 11
271.73712336665142
 21
82.763343655802956
 31
0.0
  0
ARC
  5
65
  8
0
 10
287.65993699665722
 20
81.193628361839785
 30
0.0
 40
16.0
 50
94.742390487584387
 51
174.36981463252769
  0
LINE
  5
66
  8
0
 10
285.73712336665142
 20
104.2633436558036
 30
0.0
 11
268.73712336665147
 21
104.2633436558036
 31
0.0
  0
ARC
  5
67
  8
0
 10
286.33712336665138
 20
98.539858906736924
 30
0.0
 40
1.4010066800444021
 50
270.0
 51
2.1721472626907419
  0
ARC
  5
68
  8
0
 10
285.73712336665142
 20
102.2633436558036
 30
0.0
 40
2.0
 50
0.0
 51
90.0
  0
LINE
  5
69
  8
0
 10
287.7371233666517
 20
98.486757894232369
 30
0.0
 11
287.7371233666517
 21
102.2633436558036
 31
0.0
  0
LINE
  5
6A
  8
1
 10
262.48712336665147
 20
67.455623652811838
 30
0.0
 11
262.48712336665147
 21
106.77259843626869
 31
0.0
  0
LINE
  5
6B
  8
0
 10
252.73712336665159
 20
71.263343655803723
 30
0.0
 11
252.73712336665159
 21
78.763343655803723
 31
0.0
  0
LINE
  5
6C
  8
0
 10
255.19595029174661
 20
78.763343655803723
 30
0.0
 11
252.73712336665159
 21
78.763343655803723
 31
0.0
  0
LINE
  5
6D
  8
0
 10
255.14186315306031
 20
79.430743447692805
 30
0.0
 11
252.73712336665159
 21
79.430743447692805
 31
0.0
  0
LINE
  5
6E
  8
2
 10
255.1323998474376
 20
82.263343655803695
 30
0.0
 11
268.73712336665147
 21
82.263343655803695
 31
0.0
  0
LINE
  5
6F
  8
0
 10
268.73712336665147
 20
104.2633436558036
 30
0.0
 11
268.73712336665147
 21
101.6723315881914
 31
0.0
  0
LINE
  5
70
  8
2
 10
268.73712336665147
 20
101.6723315881914
 30
0.0
 11
268.73712336665147
 21
82.263343655803695
 31
0.0
  0
LINE
  5
71
  8
0
 10
75.487123366651616
 20
71.263343655803723
 30
0.0
 11
75.487123366651616
 21
79.663343655803772
 31
0.0
  0
LINE
  5
72
  8
2
 10
151.98712336665159
 20
82.263343655803695
 30
0.0
 11
151.98712336665159
 21
101.56334365580371
 31
0.0
  0
LINE
  5
73
  8
2
 10
166.4871233666515
 20
82.263343655803695
 30
0.0
 11
166.4871233666515
 21
101.56334365580371
 31
0.0
  0
LINE
  5
74
  8
2
 10
151.98712336665159
 20
82.263343655803695
 30
0.0
 11
166.4871233666515
 21
82.263343655803666
 31
0.0
  0
LINE
  5
76
  8
2
 10
149.4871233666517
 20
101.56334365580371
 30
0.0
 11
151.98712336665159
 21
101.56334365580371
 31
0.0
  0
LINE
  5
77
  8
2
 10
169.4871233666517
 20
101.56334365580371
 30
0.0
 11
166.4871233666515
 21
101.56334365580371
 31
0.0
  0
LINE
  5
78
  8
3
 10
75.487123366651616
 20
79.263343655803681
 30
0.0
 11
55.487123366651609
 21
79.263343655803681
 31
0.0
  0
LINE
  5
79
  8
3
 10
75.487123366651616
 20
79.663343655803772
 30
0.0
 11
55.487123366651609
 21
79.663343655803772
 31
0.0
  0
CIRCLE
  5
7A
  8
2
 10
159.23712336665159
 20
163.39334365580379
 30
0.0
 40
3.25
  0
LINE
  5
7B
  8
0
 10
149.4871233666517
 20
79.663343655803772
 30
0.0
 11
75.487123366651616
 21
79.663343655803772
 31
0.0
  0
LINE
  5
7C
  8
3
 10
75.487123366651616
 20
86.663343655803658
 30
0.0
 11
75.487123366651616
 21
104.2633436558036
 31
0.0
  0
LINE
  5
7D
  8
3
 10
149.4871233666517
 20
86.663343655803658
 30
0.0
 11
149.4871233666517
 21
104.2633436558036
 31
0.0
  0
LINE
  5
7E
  8
0
 10
149.4871233666517
 20
71.263343655803723
 30
0.0
 11
149.4871233666517
 21
79.663343655803772
 31
0.0
  0
LINE
  5
7F
  8
0
 10
252.6925830215159
 20
80.922398037211124
 30
0.0
 11
252.6925830215159
 21
88.983343655803665
 31
0.0
  0
LINE
  5
80
  8
0
 10
268.73712336665147
 20
104.2633436558036
 30
0.0
 11
267.97258302151579
 21
104.2633436558036
 31
0.0
  0
ARC
  5
81
  8
0
 10
267.97258302151579
 20
88.983343655803665
 30
0.0
 40
15.279999999999999
 50
90.0
 51
180.0
  0
LINE
  5
82
  8
3
 10
149.4871233666517
 20
170.86334365580379
 30
0.0
 11
149.4871233666517
 21
154.66334365580369
 31
0.0
  0
LINE
  5
83
  8
3
 10
75.487123366651616
 20
170.86334365580379
 30
0.0
 11
75.487123366651616
 21
154.66334365580369
 31
0.0
  0
LINE
  5
84
  8
2
 10
284.73712336665147
 20
98.138852226692507
 30
0.0
 11
284.73712336665147
 21
101.26334365580369
 31
0.0
  0
LINE
  5
85
  8
2
 10
286.33712336665138
 20
97.138852226692464
 30
0.0
 11
285.73712336665182
 21
97.138852226692464
 31
0.0
  0
LINE
  5
86
  8
2
 10
284.23712336665142
 20
101.76334365580369
 30
0.0
 11
268.73712336665147
 21
101.76334365580369
 31
0.0
  0
ARC
  5
87
  8
2
 10
284.23712336665142
 20
101.26334365580369
 30
0.0
 40
0.5
 50
0.0
 51
90.0
  0
ARC
  5
88
  8
2
 10
285.73712336665182
 20
98.138852226692507
 30
0.0
 40
1.0
 50
180.00000000000091
 51
270.0000000000029
  0
CIRCLE
  5
89
  8
2
 10
65.737123366651673
 20
163.39334365580379
 30
0.0
 40
6.0
  0
CIRCLE
  5
8A
  8
2
 10
159.23712336665159
 20
163.39334365580379
 30
0.0
 40
6.0
  0
LINE
  5
8B
  8
2
 10
156.2371233666515
 20
78.763343655803723
 30
0.0
 11
162.7371233666515
 21
78.763343655803723
 31
0.0
  0
LINE
  5
8C
  8
2
 10
156.2371233666515
 20
71.263343655803723
 30
0.0
 11
156.2371233666515
 21
78.763343655803723
 31
0.0
  0
LINE
  5
8D
  8
2
 10
156.2371233666515
 20
78.763343655803723
 30
0.0
 11
153.23712336665159
 21
82.263343655803695
 31
0.0
  0
LINE
  5
8E
  8
2
 10
162.7371233666515
 20
71.263343655803723
 30
0.0
 11
162.7371233666515
 21
78.763343655803723
 31
0.0
  0
LINE
  5
8F
  8
2
 10
162.7371233666515
 20
78.763343655803723
 30
0.0
 11
165.73712336665159
 21
82.263343655803695
 31
0.0
  0
LINE
  5
90
  8
2
 10
68.737123366651502
 20
78.763343655803723
 30
0.0
 11
62.237123366651439
 21
78.763343655803723
 31
0.0
  0
LINE
  5
91
  8
2
 10
68.737123366651502
 20
71.263343655803723
 30
0.0
 11
68.737123366651502
 21
78.763343655803723
 31
0.0
  0
LINE
  5
92
  8
2
 10
68.737123366651502
 20
78.763343655803723
 30
0.0
 11
71.737123366651616
 21
82.263343655803695
 31
0.0
  0
LINE
  5
93
  8
2
 10
62.237123366651439
 20
71.263343655803723
 30
0.0
 11
62.237123366651439
 21
78.763343655803723
 31
0.0
  0
LINE
  5
94
  8
2
 10
62.237123366651439
 20
78.763343655803723
 30
0.0
 11
59.237123366651609
 21
82.263343655803695
 31
0.0
  0
LINE
  5
96
  8
1
 10
65.737123366651673
 20
106.3085458526304
 30
0.0
 11
65.737123366651673
 21
69.319700278963396
 31
0.0
  0
LINE
  5
97
  8
1
 10
159.23712336665159
 20
106.3085458526304
 30
0.0
 11
159.23712336665159
 21
69.319700278963396
 31
0.0
  0
LINE
  5
1AB
  8
2
 10
265.73712336665147
 20
78.763343655803723
 30
0.0
 11
259.23712336665147
 21
78.763343655803723
 31
0.0
  0
LINE
  5
1AC
  8
2
 10
265.73712336665147
 20
71.263343655803766
 30
0.0
 11
265.73712336665147
 21
78.763343655803723
 31
0.0
  0
LINE
  5
1AD
  8
2
 10
265.73712336665147
 20
78.763343655803723
 30
0.0
 11
268.73712336665147
 21
82.263343655803737
 31
0.0
  0
LINE
  5
1AE
  8
2
 10
259.23712336665147
 20
71.263343655803723
 30
0.0
 11
259.23712336665147
 21
78.763343655803723
 31
0.0
  0
LINE
  5
1AF
  8
2
 10
259.23712336665147
 20
78.763343655803723
 30
0.0
 11
256.23712336665147
 21
82.263343655803737
 31
0.0
  0
TEXT
  5
219
  8
0
 62
     3
 10
0.0
 20
0.0
 30
0.0
 40
10.0
  1
ESH110S-GR
  7
STANDARD1
  0
ENDSEC
  0
EOF
