  0
SECTION
  2
HEADER
  9
$ACADVER
  1
AC1009
  9
$INSBASE
 10
0.0
 20
0.0
 30
0.0
  9
$EXTMIN
 10
0.0
 20
-2.960436562073669
 30
0.0
  9
$EXTMAX
 10
220.0
 20
180.0
 30
0.0
  9
$LIMMIN
 10
0.0
 20
0.0
  9
$LIMMAX
 10
375.0
 20
278.0
  9
$ORTHOMODE
 70
     1
  9
$REGENMODE
 70
     1
  9
$FILLMODE
 70
     1
  9
$QTEXTMODE
 70
     0
  9
$MIRRTEXT
 70
     0
  9
$DRAGMODE
 70
     2
  9
$LTSCALE
 40
5.0
  9
$OSMODE
 70
    37
  9
$ATTMODE
 70
     1
  9
$TEXTSIZE
 40
0.2
  9
$TRACEWID
 40
0.05
  9
$TEXTSTYLE
  7
STANDARD
  9
$CLAYER
  8
0
  9
$CELTYPE
  6
BYLAYER
  9
$CECOLOR
 62
   256
  9
$DIMSCALE
 40
1.0
  9
$DIMASZ
 40
3.0
  9
$DIMEXO
 40
1.0
  9
$DIMDLI
 40
6.0
  9
$DIMRND
 40
0.0
  9
$DIMDLE
 40
0.0
  9
$DIMEXE
 40
1.0
  9
$DIMTP
 40
495.0
  9
$DIMTM
 40
0.0
  9
$DIMTXT
 40
3.0
  9
$DIMCEN
 40
0.0
  9
$DIMTSZ
 40
0.0
  9
$DIMTOL
 70
     0
  9
$DIMLIM
 70
     0
  9
$DIMTIH
 70
     0
  9
$DIMTOH
 70
     0
  9
$DIMSE1
 70
     0
  9
$DIMSE2
 70
     0
  9
$DIMTAD
 70
     1
  9
$DIMZIN
 70
     0
  9
$DIMBLK
  1

  9
$DIMASO
 70
     1
  9
$DIMSHO
 70
     0
  9
$DIMPOST
  1

  9
$DIMAPOST
  1

  9
$DIMALT
 70
     0
  9
$DIMALTD
 70
     2
  9
$DIMALTF
 40
25.399999999999999
  9
$DIMLFAC
 40
1.0
  9
$DIMTOFL
 70
     1
  9
$DIMTVP
 40
0.0
  9
$DIMTIX
 70
     1
  9
$DIMSOXD
 70
     0
  9
$DIMSAH
 70
     0
  9
$DIMBLK1
  1

  9
$DIMBLK2
  1

  9
$DIMSTYLE
  2
STANDARD
  9
$DIMCLRD
 70
     0
  9
$DIMCLRE
 70
     0
  9
$DIMCLRT
 70
     4
  9
$DIMTFAC
 40
1.0
  9
$DIMGAP
 40
1.0
  9
$LUNITS
 70
     2
  9
$LUPREC
 70
     1
  9
$SKETCHINC
 40
0.1
  9
$FILLETRAD
 40
0.0
  9
$AUNITS
 70
     0
  9
$AUPREC
 70
     1
  9
$MENU
  1
C:\R13\WIN\SUPPORT\ACAD-I
  9
$ELEVATION
 40
0.0
  9
$PELEVATION
 40
0.0
  9
$THICKNESS
 40
0.0
  9
$LIMCHECK
 70
     0
  9
$BLIPMODE
 70
     0
  9
$CHAMFERA
 40
0.0
  9
$CHAMFERB
 40
0.0
  9
$SKPOLY
 70
     0
  9
$TDCREATE
 40
2450834.4199027782
  9
$TDUPDATE
 40
2457163.7225379399
  9
$TDINDWG
 40
0.3229700463
  9
$TDUSRTIMER
 40
0.3229700463
  9
$USRTIMER
 70
     1
  9
$ANGBASE
 50
0.0
  9
$ANGDIR
 70
     0
  9
$PDMODE
 70
     0
  9
$PDSIZE
 40
0.0
  9
$PLINEWID
 40
0.0
  9
$COORDS
 70
     1
  9
$SPLFRAME
 70
     0
  9
$SPLINETYPE
 70
     6
  9
$SPLINESEGS
 70
     8
  9
$ATTDIA
 70
     0
  9
$ATTREQ
 70
     1
  9
$HANDLING
 70
     1
  9
$HANDSEED
  5
18750
  9
$SURFTAB1
 70
     6
  9
$SURFTAB2
 70
     6
  9
$SURFTYPE
 70
     6
  9
$SURFU
 70
     6
  9
$SURFV
 70
     6
  9
$UCSNAME
  2

  9
$UCSORG
 10
0.0
 20
0.0
 30
0.0
  9
$UCSXDIR
 10
1.0
 20
0.0
 30
0.0
  9
$UCSYDIR
 10
0.0
 20
1.0
 30
0.0
  9
$PUCSNAME
  2

  9
$PUCSORG
 10
0.0
 20
0.0
 30
0.0
  9
$PUCSXDIR
 10
1.0
 20
0.0
 30
0.0
  9
$PUCSYDIR
 10
0.0
 20
1.0
 30
0.0
  9
$USERI1
 70
     4
  9
$USERI2
 70
     1
  9
$USERI3
 70
     1
  9
$USERI4
 70
     0
  9
$USERI5
 70
     0
  9
$USERR1
 40
1.0
  9
$USERR2
 40
3.0
  9
$USERR3
 40
3.0
  9
$USERR4
 40
3.0
  9
$USERR5
 40
10.0
  9
$WORLDVIEW
 70
     1
  9
$SHADEDGE
 70
     3
  9
$SHADEDIF
 70
    70
  9
$TILEMODE
 70
     1
  9
$MAXACTVP
 70
    16
  9
$PLIMCHECK
 70
     0
  9
$PEXTMIN
 10
1.0000000000000000E+020
 20
1.0000000000000000E+020
 30
1.0000000000000000E+020
  9
$PEXTMAX
 10
-1.0000000000000000E+020
 20
-1.0000000000000000E+020
 30
-1.0000000000000000E+020
  9
$PLIMMIN
 10
0.0
 20
0.0
  9
$PLIMMAX
 10
12.0
 20
9.0
  9
$UNITMODE
 70
     0
  9
$VISRETAIN
 70
     0
  9
$PLINEGEN
 70
     0
  9
$PSLTSCALE
 70
     0
  0
ENDSEC
  0
SECTION
  2
TABLES
  0
TABLE
  2
VPORT
 70
     1
  0
VPORT
  2
*ACTIVE
 70
     0
 10
0.0
 20
0.0
 11
1.0
 21
1.0
 12
245.19230769230771
 22
135.0
 13
0.0
 23
0.0
 14
10.0
 24
10.0
 15
10.0
 25
10.0
 16
0.0
 26
0.0
 36
1.0
 17
0.0
 27
0.0
 37
0.0
 40
270.0
 41
1.816239316239316
 42
50.0
 43
0.0
 44
0.0
 50
0.0
 51
0.0
 71
     0
 72
   100
 73
     1
 74
     0
 75
     0
 76
     0
 77
     0
 78
     0
  0
ENDTAB
  0
TABLE
  2
LTYPE
 70
     4
  0
LTYPE
  2
CONTINUOUS
 70
     0
  3
Solid Line
 72
    65
 73
     0
 40
0.0
  0
LTYPE
  2
CENTER
 70
     0
  3
____ _ ____ _ ____ _ ____ _ ____ _ ____ _ ____
 72
    65
 73
     4
 40
2.0
 49
1.25
 49
-0.25
 49
0.25
 49
-0.25
  0
LTYPE
  2
HIDDEN
 70
     0
  3
__ __ __ __ __ __ __ __ __ __ __ __ __ __ __ __
 72
    65
 73
     2
 40
0.375
 49
0.25
 49
-0.125
  0
LTYPE
  2
PHANTOM2
 70
     0
  3
___ _ _ ___ _ _ ___ _ _ ___ _ _
 72
    65
 73
     6
 40
1.25
 49
0.625
 49
-0.125
 49
0.125
 49
-0.125
 49
0.125
 49
-0.125
  0
ENDTAB
  0
TABLE
  2
LAYER
 70
     4
  0
LAYER
  2
0
 70
     0
 62
     7
  6
CONTINUOUS
  0
LAYER
  2
1
 70
     0
 62
     1
  6
CENTER
  0
LAYER
  2
2
 70
     0
 62
     2
  6
HIDDEN
  0
LAYER
  2
DEFPOINTS
 70
     0
 62
     7
  6
CONTINUOUS
  0
ENDTAB
  0
TABLE
  2
STYLE
 70
     2
  0
STYLE
  2
STANDARD
 70
     0
 40
0.0
 41
1.0
 50
0.0
 71
     0
 42
0.2
  3
SIMPLEX
  4
BIGFONT
  0
STYLE
  2
STANDARD1
 70
     0
 40
0.0
 41
1.0
 50
0.0
 71
     0
 42
3.0
  3
txt
  4

  0
ENDTAB
  0
TABLE
  2
VIEW
 70
     0
  0
ENDTAB
  0
TABLE
  2
UCS
 70
     0
  0
ENDTAB
  0
TABLE
  2
APPID
 70
    41
  0
APPID
  2
ACAD
 70
     0
  0
APPID
  2
GENIUS_GENOBJ_13
 70
     0
  0
APPID
  2
GENIUS_GENODEF_13
 70
     0
  0
APPID
  2
GENIUS_GENOENT_13
 70
     0
  0
APPID
  2
GENIUS_GENOLIS_13
 70
     0
  0
APPID
  2
GENIUS_GENOREF_13
 70
     0
  0
APPID
  2
GENIUS_GENOBJ-N-TIT_13
 70
     0
  0
APPID
  2
GENIUS_GENTITLE_13
 70
     0
  0
APPID
  2
GENIUS_GENZVEED_13
 70
     0
  0
APPID
  2
GENIUS_GENOBJ-N-FIL_13
 70
     0
  0
APPID
  2
GENIUS_GENOBJ-N-CRS_13
 70
     0
  0
APPID
  2
GENIUS_GEFINERT_13
 70
     0
  0
APPID
  2
GENIUS_GENOBJ-F-INER_13
 70
     0
  0
APPID
  2
GENIUS_GENOBJ-N-ZOO_13
 70
     0
  0
APPID
  2
GENIUS_GENZOO_13
 70
     0
  0
APPID
  2
GENIUS_GENOBJ-F-TOL_13
 70
     0
  0
APPID
  2
GENIUS_GENOBJ-N-RSSYM_13
 70
     0
  0
APPID
  2
GENIUS_GENSYMENT_13
 70
     0
  0
APPID
  2
GENIUS_GENBH_13
 70
     0
  0
APPID
  2
GENIUS_GENOBJ-NBEHI-BHF_13
 70
     0
  0
APPID
  2
GENIUS_GENOBJ-NBEHI-BHB_13
 70
     0
  0
APPID
  2
GENIUS_GENOBJ-F-PART_13
 70
     0
  0
APPID
  2
GENIUS_GEFSTDP_13
 70
     0
  0
APPID
  2
GENIUS_GENOBJ-N-LEADER_13
 70
     0
  0
APPID
  2
GENIUS_GENOBJ-N-REV_13
 70
     0
  0
APPID
  2
GENIUS_GENCFG_13
 70
     0
  0
APPID
  2
GENIUS_GENCFG0_13
 70
     0
  0
APPID
  2
GENIUS_GENCFG1_13
 70
     0
  0
APPID
  2
GENIUS_GENCFG2_13
 70
     0
  0
APPID
  2
GENIUS_GENCFG3_13
 70
     0
  0
APPID
  2
GENIUS_GEVCFG0_13
 70
     0
  0
APPID
  2
GENIUS_GENCFG4_13
 70
     0
  0
APPID
  2
GENIUS_GENOBJ-N-REC_13
 70
     0
  0
APPID
  2
GENIUS_GENFIL_13
 70
     0
  0
APPID
  2
GENIUS_GENOBJ-N-CHA_13
 70
     0
  0
APPID
  2
GENIUS_GENREC_13
 70
     0
  0
APPID
  2
ACAD_EXEMPT_FROM_CAD_STANDARDS
 70
     0
  0
APPID
  2
ACAD_MLEADERVER
 70
     0
  0
APPID
  2
ACAD_NAV_VCDISPLAY
 70
     0
  0
APPID
  2
ACAD_DSTYLE_DIMJAG
 70
     0
  0
APPID
  2
ACAD_DSTYLE_DIMTALN
 70
     0
  0
ENDTAB
  0
TABLE
  2
DIMSTYLE
 70
     1
  0
DIMSTYLE
  2
STANDARD
 70
     0
  3

  4

  5

  6

  7

 40
1.0
 41
0.18
 42
0.0625
 43
0.38
 44
0.18
 45
0.0
 46
0.0
 47
0.0
 48
0.0
140
0.18
141
0.09
142
0.0
143
25.399999999999999
144
1.0
145
0.0
146
1.0
147
0.09
 71
     0
 72
     0
 73
     1
 74
     1
 75
     0
 76
     0
 77
     0
 78
     0
170
     0
171
     2
172
     0
173
     0
174
     0
175
     0
176
     0
177
     0
178
     0
  0
ENDTAB
  0
ENDSEC
  0
SECTION
  2
BLOCKS
  0
BLOCK
  8
0
  2
$MODEL_SPACE
 70
     0
 10
0.0
 20
0.0
 30
0.0
  3
$MODEL_SPACE
  1

  0
ENDBLK
  5
17930
  8
0
  0
BLOCK
 67
     1
  8
0
  2
$PAPER_SPACE
 70
     0
 10
0.0
 20
0.0
 30
0.0
  3
$PAPER_SPACE
  1

  0
ENDBLK
  5
1792E
 67
     1
  8
0
  0
ENDSEC
  0
SECTION
  2
ENTITIES
  0
TEXT
  5
17EF3
  8
0
 62
     3
 10
0.0
 20
0.0
 30
0.0
 40
10.0
  1
ESJH6060SH6L
  7
STANDARD1
  0
LINE
  5
183C6
  8
1
 10
181.24999999999989
 20
127.0
 30
0.0
 11
162.74999999999989
 21
127.0
 31
0.0
  0
LINE
  5
183C7
  8
1
 10
171.99999999999989
 20
117.75
 30
0.0
 11
171.99999999999989
 21
136.25
 31
0.0
  0
LINE
  5
183C8
  8
1
 10
181.25
 20
163.0
 30
0.0
 11
162.74999999999989
 21
163.0
 31
0.0
  0
LINE
  5
183C9
  8
1
 10
171.99999999999989
 20
153.75
 30
0.0
 11
172.0
 21
172.25
 31
0.0
  0
LINE
  5
183CA
  8
1
 10
189.99999999999989
 20
110.0
 30
0.0
 11
190.0
 21
180.0
 31
0.0
  0
LINE
  5
183CB
  8
1
 10
217.24999999999989
 20
126.9999999999999
 30
0.0
 11
198.74999999999989
 21
127.0
 31
0.0
  0
LINE
  5
183CC
  8
1
 10
207.99999999999989
 20
117.7499999999999
 30
0.0
 11
208.0
 21
136.25
 31
0.0
  0
LINE
  5
183CD
  8
1
 10
217.25
 20
162.99999999999989
 30
0.0
 11
198.75
 21
162.99999999999989
 31
0.0
  0
LINE
  5
183CE
  8
1
 10
208.0
 20
153.74999999999989
 30
0.0
 11
208.0
 21
172.24999999999989
 31
0.0
  0
CIRCLE
  5
183CF
  8
0
 10
171.99999999999989
 20
127.0
 30
0.0
 40
3.25
  0
LINE
  5
183D0
  8
0
 10
197.99999999999989
 20
144.39999999999989
 30
0.0
 11
181.49999999999989
 21
144.40000000000001
 31
0.0
  0
LINE
  5
183D1
  8
0
 10
197.99999999999989
 20
115.0
 30
0.0
 11
159.99999999999989
 21
115.0
 31
0.0
  0
LINE
  5
183D2
  8
0
 10
181.5
 20
175.0
 30
0.0
 11
160.0
 21
175.0
 31
0.0
  0
CIRCLE
  5
183D3
  8
0
 10
171.99999999999989
 20
127.0
 30
0.0
 40
6.2499999999999973
  0
LINE
  5
183D4
  8
0
 10
181.49999999999989
 20
144.40000000000001
 30
0.0
 11
181.5
 21
175.0
 31
0.0
  0
LINE
  5
183D5
  8
0
 10
160.0
 20
175.0
 30
0.0
 11
159.99999999999989
 21
115.0
 31
0.0
  0
CIRCLE
  5
183D6
  8
0
 10
171.99999999999989
 20
163.0
 30
0.0
 40
3.25
  0
CIRCLE
  5
183D7
  8
0
 10
171.99999999999989
 20
163.0
 30
0.0
 40
6.2499999999999973
  0
LINE
  5
183D8
  8
0
 10
197.99999999999989
 20
144.39999999999989
 30
0.0
 11
197.99999999999989
 21
115.0
 31
0.0
  0
LINE
  5
183D9
  8
0
 10
193.99999999999989
 20
144.40000000000001
 30
0.0
 11
193.99999999999989
 21
115.0
 31
0.0
  0
LINE
  5
183DA
  8
0
 10
185.99999999999989
 20
144.40000000000001
 30
0.0
 11
185.99999999999989
 21
115.0
 31
0.0
  0
LINE
  5
183DB
  8
0
 10
182.01564028866429
 20
144.40000000000001
 30
0.0
 11
182.01564028866429
 21
115.0
 31
0.0
  0
LINE
  5
183DC
  8
0
 10
184.99999999999989
 20
144.40000000000001
 30
0.0
 11
184.99999999999989
 21
145.59999999999999
 31
0.0
  0
LINE
  5
183DD
  8
0
 10
194.99999999999989
 20
145.59999999999999
 30
0.0
 11
194.99999999999989
 21
144.40000000000001
 31
0.0
  0
CIRCLE
  5
183DE
  8
0
 10
207.99999999999989
 20
127.0
 30
0.0
 40
3.25
  0
CIRCLE
  5
183DF
  8
0
 10
208.0
 20
162.99999999999989
 30
0.0
 40
3.25
  0
LINE
  5
183E0
  8
0
 10
181.99999999999989
 20
145.59999999999999
 30
0.0
 11
198.49999999999989
 21
145.59999999999991
 31
0.0
  0
CIRCLE
  5
183E1
  8
0
 10
207.99999999999989
 20
127.0
 30
0.0
 40
6.2499999999999973
  0
CIRCLE
  5
183E2
  8
0
 10
208.0
 20
162.99999999999989
 30
0.0
 40
6.2499999999999973
  0
LINE
  5
183E3
  8
0
 10
198.49999999999989
 20
145.59999999999991
 30
0.0
 11
198.49999999999989
 21
115.0
 31
0.0
  0
LINE
  5
183E4
  8
0
 10
198.49999999999989
 20
115.0
 30
0.0
 11
219.99999999999989
 21
114.9999999999999
 31
0.0
  0
LINE
  5
183E5
  8
0
 10
182.0
 20
175.0
 30
0.0
 11
220.0
 21
174.99999999999989
 31
0.0
  0
LINE
  5
183E6
  8
0
 10
219.99999999999989
 20
114.9999999999999
 30
0.0
 11
220.0
 21
174.99999999999989
 31
0.0
  0
LINE
  5
183E7
  8
0
 10
217.89999999999989
 20
114.9999999999999
 30
0.0
 11
217.90000000000001
 21
174.99999999999989
 31
0.0
  0
LINE
  5
183E8
  8
0
 10
193.99999999999989
 20
145.59999999999999
 30
0.0
 11
194.0
 21
175.0
 31
0.0
  0
LINE
  5
183E9
  8
0
 10
197.98435971133549
 20
145.59999999999991
 30
0.0
 11
197.9843597113356
 21
175.0
 31
0.0
  0
LINE
  5
183EA
  8
0
 10
181.99999999999989
 20
145.59999999999999
 30
0.0
 11
182.0
 21
175.0
 31
0.0
  0
LINE
  5
183EB
  8
0
 10
185.99999999999989
 20
145.59999999999999
 30
0.0
 11
186.0
 21
175.0
 31
0.0
  0
LINE
  5
1849A
  8
2
 10
175.2499999999998
 20
54.000000000000021
 30
0.0
 11
175.2499999999998
 21
50.000000000000021
 31
0.0
  0
LINE
  5
1849B
  8
2
 10
168.7499999999998
 20
50.000000000000028
 30
0.0
 11
168.7499999999998
 21
54.000000000000028
 31
0.0
  0
LINE
  5
1849C
  8
2
 10
168.7499999999998
 20
54.000000000000028
 30
0.0
 11
175.2499999999998
 21
54.000000000000021
 31
0.0
  0
LINE
  5
1849D
  8
2
 10
168.7499999999998
 20
54.000000000000028
 30
0.0
 11
165.7499999999998
 21
58.000000000000043
 31
0.0
  0
LINE
  5
1849E
  8
2
 10
178.2499999999998
 20
58.000000000000007
 30
0.0
 11
175.2499999999998
 21
54.000000000000021
 31
0.0
  0
LINE
  5
184A4
  8
2
 10
211.2499999999998
 20
53.999999999999957
 30
0.0
 11
211.2499999999998
 21
49.999999999999957
 31
0.0
  0
LINE
  5
184A5
  8
2
 10
204.7499999999998
 20
49.999999999999972
 30
0.0
 11
204.7499999999998
 21
53.999999999999972
 31
0.0
  0
LINE
  5
184A6
  8
2
 10
204.7499999999998
 20
53.999999999999972
 30
0.0
 11
201.7499999999998
 21
57.999999999999979
 31
0.0
  0
LINE
  5
184A7
  8
2
 10
214.2499999999998
 20
57.999999999999957
 30
0.0
 11
211.2499999999998
 21
53.999999999999957
 31
0.0
  0
LINE
  5
184A8
  8
2
 10
204.7499999999998
 20
53.999999999999972
 30
0.0
 11
211.2499999999998
 21
53.999999999999957
 31
0.0
  0
LINE
  5
184A9
  8
1
 10
171.9999999999998
 20
61.000000000000028
 30
0.0
 11
171.9999999999998
 21
47.000000000000021
 31
0.0
  0
LINE
  5
184AA
  8
1
 10
183.9999999999998
 20
58.500000000000007
 30
0.0
 11
195.9999999999998
 21
58.499999999999979
 31
0.0
  0
LINE
  5
184AB
  8
1
 10
189.9999999999998
 20
64.500000000000014
 30
0.0
 11
189.9999999999998
 21
52.5
 31
0.0
  0
LINE
  5
184AC
  8
1
 10
207.9999999999998
 20
60.999999999999957
 30
0.0
 11
207.9999999999998
 21
46.999999999999957
 31
0.0
  0
ARC
  5
184AD
  8
0
 10
189.9999999999998
 20
58.499999999999993
 30
0.0
 40
8.0000000000000036
 50
270.0
 51
359.99999999999989
  0
LINE
  5
184AE
  8
0
 10
197.9999999999998
 20
58.499999999999979
 30
0.0
 11
197.9999999999998
 21
61.015640288664358
 31
0.0
  0
LINE
  5
184AF
  8
0
 10
159.9999999999998
 20
54.362693304106003
 30
0.0
 11
159.9999999999998
 21
50.000000000000043
 31
0.0
  0
LINE
  5
184B0
  8
0
 10
182.01564028866409
 20
58.0
 30
0.0
 11
162.09999999999951
 21
58.000000000000043
 31
0.0
  0
LINE
  5
184B1
  8
0
 10
182.01564028866409
 20
61.015640288664372
 30
0.0
 11
182.01564028866409
 21
58.0
 31
0.0
  0
LINE
  5
184B2
  8
0
 10
185.9999999999998
 20
65.0
 30
0.0
 11
182.01564028866409
 21
61.015640288664372
 31
0.0
  0
LINE
  5
184B3
  8
0
 10
193.9999999999998
 20
64.999999999999986
 30
0.0
 11
185.9999999999998
 21
65.0
 31
0.0
  0
LINE
  5
184B4
  8
0
 10
197.9999999999998
 20
61.015640288664358
 30
0.0
 11
193.9999999999998
 21
64.999999999999986
 31
0.0
  0
LINE
  5
184B5
  8
0
 10
185.9999999999998
 20
50.5
 30
0.0
 11
189.9999999999998
 21
50.499999999999993
 31
0.0
  0
LINE
  5
184B6
  8
0
 10
185.9999999999998
 20
50.0
 30
0.0
 11
185.9999999999998
 21
50.5
 31
0.0
  0
LINE
  5
184B7
  8
0
 10
159.9999999999998
 20
50.000000000000043
 30
0.0
 11
185.9999999999998
 21
50.0
 31
0.0
  0
LINE
  5
184B8
  8
0
 10
219.9999999999998
 20
49.99999999999995
 30
0.0
 11
193.9999999999998
 21
50.0
 31
0.0
  0
LINE
  5
184B9
  8
0
 10
197.9843597113354
 20
57.999999999999979
 30
0.0
 11
217.89999999999981
 21
57.99999999999995
 31
0.0
  0
LINE
  5
184BA
  8
0
 10
193.9999999999998
 20
50.499999999999993
 30
0.0
 11
189.9999999999998
 21
50.499999999999993
 31
0.0
  0
LINE
  5
184BC
  8
0
 10
193.9999999999998
 20
50.0
 30
0.0
 11
193.9999999999998
 21
50.499999999999993
 31
0.0
  0
LINE
  5
184BF
  8
0
 10
198.4999999999998
 20
49.999999999999979
 30
0.0
 11
198.4999999999998
 21
57.999999999999979
 31
0.0
  0
LINE
  5
184C0
  8
0
 10
217.89999999999981
 20
57.99999999999995
 30
0.0
 11
219.9999999999998
 21
54.362693304105342
 31
0.0
  0
LINE
  5
184C1
  8
0
 10
219.9999999999998
 20
54.362693304105342
 30
0.0
 11
219.9999999999998
 21
49.99999999999995
 31
0.0
  0
LINE
  5
184F9
  8
2
 10
94.749999999999986
 20
54.0
 30
0.0
 11
94.749999999999986
 21
50.0
 31
0.0
  0
LINE
  5
184FA
  8
2
 10
101.25
 20
50.0
 30
0.0
 11
101.25
 21
54.0
 31
0.0
  0
LINE
  5
184FB
  8
2
 10
58.75
 20
54.0
 30
0.0
 11
58.75
 21
50.0
 31
0.0
  0
LINE
  5
184FC
  8
2
 10
65.25
 20
50.0
 30
0.0
 11
65.25
 21
54.0
 31
0.0
  0
LINE
  5
184FD
  8
2
 10
101.25
 20
54.0
 30
0.0
 11
104.25
 21
58.0
 31
0.0
  0
LINE
  5
184FE
  8
2
 10
91.75
 20
58.0
 30
0.0
 11
94.749999999999986
 21
54.0
 31
0.0
  0
LINE
  5
184FF
  8
2
 10
101.25
 20
54.0
 30
0.0
 11
94.749999999999986
 21
54.0
 31
0.0
  0
LINE
  5
18500
  8
2
 10
65.25
 20
54.0
 30
0.0
 11
68.25
 21
58.0
 31
0.0
  0
LINE
  5
18501
  8
2
 10
55.75
 20
58.0
 30
0.0
 11
58.75
 21
54.0
 31
0.0
  0
LINE
  5
18502
  8
2
 10
65.25
 20
54.0
 30
0.0
 11
58.75
 21
54.0
 31
0.0
  0
LINE
  5
18503
  8
1
 10
98.0
 20
61.0
 30
0.0
 11
98.0
 21
47.0
 31
0.0
  0
LINE
  5
18505
  8
1
 10
62.0
 20
61.0
 30
0.0
 11
62.0
 21
47.0
 31
0.0
  0
LINE
  5
18506
  8
0
 10
80.599999999999909
 20
65.0
 30
0.0
 11
110.0
 21
65.0
 31
0.0
  0
LINE
  5
18507
  8
0
 10
80.599999999999909
 20
58.0
 30
0.0
 11
80.599999999999909
 21
65.0
 31
0.0
  0
LINE
  5
1850A
  8
0
 10
80.599999999999909
 20
61.015640288664372
 30
0.0
 11
110.0
 21
61.015640288664372
 31
0.0
  0
LINE
  5
1850B
  8
0
 10
80.599999999999909
 20
63.5
 30
0.0
 11
79.399999999999864
 21
63.5
 31
0.0
  0
LINE
  5
1850C
  8
0
 10
79.399999999999864
 20
65.0
 30
0.0
 11
79.399999999999864
 21
58.0
 31
0.0
  0
LINE
  5
1850D
  8
0
 10
79.399999999999864
 20
65.0
 30
0.0
 11
50.0
 21
65.0
 31
0.0
  0
LINE
  5
1850E
  8
0
 10
79.399999999999864
 20
61.015640288664372
 30
0.0
 11
50.0
 21
61.015640288664372
 31
0.0
  0
LINE
  5
1850F
  8
0
 10
110.0
 20
50.0
 30
0.0
 11
50.0
 21
50.0
 31
0.0
  0
LINE
  5
18510
  8
0
 10
50.0
 20
65.0
 30
0.0
 11
50.0
 21
50.0
 31
0.0
  0
LINE
  5
18511
  8
0
 10
110.0
 20
65.0
 30
0.0
 11
110.0
 21
50.0
 31
0.0
  0
LINE
  5
18512
  8
0
 10
110.0
 20
54.362693304105392
 30
0.0
 11
50.0
 21
54.362693304105392
 31
0.0
  0
LINE
  5
18513
  8
0
 10
110.0
 20
58.0
 30
0.0
 11
50.0
 21
58.0
 31
0.0
  0
LINE
  5
18590
  8
0
 10
162.0999999999998
 20
115.0000000000005
 30
0.0
 11
162.10000000000079
 21
175.0000000000004
 31
0.0
  0
LINE
  5
18591
  8
0
 10
162.09999999999971
 20
58.000000000000412
 30
0.0
 11
159.99999999999969
 21
54.362693304105832
 31
0.0
  0
CIRCLE
  5
1860C
  8
2
 10
189.9999999999998
 20
58.499999999999993
 30
0.0
 40
3.0000000000000142
  0
ENDSEC
  0
EOF
