  0
SECTION
  2
HEADER
  9
$ACADVER
  1
AC1009
  9
$INSBASE
 10
0.0
 20
0.0
 30
0.0
  9
$EXTMIN
 10
0.0
 20
-1.4802182810368341
 30
0.0
  9
$EXTMAX
 10
102.13392946218831
 20
90.975687785972696
 30
0.0
  9
$LIMMIN
 10
0.0
 20
0.0
  9
$LIMMAX
 10
385.0
 20
270.0
  9
$ORTHOMODE
 70
     1
  9
$REGENMODE
 70
     1
  9
$FILLMODE
 70
     1
  9
$QTEXTMODE
 70
     0
  9
$MIRRTEXT
 70
     0
  9
$DRAGMODE
 70
     2
  9
$LTSCALE
 40
5.0
  9
$OSMODE
 70
  3071
  9
$ATTMODE
 70
     1
  9
$TEXTSIZE
 40
4.000000000000048
  9
$TRACEWID
 40
0.05
  9
$TEXTSTYLE
  7
STANDARD
  9
$CLAYER
  8
0
  9
$CELTYPE
  6
BYLAYER
  9
$CECOLOR
 62
   256
  9
$DIMSCALE
 40
1.0
  9
$DIMASZ
 40
1.5
  9
$DIMEXO
 40
1.0
  9
$DIMDLI
 40
0.38
  9
$DIMRND
 40
0.0
  9
$DIMDLE
 40
0.0
  9
$DIMEXE
 40
1.0
  9
$DIMTP
 40
0.0
  9
$DIMTM
 40
0.0
  9
$DIMTXT
 40
2.5
  9
$DIMCEN
 40
0.09
  9
$DIMTSZ
 40
0.0
  9
$DIMTOL
 70
     0
  9
$DIMLIM
 70
     0
  9
$DIMTIH
 70
     0
  9
$DIMTOH
 70
     0
  9
$DIMSE1
 70
     0
  9
$DIMSE2
 70
     0
  9
$DIMTAD
 70
     1
  9
$DIMZIN
 70
     8
  9
$DIMBLK
  1

  9
$DIMASO
 70
     0
  9
$DIMSHO
 70
     0
  9
$DIMPOST
  1

  9
$DIMAPOST
  1

  9
$DIMALT
 70
     0
  9
$DIMALTD
 70
     2
  9
$DIMALTF
 40
25.399999999999999
  9
$DIMLFAC
 40
1.0
  9
$DIMTOFL
 70
     0
  9
$DIMTVP
 40
0.0
  9
$DIMTIX
 70
     0
  9
$DIMSOXD
 70
     0
  9
$DIMSAH
 70
     0
  9
$DIMBLK1
  1

  9
$DIMBLK2
  1

  9
$DIMSTYLE
  2
STANDARD
  9
$DIMCLRD
 70
     0
  9
$DIMCLRE
 70
     0
  9
$DIMCLRT
 70
     0
  9
$DIMTFAC
 40
1.0
  9
$DIMGAP
 40
0.5
  9
$LUNITS
 70
     2
  9
$LUPREC
 70
     4
  9
$SKETCHINC
 40
0.1
  9
$FILLETRAD
 40
0.0
  9
$AUNITS
 70
     0
  9
$AUPREC
 70
     4
  9
$MENU
  1
E:\r13\win\SUPPORT\ACAD
  9
$ELEVATION
 40
0.0
  9
$PELEVATION
 40
0.0
  9
$THICKNESS
 40
0.0
  9
$LIMCHECK
 70
     0
  9
$BLIPMODE
 70
     0
  9
$CHAMFERA
 40
0.0
  9
$CHAMFERB
 40
0.0
  9
$SKPOLY
 70
     0
  9
$TDCREATE
 40
2450280.598206134
  9
$TDUPDATE
 40
2456598.6932512382
  9
$TDINDWG
 40
0.3381710648
  9
$TDUSRTIMER
 40
0.3381710648
  9
$USRTIMER
 70
     1
  9
$ANGBASE
 50
0.0
  9
$ANGDIR
 70
     0
  9
$PDMODE
 70
     0
  9
$PDSIZE
 40
0.0
  9
$PLINEWID
 40
0.0
  9
$COORDS
 70
     1
  9
$SPLFRAME
 70
     0
  9
$SPLINETYPE
 70
     6
  9
$SPLINESEGS
 70
     8
  9
$ATTDIA
 70
     0
  9
$ATTREQ
 70
     1
  9
$HANDLING
 70
     1
  9
$HANDSEED
  5
14BB
  9
$SURFTAB1
 70
     6
  9
$SURFTAB2
 70
     6
  9
$SURFTYPE
 70
     6
  9
$SURFU
 70
     6
  9
$SURFV
 70
     6
  9
$UCSNAME
  2

  9
$UCSORG
 10
0.0
 20
0.0
 30
0.0
  9
$UCSXDIR
 10
1.0
 20
0.0
 30
0.0
  9
$UCSYDIR
 10
0.0
 20
1.0
 30
0.0
  9
$PUCSNAME
  2

  9
$PUCSORG
 10
0.0
 20
0.0
 30
0.0
  9
$PUCSXDIR
 10
1.0
 20
0.0
 30
0.0
  9
$PUCSYDIR
 10
0.0
 20
1.0
 30
0.0
  9
$USERI1
 70
     3
  9
$USERI2
 70
     1
  9
$USERI3
 70
     1
  9
$USERI4
 70
     0
  9
$USERI5
 70
     0
  9
$USERR1
 40
1.0
  9
$USERR2
 40
3.0
  9
$USERR3
 40
3.0
  9
$USERR4
 40
3.0
  9
$USERR5
 40
10.0
  9
$WORLDVIEW
 70
     1
  9
$SHADEDGE
 70
     3
  9
$SHADEDIF
 70
    70
  9
$TILEMODE
 70
     1
  9
$MAXACTVP
 70
    16
  9
$PLIMCHECK
 70
     0
  9
$PEXTMIN
 10
1.0000000000000000E+020
 20
1.0000000000000000E+020
 30
1.0000000000000000E+020
  9
$PEXTMAX
 10
-1.0000000000000000E+020
 20
-1.0000000000000000E+020
 30
-1.0000000000000000E+020
  9
$PLIMMIN
 10
0.0
 20
0.0
  9
$PLIMMAX
 10
12.0
 20
9.0
  9
$UNITMODE
 70
     0
  9
$VISRETAIN
 70
     0
  9
$PLINEGEN
 70
     0
  9
$PSLTSCALE
 70
     0
  0
ENDSEC
  0
SECTION
  2
TABLES
  0
TABLE
  2
VPORT
 70
     1
  0
VPORT
  2
*ACTIVE
 70
     0
 10
0.0
 20
0.0
 11
1.0
 21
1.0
 12
192.49412581440311
 22
170.45015950461641
 13
0.0
 23
0.0
 14
5.0
 24
5.0
 15
10.0
 25
10.0
 16
0.0
 26
0.0
 36
1.0
 17
0.0
 27
0.0
 37
0.0
 40
347.0036965702775
 41
1.831871345029239
 42
50.0
 43
0.0
 44
0.0
 50
0.0
 51
0.0
 71
     0
 72
   500
 73
     1
 74
     0
 75
     0
 76
     0
 77
     0
 78
     2
  0
ENDTAB
  0
TABLE
  2
LTYPE
 70
     4
  0
LTYPE
  2
CONTINUOUS
 70
     0
  3
Solid Line
 72
    65
 73
     0
 40
0.0
  0
LTYPE
  2
CENTER
 70
     0
  3
____ _ ____ _ ____ _ ____ _ ____ _ ____ _ ____
 72
    65
 73
     4
 40
2.0
 49
1.25
 49
-0.25
 49
0.25
 49
-0.25
  0
LTYPE
  2
HIDDEN
 70
     0
  3
_ _ _ _ _ _ _ _ _ _ _ _ _ _ _ _ _ _ _ _ _ _ _
 72
    65
 73
     2
 40
0.375
 49
0.25
 49
-0.125
  0
LTYPE
  2
PHANTOM2
 70
     0
  3
___ _ _ ___ _ _ ___ _ _ ___ _ _
 72
    65
 73
     6
 40
1.25
 49
0.625
 49
-0.125
 49
0.125
 49
-0.125
 49
0.125
 49
-0.125
  0
ENDTAB
  0
TABLE
  2
LAYER
 70
     3
  0
LAYER
  2
0
 70
     0
 62
     7
  6
CONTINUOUS
  0
LAYER
  2
1
 70
     0
 62
     1
  6
CENTER
  0
LAYER
  2
2
 70
     0
 62
     2
  6
HIDDEN
  0
ENDTAB
  0
TABLE
  2
STYLE
 70
     2
  0
STYLE
  2
STANDARD
 70
     0
 40
0.0
 41
1.0
 50
0.0
 71
     0
 42
4.000000000000048
  3
SIMPLEX
  4
BIGFONT
  0
STYLE
  2
STANDARD1
 70
     0
 40
0.0
 41
1.0
 50
0.0
 71
     0
 42
3.0
  3
txt
  4

  0
ENDTAB
  0
TABLE
  2
VIEW
 70
     2
  0
VIEW
  2
OLE1
 70
     0
 40
100.4021213141917
 10
119.5958647627379
 20
30.845687992436051
 41
193.4756206346469
 11
0.0
 21
0.0
 31
1.0
 12
0.0
 22
0.0
 32
0.0
 42
50.0
 43
0.0
 44
0.0
 50
0.0
 71
     0
  0
VIEW
  2
OLE2
 70
     0
 40
132.5110991231077
 10
142.99576892107009
 20
-91.953711750729923
 41
177.41763827038309
 11
0.0
 21
0.0
 31
1.0
 12
0.0
 22
0.0
 32
0.0
 42
50.0
 43
0.0
 44
0.0
 50
0.0
 71
     0
  0
ENDTAB
  0
TABLE
  2
UCS
 70
     0
  0
ENDTAB
  0
TABLE
  2
APPID
 70
     3
  0
APPID
  2
ACAD
 70
     0
  0
APPID
  2
ACAD_MLEADERVER
 70
     0
  0
APPID
  2
ACAD_NAV_VCDISPLAY
 70
     0
  0
ENDTAB
  0
TABLE
  2
DIMSTYLE
 70
     1
  0
DIMSTYLE
  2
STANDARD
 70
     0
  3

  4

  5

  6

  7

 40
1.0
 41
1.5
 42
1.0
 43
0.38
 44
1.0
 45
0.0
 46
0.0
 47
0.0
 48
0.0
140
2.5
141
0.09
142
0.0
143
25.399999999999999
144
1.0
145
0.0
146
1.0
147
0.5
 71
     0
 72
     0
 73
     0
 74
     0
 75
     0
 76
     0
 77
     1
 78
     8
170
     0
171
     2
172
     0
173
     0
174
     0
175
     0
176
     0
177
     0
178
     0
  0
ENDTAB
  0
ENDSEC
  0
SECTION
  2
BLOCKS
  0
BLOCK
  8
0
  2
$MODEL_SPACE
 70
     0
 10
0.0
 20
0.0
 30
0.0
  3
$MODEL_SPACE
  1

  0
ENDBLK
  5
175
  8
0
  0
BLOCK
 67
     1
  8
0
  2
$PAPER_SPACE
 70
     0
 10
0.0
 20
0.0
 30
0.0
  3
$PAPER_SPACE
  1

  0
ENDBLK
  5
173
 67
     1
  8
0
  0
ENDSEC
  0
SECTION
  2
ENTITIES
  0
LINE
  5
1350
  8
1
 10
80.166561949439824
 20
32.841532972886199
 30
0.0
 11
80.166561949439824
 21
22.099462953373092
 31
0.0
  0
LINE
  5
1351
  8
0
 10
96.166561949439824
 20
28.470497963129649
 30
0.0
 11
64.166561949439824
 21
28.470497963129649
 31
0.0
  0
LINE
  5
1352
  8
0
 10
96.166561949439824
 20
25.470497963129649
 30
0.0
 11
64.166561949439824
 21
25.470497963129649
 31
0.0
  0
LINE
  5
1353
  8
0
 10
95.166561949439824
 20
29.470497963129649
 30
0.0
 11
65.166561949439824
 21
29.470497963129649
 31
0.0
  0
LINE
  5
1354
  8
2
 10
86.166561949439824
 20
29.470497963129649
 30
0.0
 11
74.166561949439824
 21
29.470497963129649
 31
0.0
  0
LINE
  5
1355
  8
2
 10
86.166561949439824
 20
28.970497963129649
 30
0.0
 11
74.166561949439824
 21
28.970497963129649
 31
0.0
  0
LINE
  5
1356
  8
2
 10
83.366561949439813
 20
26.170497963129652
 30
0.0
 11
76.966561949439821
 21
26.170497963129652
 31
0.0
  0
LINE
  5
1357
  8
2
 10
83.366561949439813
 20
25.470497963129649
 30
0.0
 11
76.966561949439821
 21
25.470497963129649
 31
0.0
  0
LINE
  5
1358
  8
0
 10
64.166561949439824
 20
28.470497963129649
 30
0.0
 11
64.166561949439824
 21
25.470497963129649
 31
0.0
  0
LINE
  5
1359
  8
0
 10
96.166561949439824
 20
25.470497963129649
 30
0.0
 11
96.166561949439824
 21
28.470497963129649
 31
0.0
  0
LINE
  5
135A
  8
0
 10
65.166561949439824
 20
29.470497963129649
 30
0.0
 11
64.166561949439824
 21
28.470497963129649
 31
0.0
  0
LINE
  5
135B
  8
0
 10
96.166561949439824
 20
28.470497963129649
 30
0.0
 11
95.166561949439824
 21
29.470497963129649
 31
0.0
  0
LINE
  5
135C
  8
2
 10
74.166561949439824
 20
29.470497963129649
 30
0.0
 11
74.166561949439824
 21
28.970497963129649
 31
0.0
  0
LINE
  5
135D
  8
2
 10
86.166561949439824
 20
28.970497963129649
 30
0.0
 11
86.166561949439824
 21
29.470497963129649
 31
0.0
  0
LINE
  5
135E
  8
2
 10
74.166561949439824
 20
28.970497963129649
 30
0.0
 11
76.966561949439821
 21
26.170497963129652
 31
0.0
  0
LINE
  5
135F
  8
2
 10
83.366561949439813
 20
26.170497963129652
 30
0.0
 11
86.166561949439824
 21
28.970497963129649
 31
0.0
  0
LINE
  5
1360
  8
2
 10
76.966561949439821
 20
26.170497963129652
 30
0.0
 11
76.966561949439821
 21
25.470497963129649
 31
0.0
  0
LINE
  5
1361
  8
2
 10
83.366561949439813
 20
25.470497963129649
 30
0.0
 11
83.366561949439813
 21
26.170497963129652
 31
0.0
  0
LINE
  5
136E
  8
1
 10
80.166561949439824
 20
47.040952760475761
 30
0.0
 11
80.166561949439824
 21
90.975687785972696
 31
0.0
  0
LINE
  5
136F
  8
1
 10
58.19919443669135
 20
69.008320273224214
 30
0.0
 11
102.13392946218831
 21
69.008320273224214
 31
0.0
  0
CIRCLE
  5
1370
  8
0
 10
80.166561949439824
 20
69.008320273224214
 30
0.0
 40
16.0
  0
CIRCLE
  5
1371
  8
0
 10
80.166561949439824
 20
69.008320273224214
 30
0.0
 40
15.0
  0
CIRCLE
  5
1372
  8
0
 10
80.166561949439824
 20
69.008320273224214
 30
0.0
 40
6.0
  0
CIRCLE
  5
1373
  8
0
 10
80.166561949439824
 20
69.008320273224214
 30
0.0
 40
3.2000000000000002
  0
TEXT
  5
1423
  8
0
 62
     3
 10
0.0
 20
0.0
 30
0.0
 40
5.0
  1
EW06X32-SUS
  7
STANDARD1
  0
ENDSEC
  0
EOF
