  0
SECTION
  2
HEADER
  9
$ACADVER
  1
AC1009
  9
$INSBASE
 10
0.0
 20
0.0
 30
0.0
  9
$EXTMIN
 10
0.0
 20
-2.9604365620736979
 30
0.0
  9
$EXTMAX
 10
252.8333333333336
 20
155.6441112686941
 30
0.0
  9
$LIMMIN
 10
0.0
 20
0.0
  9
$LIMMAX
 10
385.0
 20
270.0
  9
$ORTHOMODE
 70
     1
  9
$REGENMODE
 70
     1
  9
$FILLMODE
 70
     1
  9
$QTEXTMODE
 70
     0
  9
$MIRRTEXT
 70
     0
  9
$DRAGMODE
 70
     2
  9
$LTSCALE
 40
5.0
  9
$OSMODE
 70
    37
  9
$ATTMODE
 70
     1
  9
$TEXTSIZE
 40
4.0
  9
$TRACEWID
 40
0.05
  9
$TEXTSTYLE
  7
STANDARD
  9
$CLAYER
  8
0
  9
$CELTYPE
  6
BYLAYER
  9
$CECOLOR
 62
   256
  9
$DIMSCALE
 40
1.0
  9
$DIMASZ
 40
3.0
  9
$DIMEXO
 40
1.0
  9
$DIMDLI
 40
6.0
  9
$DIMRND
 40
0.0
  9
$DIMDLE
 40
0.0
  9
$DIMEXE
 40
1.0
  9
$DIMTP
 40
495.0
  9
$DIMTM
 40
0.0
  9
$DIMTXT
 40
3.0
  9
$DIMCEN
 40
0.0
  9
$DIMTSZ
 40
0.0
  9
$DIMTOL
 70
     0
  9
$DIMLIM
 70
     0
  9
$DIMTIH
 70
     0
  9
$DIMTOH
 70
     0
  9
$DIMSE1
 70
     0
  9
$DIMSE2
 70
     0
  9
$DIMTAD
 70
     1
  9
$DIMZIN
 70
     8
  9
$DIMBLK
  1

  9
$DIMASO
 70
     1
  9
$DIMSHO
 70
     0
  9
$DIMPOST
  1

  9
$DIMAPOST
  1

  9
$DIMALT
 70
     0
  9
$DIMALTD
 70
     2
  9
$DIMALTF
 40
25.399999999999999
  9
$DIMLFAC
 40
1.0
  9
$DIMTOFL
 70
     1
  9
$DIMTVP
 40
0.0
  9
$DIMTIX
 70
     0
  9
$DIMSOXD
 70
     0
  9
$DIMSAH
 70
     0
  9
$DIMBLK1
  1

  9
$DIMBLK2
  1

  9
$DIMSTYLE
  2
STANDARD
  9
$DIMCLRD
 70
     0
  9
$DIMCLRE
 70
     0
  9
$DIMCLRT
 70
     0
  9
$DIMTFAC
 40
1.0
  9
$DIMGAP
 40
1.0
  9
$LUNITS
 70
     2
  9
$LUPREC
 70
     1
  9
$SKETCHINC
 40
0.1
  9
$FILLETRAD
 40
2.0
  9
$AUNITS
 70
     0
  9
$AUPREC
 70
     1
  9
$MENU
  1
E:\r13\win\SUPPORT\ACAD
  9
$ELEVATION
 40
0.0
  9
$PELEVATION
 40
0.0
  9
$THICKNESS
 40
0.0
  9
$LIMCHECK
 70
     0
  9
$BLIPMODE
 70
     0
  9
$CHAMFERA
 40
0.0
  9
$CHAMFERB
 40
0.0
  9
$SKPOLY
 70
     0
  9
$TDCREATE
 40
2450541.3939600689
  9
$TDUPDATE
 40
2459429.574180556
  9
$TDINDWG
 40
1.9018415741000001
  9
$TDUSRTIMER
 40
1.9018415741000001
  9
$USRTIMER
 70
     1
  9
$ANGBASE
 50
0.0
  9
$ANGDIR
 70
     0
  9
$PDMODE
 70
     0
  9
$PDSIZE
 40
0.0
  9
$PLINEWID
 40
0.0
  9
$COORDS
 70
     1
  9
$SPLFRAME
 70
     0
  9
$SPLINETYPE
 70
     6
  9
$SPLINESEGS
 70
     8
  9
$ATTDIA
 70
     0
  9
$ATTREQ
 70
     1
  9
$HANDLING
 70
     1
  9
$HANDSEED
  5
1E416
  9
$SURFTAB1
 70
     6
  9
$SURFTAB2
 70
     6
  9
$SURFTYPE
 70
     6
  9
$SURFU
 70
     6
  9
$SURFV
 70
     6
  9
$UCSNAME
  2

  9
$UCSORG
 10
0.0
 20
0.0
 30
0.0
  9
$UCSXDIR
 10
1.0
 20
0.0
 30
0.0
  9
$UCSYDIR
 10
0.0
 20
1.0
 30
0.0
  9
$PUCSNAME
  2

  9
$PUCSORG
 10
0.0
 20
0.0
 30
0.0
  9
$PUCSXDIR
 10
1.0
 20
0.0
 30
0.0
  9
$PUCSYDIR
 10
0.0
 20
1.0
 30
0.0
  9
$USERI1
 70
     3
  9
$USERI2
 70
     1
  9
$USERI3
 70
     1
  9
$USERI4
 70
     0
  9
$USERI5
 70
     0
  9
$USERR1
 40
1.0
  9
$USERR2
 40
3.0
  9
$USERR3
 40
3.0
  9
$USERR4
 40
3.0
  9
$USERR5
 40
10.0
  9
$WORLDVIEW
 70
     1
  9
$SHADEDGE
 70
     3
  9
$SHADEDIF
 70
    70
  9
$TILEMODE
 70
     1
  9
$MAXACTVP
 70
    16
  9
$PLIMCHECK
 70
     0
  9
$PEXTMIN
 10
1.0000000000000000E+020
 20
1.0000000000000000E+020
 30
1.0000000000000000E+020
  9
$PEXTMAX
 10
-1.0000000000000000E+020
 20
-1.0000000000000000E+020
 30
-1.0000000000000000E+020
  9
$PLIMMIN
 10
0.0
 20
0.0
  9
$PLIMMAX
 10
12.0
 20
9.0
  9
$UNITMODE
 70
     0
  9
$VISRETAIN
 70
     0
  9
$PLINEGEN
 70
     0
  9
$PSLTSCALE
 70
     0
  0
ENDSEC
  0
SECTION
  2
TABLES
  0
TABLE
  2
VPORT
 70
     1
  0
VPORT
  2
*ACTIVE
 70
     0
 10
0.0
 20
0.0
 11
1.0
 21
1.0
 12
214.85452418412461
 22
76.343525027975602
 13
0.0
 23
0.0
 14
5.0
 24
5.0
 15
10.0
 25
10.0
 16
0.0
 26
0.0
 36
1.0
 17
0.0
 27
0.0
 37
0.0
 40
181.1703539168646
 41
2.3805970149253728
 42
50.0
 43
0.0
 44
0.0
 50
0.0
 51
0.0
 71
     0
 72
   100
 73
     1
 74
     0
 75
     0
 76
     0
 77
     0
 78
     0
  0
ENDTAB
  0
TABLE
  2
LTYPE
 70
     4
  0
LTYPE
  2
CONTINUOUS
 70
     0
  3
Solid Line
 72
    65
 73
     0
 40
0.0
  0
LTYPE
  2
CENTER
 70
     0
  3
____ _ ____ _ ____ _ ____ _ ____ _ ____ _ ____
 72
    65
 73
     4
 40
2.0
 49
1.25
 49
-0.25
 49
0.25
 49
-0.25
  0
LTYPE
  2
HIDDEN
 70
     0
  3
_ _ _ _ _ _ _ _ _ _ _ _ _ _ _ _ _ _ _ _ _ _ _
 72
    65
 73
     2
 40
0.375
 49
0.25
 49
-0.125
  0
LTYPE
  2
PHANTOM2
 70
     0
  3
___ _ _ ___ _ _ ___ _ _ ___ _ _
 72
    65
 73
     6
 40
1.25
 49
0.625
 49
-0.125
 49
0.125
 49
-0.125
 49
0.125
 49
-0.125
  0
ENDTAB
  0
TABLE
  2
LAYER
 70
     5
  0
LAYER
  2
0
 70
     0
 62
     7
  6
CONTINUOUS
  0
LAYER
  2
1
 70
     0
 62
     1
  6
CENTER
  0
LAYER
  2
2
 70
     0
 62
     2
  6
HIDDEN
  0
LAYER
  2
DEFPOINTS
 70
     0
 62
     7
  6
CONTINUOUS
  0
LAYER
  2
4
 70
     0
 62
     4
  6
CONTINUOUS
  0
ENDTAB
  0
TABLE
  2
STYLE
 70
     2
  0
STYLE
  2
STANDARD
 70
     0
 40
0.0
 41
1.0
 50
0.0
 71
     0
 42
4.0
  3
SIMPLEX
  4
BIGFONT
  0
STYLE
  2
STANDARD1
 70
     0
 40
0.0
 41
1.0
 50
0.0
 71
     0
 42
3.0
  3
txt
  4

  0
ENDTAB
  0
TABLE
  2
VIEW
 70
     0
  0
ENDTAB
  0
TABLE
  2
UCS
 70
     0
  0
ENDTAB
  0
TABLE
  2
APPID
 70
    43
  0
APPID
  2
ACAD
 70
     0
  0
APPID
  2
ASM_BASE
 70
     0
  0
APPID
  2
ASM_EXPLO_VER_2_00
 70
     0
  0
APPID
  2
ASM_CADM_VER_12_00
 70
     0
  0
APPID
  2
ASM_BASEFORO
 70
     0
  0
APPID
  2
ASM_BASETRAVI
 70
     0
  0
APPID
  2
ASM_BASETRAVI1
 70
     0
  0
APPID
  2
ASM_GRUPPI
 70
     0
  0
APPID
  2
ASM_CADM_ALBERO
 70
     0
  0
APPID
  2
ASM_GOLE
 70
     0
  0
APPID
  2
ACAD_EXEMPT_FROM_CAD_STANDARDS
 70
     0
  0
APPID
  2
ACAD_DSTYLE_DIMJAG
 70
     0
  0
APPID
  2
ACAD_DSTYLE_DIMTALN
 70
     0
  0
APPID
  2
ACAD_MLEADERVER
 70
     0
  0
APPID
  2
ACAD_NAV_VCDISPLAY
 70
     0
  0
APPID
  2
ACAD_DSTYLE_DIMRADIAL_EXTENSION
 70
     0
  0
APPID
  2
DCO15
 70
     0
  0
APPID
  2
ACADANNOTATIVE
 70
     0
  0
APPID
  2
GENIUS_GENODEF_13
 70
     0
  0
APPID
  2
GENIUS_GENFIL_13
 70
     0
  0
APPID
  2
GENIUS_GENOBJ-N-CHA_13
 70
     0
  0
APPID
  2
GENIUS_GENOREF_13
 70
     0
  0
APPID
  2
GENIUS_GENOENT_13
 70
     0
  0
APPID
  2
GENIUS_GENBH_13
 70
     0
  0
APPID
  2
GENIUS_GENOBJ_13
 70
     0
  0
APPID
  2
GENIUS_GENOLIS_13
 70
     0
  0
APPID
  2
GENIUS_GENOBJ-NBEHI-BHF_13
 70
     0
  0
APPID
  2
GENIUS_GENOBJ-NBEHI-BHB_13
 70
     0
  0
APPID
  2
GENIUS_GENOBJ-F-PART_13
 70
     0
  0
APPID
  2
GENIUS_GEFSTDP_13
 70
     0
  0
APPID
  2
GENIUS_GENOBJ-N-RSSYM_13
 70
     0
  0
APPID
  2
GENIUS_GENSYMENT_13
 70
     0
  0
APPID
  2
GENIUS_GENOBJ-N-TIT_13
 70
     0
  0
APPID
  2
GENIUS_GENTITLE_13
 70
     0
  0
APPID
  2
GENIUS_GENZVEED_13
 70
     0
  0
APPID
  2
GENIUS_GENOBJ-N-LEADER_13
 70
     0
  0
APPID
  2
GENIUS_GENOBJ-N-FIL_13
 70
     0
  0
APPID
  2
GENIUS_GENOBJ-N-SEC_13
 70
     0
  0
APPID
  2
GENIUS_GENOBJ-N-CRS_13
 70
     0
  0
APPID
  2
GENIUS_GENOBJ-N-ZOO_13
 70
     0
  0
APPID
  2
GENIUS_GENZOO_13
 70
     0
  0
APPID
  2
GENIUS_GENOBJ-F-TOL_13
 70
     0
  0
APPID
  2
_CALL_MAC$
 70
     0
  0
ENDTAB
  0
TABLE
  2
DIMSTYLE
 70
     1
  0
DIMSTYLE
  2
STANDARD
 70
     0
  3

  4

  5

  6

  7

 40
1.0
 41
0.18
 42
0.0625
 43
0.38
 44
0.18
 45
0.0
 46
0.0
 47
0.0
 48
0.0
140
0.18
141
0.09
142
0.0
143
25.399999999999999
144
1.0
145
0.0
146
1.0
147
0.09
 71
     0
 72
     0
 73
     1
 74
     1
 75
     0
 76
     0
 77
     0
 78
     0
170
     0
171
     2
172
     0
173
     0
174
     0
175
     0
176
     0
177
     0
178
     0
  0
ENDTAB
  0
ENDSEC
  0
SECTION
  2
BLOCKS
  0
BLOCK
  8
0
  2
$MODEL_SPACE
 70
     0
 10
0.0
 20
0.0
 30
0.0
  3
$MODEL_SPACE
  1

  0
ENDBLK
  5
1CD3
  8
0
  0
BLOCK
 67
     1
  8
0
  2
$PAPER_SPACE
 70
     0
 10
0.0
 20
0.0
 30
0.0
  3
$PAPER_SPACE
  1

  0
ENDBLK
  5
1CD1
 67
     1
  8
0
  0
ENDSEC
  0
SECTION
  2
ENTITIES
  0
TEXT
  5
12011
  8
0
 62
     3
 10
0.0
 20
-0.0000000000000284
 30
0.0
 40
10.0
  1
EWN48-LP
  7
STANDARD1
  0
LINE
  5
1D3EC
  8
1
 10
166.3333333333313
 20
51.5
 30
0.0
 11
166.3333333333313
 21
70.5
 31
0.0
  0
ARC
  5
1D3EE
  8
0
 10
166.33333333333371
 20
61.0
 30
0.0
 40
7.9999999999999387
 50
355.33958061588447
 51
4.660419384115448
  0
ARC
  5
1D3EF
  8
0
 10
166.3333333333336
 20
61.0
 30
0.0
 40
8.0
 50
183.28436910836561
 51
329.99999999999989
  0
ARC
  5
1D3F0
  8
0
 10
166.3333333333336
 20
61.0
 30
0.0
 40
7.9999999999999991
 50
30.000000000000139
 51
176.71563089163419
  0
ARC
  5
1D3F1
  8
0
 10
166.3333333333336
 20
61.0
 30
0.0
 40
7.0
 50
183.75419509310899
 51
325.15009542095282
  0
ARC
  5
1D3F2
  8
0
 10
166.33333333333431
 20
61.0
 30
0.0
 40
6.9999999999992681
 50
354.67200209599798
 51
5.3279979040019532
  0
ARC
  5
1D3F3
  8
0
 10
166.3333333333336
 20
61.0
 30
0.0
 40
6.9999999999999973
 50
34.849904579047127
 51
176.2458049068909
  0
LINE
  5
1D3F6
  8
2
 10
142.31700000000029
 20
59.599666666666678
 30
0.0
 11
142.31700000000029
 21
71.166666666666714
 31
0.0
  0
LINE
  5
1D3F7
  8
2
 10
138.18300000000031
 20
71.166666666666714
 30
0.0
 11
138.18300000000031
 21
59.599666666666678
 31
0.0
  0
LINE
  5
1D3F8
  8
2
 10
138.18300000000031
 20
59.599666666666678
 30
0.0
 11
137.75000000000031
 21
59.166666666666679
 31
0.0
  0
LINE
  5
1D3F9
  8
2
 10
142.75000000000031
 20
59.166666666666679
 30
0.0
 11
142.31700000000029
 21
59.599666666666678
 31
0.0
  0
LINE
  5
1D3FA
  8
2
 10
138.18300000000031
 20
59.599666666666678
 30
0.0
 11
142.31700000000029
 21
59.599666666666678
 31
0.0
  0
LINE
  5
1D42A
  8
2
 10
137.7500000000002
 20
59.166666666666657
 30
0.0
 11
137.75000000000031
 21
71.166666666666686
 31
0.0
  0
LINE
  5
1D42B
  8
2
 10
142.7500000000002
 20
59.166666666666657
 30
0.0
 11
142.75000000000031
 21
71.166666666666686
 31
0.0
  0
LINE
  5
1D42C
  8
1
 10
140.25000000000031
 20
56.166666666666679
 30
0.0
 11
140.25000000000031
 21
86.144111268694076
 31
0.0
  0
ARC
  5
1D438
  8
0
 10
160.36706341702879
 20
61.0
 30
0.0
 40
0.4583333333333333
 50
270.0
 51
90.0
  0
POLYLINE
  5
1D439
  8
0
 10
124.2366439675891
 20
71.282918167867891
 30
0.0
 66
     1
 70
     8
  0
VERTEX
  8
0
  5
1E20E
 10
124.237
 20
71.2829
 30
0.000000
  70
    32
  0
VERTEX
  8
0
  5
1E20F
 10
124.466
 20
71.2886
 30
0.000000
  70
    32
  0
VERTEX
  8
0
  5
1E210
 10
124.695
 20
71.3055
 30
0.000000
  70
    32
  0
VERTEX
  8
0
  5
1E211
 10
124.922
 20
71.3336
 30
0.000000
  70
    32
  0
VERTEX
  8
0
  5
1E212
 10
125.148
 20
71.3729
 30
0.000000
  70
    32
  0
VERTEX
  8
0
  5
1E213
 10
125.372
 20
71.4233
 30
0.000000
  70
    32
  0
VERTEX
  8
0
  5
1E214
 10
125.593
 20
71.4846
 30
0.000000
  70
    32
  0
VERTEX
  8
0
  5
1E215
 10
125.811
 20
71.5567
 30
0.000000
  70
    32
  0
VERTEX
  8
0
  5
1E216
 10
126.025
 20
71.6394
 30
0.000000
  70
    32
  0
VERTEX
  8
0
  5
1E217
 10
126.235
 20
71.7326
 30
0.000000
  70
    32
  0
VERTEX
  8
0
  5
1E218
 10
126.440
 20
71.8360
 30
0.000000
  70
    32
  0
VERTEX
  8
0
  5
1E219
 10
126.639
 20
71.9493
 30
0.000000
  70
    32
  0
VERTEX
  8
0
  5
1E21A
 10
126.833
 20
72.0723
 30
0.000000
  70
    32
  0
VERTEX
  8
0
  5
1E21B
 10
127.021
 20
72.2046
 30
0.000000
  70
    32
  0
VERTEX
  8
0
  5
1E21C
 10
127.201
 20
72.3461
 30
0.000000
  70
    32
  0
VERTEX
  8
0
  5
1E21D
 10
127.375
 20
72.4962
 30
0.000000
  70
    32
  0
VERTEX
  8
0
  5
1E21E
 10
127.541
 20
72.6548
 30
0.000000
  70
    32
  0
VERTEX
  8
0
  5
1E21F
 10
127.699
 20
72.8213
 30
0.000000
  70
    32
  0
VERTEX
  8
0
  5
1E220
 10
127.849
 20
72.9953
 30
0.000000
  70
    32
  0
VERTEX
  8
0
  5
1E221
 10
127.990
 20
73.1766
 30
0.000000
  70
    32
  0
VERTEX
  8
0
  5
1E222
 10
128.122
 20
73.3645
 30
0.000000
  70
    32
  0
VERTEX
  8
0
  5
1E223
 10
128.245
 20
73.5587
 30
0.000000
  70
    32
  0
VERTEX
  8
0
  5
1E224
 10
128.358
 20
73.7588
 30
0.000000
  70
    32
  0
VERTEX
  8
0
  5
1E225
 10
128.461
 20
73.9641
 30
0.000000
  70
    32
  0
VERTEX
  8
0
  5
1E226
 10
128.554
 20
74.1743
 30
0.000000
  70
    32
  0
VERTEX
  8
0
  5
1E227
 10
128.637
 20
74.3888
 30
0.000000
  70
    32
  0
VERTEX
  8
0
  5
1E228
 10
128.709
 20
74.6070
 30
0.000000
  70
    32
  0
VERTEX
  8
0
  5
1E229
 10
128.770
 20
74.8286
 30
0.000000
  70
    32
  0
VERTEX
  8
0
  5
1E22A
 10
128.820
 20
75.0529
 30
0.000000
  70
    32
  0
VERTEX
  8
0
  5
1E22B
 10
128.859
 20
75.2794
 30
0.000000
  70
    32
  0
VERTEX
  8
0
  5
1E22C
 10
128.887
 20
75.5076
 30
0.000000
  70
    32
  0
VERTEX
  8
0
  5
1E22D
 10
128.904
 20
75.7368
 30
0.000000
  70
    32
  0
VERTEX
  8
0
  5
1E22E
 10
128.910
 20
75.9667
 30
0.000000
  70
    32
  0
VERTEX
  8
0
  5
1E22F
 10
128.904
 20
76.1965
 30
0.000000
  70
    32
  0
VERTEX
  8
0
  5
1E230
 10
128.887
 20
76.4258
 30
0.000000
  70
    32
  0
VERTEX
  8
0
  5
1E231
 10
128.859
 20
76.6539
 30
0.000000
  70
    32
  0
VERTEX
  8
0
  5
1E232
 10
128.820
 20
76.8804
 30
0.000000
  70
    32
  0
VERTEX
  8
0
  5
1E233
 10
128.770
 20
77.1047
 30
0.000000
  70
    32
  0
VERTEX
  8
0
  5
1E234
 10
128.709
 20
77.3263
 30
0.000000
  70
    32
  0
VERTEX
  8
0
  5
1E235
 10
128.637
 20
77.5446
 30
0.000000
  70
    32
  0
VERTEX
  8
0
  5
1E236
 10
128.554
 20
77.7591
 30
0.000000
  70
    32
  0
VERTEX
  8
0
  5
1E237
 10
128.461
 20
77.9692
 30
0.000000
  70
    32
  0
VERTEX
  8
0
  5
1E238
 10
128.358
 20
78.1746
 30
0.000000
  70
    32
  0
VERTEX
  8
0
  5
1E239
 10
128.245
 20
78.3746
 30
0.000000
  70
    32
  0
VERTEX
  8
0
  5
1E23A
 10
128.122
 20
78.5688
 30
0.000000
  70
    32
  0
VERTEX
  8
0
  5
1E23B
 10
127.990
 20
78.7568
 30
0.000000
  70
    32
  0
VERTEX
  8
0
  5
1E23C
 10
127.849
 20
78.9380
 30
0.000000
  70
    32
  0
VERTEX
  8
0
  5
1E23D
 10
127.699
 20
79.1121
 30
0.000000
  70
    32
  0
VERTEX
  8
0
  5
1E23E
 10
127.541
 20
79.2786
 30
0.000000
  70
    32
  0
VERTEX
  8
0
  5
1E23F
 10
127.375
 20
79.4371
 30
0.000000
  70
    32
  0
VERTEX
  8
0
  5
1E240
 10
127.201
 20
79.5873
 30
0.000000
  70
    32
  0
VERTEX
  8
0
  5
1E241
 10
127.021
 20
79.7287
 30
0.000000
  70
    32
  0
VERTEX
  8
0
  5
1E242
 10
126.833
 20
79.8611
 30
0.000000
  70
    32
  0
VERTEX
  8
0
  5
1E243
 10
126.639
 20
79.9841
 30
0.000000
  70
    32
  0
VERTEX
  8
0
  5
1E244
 10
126.440
 20
80.0974
 30
0.000000
  70
    32
  0
VERTEX
  8
0
  5
1E245
 10
126.235
 20
80.2007
 30
0.000000
  70
    32
  0
VERTEX
  8
0
  5
1E246
 10
126.025
 20
80.2939
 30
0.000000
  70
    32
  0
VERTEX
  8
0
  5
1E247
 10
125.811
 20
80.3766
 30
0.000000
  70
    32
  0
VERTEX
  8
0
  5
1E248
 10
125.593
 20
80.4487
 30
0.000000
  70
    32
  0
VERTEX
  8
0
  5
1E249
 10
125.372
 20
80.5100
 30
0.000000
  70
    32
  0
VERTEX
  8
0
  5
1E24A
 10
125.148
 20
80.5604
 30
0.000000
  70
    32
  0
VERTEX
  8
0
  5
1E24B
 10
124.922
 20
80.5997
 30
0.000000
  70
    32
  0
VERTEX
  8
0
  5
1E24C
 10
124.695
 20
80.6279
 30
0.000000
  70
    32
  0
VERTEX
  8
0
  5
1E24D
 10
124.466
 20
80.6448
 30
0.000000
  70
    32
  0
VERTEX
  8
0
  5
1E24E
 10
124.237
 20
80.6504
 30
0.000000
  70
    32
  0
VERTEX
  8
0
  5
1E24F
 10
124.007
 20
80.6448
 30
0.000000
  70
    32
  0
VERTEX
  8
0
  5
1E250
 10
123.779
 20
80.6279
 30
0.000000
  70
    32
  0
VERTEX
  8
0
  5
1E251
 10
123.551
 20
80.5997
 30
0.000000
  70
    32
  0
VERTEX
  8
0
  5
1E252
 10
123.325
 20
80.5604
 30
0.000000
  70
    32
  0
VERTEX
  8
0
  5
1E253
 10
123.101
 20
80.5100
 30
0.000000
  70
    32
  0
VERTEX
  8
0
  5
1E254
 10
122.880
 20
80.4487
 30
0.000000
  70
    32
  0
VERTEX
  8
0
  5
1E255
 10
122.662
 20
80.3766
 30
0.000000
  70
    32
  0
VERTEX
  8
0
  5
1E256
 10
122.448
 20
80.2939
 30
0.000000
  70
    32
  0
VERTEX
  8
0
  5
1E257
 10
122.239
 20
80.2007
 30
0.000000
  70
    32
  0
VERTEX
  8
0
  5
1E258
 10
122.034
 20
80.0974
 30
0.000000
  70
    32
  0
VERTEX
  8
0
  5
1E259
 10
121.834
 20
79.9841
 30
0.000000
  70
    32
  0
VERTEX
  8
0
  5
1E25A
 10
121.640
 20
79.8611
 30
0.000000
  70
    32
  0
VERTEX
  8
0
  5
1E25B
 10
121.453
 20
79.7287
 30
0.000000
  70
    32
  0
VERTEX
  8
0
  5
1E25C
 10
121.272
 20
79.5873
 30
0.000000
  70
    32
  0
VERTEX
  8
0
  5
1E25D
 10
121.098
 20
79.4371
 30
0.000000
  70
    32
  0
VERTEX
  8
0
  5
1E25E
 10
120.932
 20
79.2786
 30
0.000000
  70
    32
  0
VERTEX
  8
0
  5
1E25F
 10
120.774
 20
79.1121
 30
0.000000
  70
    32
  0
VERTEX
  8
0
  5
1E260
 10
120.624
 20
78.9380
 30
0.000000
  70
    32
  0
VERTEX
  8
0
  5
1E261
 10
120.483
 20
78.7568
 30
0.000000
  70
    32
  0
VERTEX
  8
0
  5
1E262
 10
120.351
 20
78.5688
 30
0.000000
  70
    32
  0
VERTEX
  8
0
  5
1E263
 10
120.228
 20
78.3746
 30
0.000000
  70
    32
  0
VERTEX
  8
0
  5
1E264
 10
120.115
 20
78.1746
 30
0.000000
  70
    32
  0
VERTEX
  8
0
  5
1E265
 10
120.012
 20
77.9692
 30
0.000000
  70
    32
  0
VERTEX
  8
0
  5
1E266
 10
119.919
 20
77.7591
 30
0.000000
  70
    32
  0
VERTEX
  8
0
  5
1E267
 10
119.837
 20
77.5446
 30
0.000000
  70
    32
  0
VERTEX
  8
0
  5
1E268
 10
119.765
 20
77.3263
 30
0.000000
  70
    32
  0
VERTEX
  8
0
  5
1E269
 10
119.703
 20
77.1047
 30
0.000000
  70
    32
  0
VERTEX
  8
0
  5
1E26A
 10
119.653
 20
76.8804
 30
0.000000
  70
    32
  0
VERTEX
  8
0
  5
1E26B
 10
119.614
 20
76.6539
 30
0.000000
  70
    32
  0
VERTEX
  8
0
  5
1E26C
 10
119.586
 20
76.4258
 30
0.000000
  70
    32
  0
VERTEX
  8
0
  5
1E26D
 10
119.569
 20
76.1965
 30
0.000000
  70
    32
  0
VERTEX
  8
0
  5
1E26E
 10
119.563
 20
75.9667
 30
0.000000
  70
    32
  0
VERTEX
  8
0
  5
1E26F
 10
119.569
 20
75.7368
 30
0.000000
  70
    32
  0
VERTEX
  8
0
  5
1E270
 10
119.586
 20
75.5076
 30
0.000000
  70
    32
  0
VERTEX
  8
0
  5
1E271
 10
119.614
 20
75.2794
 30
0.000000
  70
    32
  0
VERTEX
  8
0
  5
1E272
 10
119.653
 20
75.0529
 30
0.000000
  70
    32
  0
VERTEX
  8
0
  5
1E273
 10
119.703
 20
74.8286
 30
0.000000
  70
    32
  0
VERTEX
  8
0
  5
1E274
 10
119.765
 20
74.6070
 30
0.000000
  70
    32
  0
VERTEX
  8
0
  5
1E275
 10
119.837
 20
74.3888
 30
0.000000
  70
    32
  0
VERTEX
  8
0
  5
1E276
 10
119.919
 20
74.1743
 30
0.000000
  70
    32
  0
VERTEX
  8
0
  5
1E277
 10
120.012
 20
73.9641
 30
0.000000
  70
    32
  0
VERTEX
  8
0
  5
1E278
 10
120.115
 20
73.7588
 30
0.000000
  70
    32
  0
VERTEX
  8
0
  5
1E279
 10
120.228
 20
73.5587
 30
0.000000
  70
    32
  0
VERTEX
  8
0
  5
1E27A
 10
120.351
 20
73.3645
 30
0.000000
  70
    32
  0
VERTEX
  8
0
  5
1E27B
 10
120.483
 20
73.1766
 30
0.000000
  70
    32
  0
VERTEX
  8
0
  5
1E27C
 10
120.624
 20
72.9953
 30
0.000000
  70
    32
  0
VERTEX
  8
0
  5
1E27D
 10
120.774
 20
72.8213
 30
0.000000
  70
    32
  0
VERTEX
  8
0
  5
1E27E
 10
120.932
 20
72.6548
 30
0.000000
  70
    32
  0
VERTEX
  8
0
  5
1E27F
 10
121.098
 20
72.4962
 30
0.000000
  70
    32
  0
VERTEX
  8
0
  5
1E280
 10
121.272
 20
72.3461
 30
0.000000
  70
    32
  0
VERTEX
  8
0
  5
1E281
 10
121.453
 20
72.2046
 30
0.000000
  70
    32
  0
VERTEX
  8
0
  5
1E282
 10
121.640
 20
72.0723
 30
0.000000
  70
    32
  0
VERTEX
  8
0
  5
1E283
 10
121.834
 20
71.9493
 30
0.000000
  70
    32
  0
VERTEX
  8
0
  5
1E284
 10
122.034
 20
71.8360
 30
0.000000
  70
    32
  0
VERTEX
  8
0
  5
1E285
 10
122.239
 20
71.7326
 30
0.000000
  70
    32
  0
VERTEX
  8
0
  5
1E286
 10
122.448
 20
71.6394
 30
0.000000
  70
    32
  0
VERTEX
  8
0
  5
1E287
 10
122.662
 20
71.5567
 30
0.000000
  70
    32
  0
VERTEX
  8
0
  5
1E288
 10
122.880
 20
71.4846
 30
0.000000
  70
    32
  0
VERTEX
  8
0
  5
1E289
 10
123.101
 20
71.4233
 30
0.000000
  70
    32
  0
VERTEX
  8
0
  5
1E28A
 10
123.325
 20
71.3729
 30
0.000000
  70
    32
  0
VERTEX
  8
0
  5
1E28B
 10
123.551
 20
71.3336
 30
0.000000
  70
    32
  0
VERTEX
  8
0
  5
1E28C
 10
123.779
 20
71.3055
 30
0.000000
  70
    32
  0
VERTEX
  8
0
  5
1E28D
 10
124.007
 20
71.2886
 30
0.000000
  70
    32
  0
VERTEX
  8
0
  5
1E28E
 10
124.237
 20
71.2829
 30
0.000000
  70
    32
  0
SEQEND
  8
0
  5
1E28F
  0
POLYLINE
  5
1D43B
  8
0
 10
156.26335603241139
 20
71.282918167867891
 30
0.0
 66
     1
 70
     8
  0
VERTEX
  8
0
  5
1E290
 10
156.263
 20
71.2829
 30
0.000000
  70
    32
  0
VERTEX
  8
0
  5
1E291
 10
156.493
 20
71.2886
 30
0.000000
  70
    32
  0
VERTEX
  8
0
  5
1E292
 10
156.721
 20
71.3055
 30
0.000000
  70
    32
  0
VERTEX
  8
0
  5
1E293
 10
156.949
 20
71.3336
 30
0.000000
  70
    32
  0
VERTEX
  8
0
  5
1E294
 10
157.175
 20
71.3729
 30
0.000000
  70
    32
  0
VERTEX
  8
0
  5
1E295
 10
157.399
 20
71.4233
 30
0.000000
  70
    32
  0
VERTEX
  8
0
  5
1E296
 10
157.620
 20
71.4846
 30
0.000000
  70
    32
  0
VERTEX
  8
0
  5
1E297
 10
157.838
 20
71.5567
 30
0.000000
  70
    32
  0
VERTEX
  8
0
  5
1E298
 10
158.052
 20
71.6394
 30
0.000000
  70
    32
  0
VERTEX
  8
0
  5
1E299
 10
158.261
 20
71.7326
 30
0.000000
  70
    32
  0
VERTEX
  8
0
  5
1E29A
 10
158.466
 20
71.8360
 30
0.000000
  70
    32
  0
VERTEX
  8
0
  5
1E29B
 10
158.666
 20
71.9493
 30
0.000000
  70
    32
  0
VERTEX
  8
0
  5
1E29C
 10
158.860
 20
72.0723
 30
0.000000
  70
    32
  0
VERTEX
  8
0
  5
1E29D
 10
159.047
 20
72.2046
 30
0.000000
  70
    32
  0
VERTEX
  8
0
  5
1E29E
 10
159.228
 20
72.3461
 30
0.000000
  70
    32
  0
VERTEX
  8
0
  5
1E29F
 10
159.402
 20
72.4962
 30
0.000000
  70
    32
  0
VERTEX
  8
0
  5
1E2A0
 10
159.568
 20
72.6548
 30
0.000000
  70
    32
  0
VERTEX
  8
0
  5
1E2A1
 10
159.726
 20
72.8213
 30
0.000000
  70
    32
  0
VERTEX
  8
0
  5
1E2A2
 10
159.876
 20
72.9953
 30
0.000000
  70
    32
  0
VERTEX
  8
0
  5
1E2A3
 10
160.017
 20
73.1766
 30
0.000000
  70
    32
  0
VERTEX
  8
0
  5
1E2A4
 10
160.149
 20
73.3645
 30
0.000000
  70
    32
  0
VERTEX
  8
0
  5
1E2A5
 10
160.272
 20
73.5587
 30
0.000000
  70
    32
  0
VERTEX
  8
0
  5
1E2A6
 10
160.385
 20
73.7588
 30
0.000000
  70
    32
  0
VERTEX
  8
0
  5
1E2A7
 10
160.488
 20
73.9641
 30
0.000000
  70
    32
  0
VERTEX
  8
0
  5
1E2A8
 10
160.581
 20
74.1743
 30
0.000000
  70
    32
  0
VERTEX
  8
0
  5
1E2A9
 10
160.663
 20
74.3888
 30
0.000000
  70
    32
  0
VERTEX
  8
0
  5
1E2AA
 10
160.735
 20
74.6070
 30
0.000000
  70
    32
  0
VERTEX
  8
0
  5
1E2AB
 10
160.797
 20
74.8286
 30
0.000000
  70
    32
  0
VERTEX
  8
0
  5
1E2AC
 10
160.847
 20
75.0529
 30
0.000000
  70
    32
  0
VERTEX
  8
0
  5
1E2AD
 10
160.886
 20
75.2794
 30
0.000000
  70
    32
  0
VERTEX
  8
0
  5
1E2AE
 10
160.914
 20
75.5076
 30
0.000000
  70
    32
  0
VERTEX
  8
0
  5
1E2AF
 10
160.931
 20
75.7368
 30
0.000000
  70
    32
  0
VERTEX
  8
0
  5
1E2B0
 10
160.937
 20
75.9667
 30
0.000000
  70
    32
  0
VERTEX
  8
0
  5
1E2B1
 10
160.931
 20
76.1965
 30
0.000000
  70
    32
  0
VERTEX
  8
0
  5
1E2B2
 10
160.914
 20
76.4258
 30
0.000000
  70
    32
  0
VERTEX
  8
0
  5
1E2B3
 10
160.886
 20
76.6539
 30
0.000000
  70
    32
  0
VERTEX
  8
0
  5
1E2B4
 10
160.847
 20
76.8804
 30
0.000000
  70
    32
  0
VERTEX
  8
0
  5
1E2B5
 10
160.797
 20
77.1047
 30
0.000000
  70
    32
  0
VERTEX
  8
0
  5
1E2B6
 10
160.735
 20
77.3263
 30
0.000000
  70
    32
  0
VERTEX
  8
0
  5
1E2B7
 10
160.663
 20
77.5446
 30
0.000000
  70
    32
  0
VERTEX
  8
0
  5
1E2B8
 10
160.581
 20
77.7591
 30
0.000000
  70
    32
  0
VERTEX
  8
0
  5
1E2B9
 10
160.488
 20
77.9692
 30
0.000000
  70
    32
  0
VERTEX
  8
0
  5
1E2BA
 10
160.385
 20
78.1746
 30
0.000000
  70
    32
  0
VERTEX
  8
0
  5
1E2BB
 10
160.272
 20
78.3746
 30
0.000000
  70
    32
  0
VERTEX
  8
0
  5
1E2BC
 10
160.149
 20
78.5688
 30
0.000000
  70
    32
  0
VERTEX
  8
0
  5
1E2BD
 10
160.017
 20
78.7568
 30
0.000000
  70
    32
  0
VERTEX
  8
0
  5
1E2BE
 10
159.876
 20
78.9380
 30
0.000000
  70
    32
  0
VERTEX
  8
0
  5
1E2BF
 10
159.726
 20
79.1121
 30
0.000000
  70
    32
  0
VERTEX
  8
0
  5
1E2C0
 10
159.568
 20
79.2786
 30
0.000000
  70
    32
  0
VERTEX
  8
0
  5
1E2C1
 10
159.402
 20
79.4371
 30
0.000000
  70
    32
  0
VERTEX
  8
0
  5
1E2C2
 10
159.228
 20
79.5873
 30
0.000000
  70
    32
  0
VERTEX
  8
0
  5
1E2C3
 10
159.047
 20
79.7287
 30
0.000000
  70
    32
  0
VERTEX
  8
0
  5
1E2C4
 10
158.860
 20
79.8611
 30
0.000000
  70
    32
  0
VERTEX
  8
0
  5
1E2C5
 10
158.666
 20
79.9841
 30
0.000000
  70
    32
  0
VERTEX
  8
0
  5
1E2C6
 10
158.466
 20
80.0974
 30
0.000000
  70
    32
  0
VERTEX
  8
0
  5
1E2C7
 10
158.261
 20
80.2007
 30
0.000000
  70
    32
  0
VERTEX
  8
0
  5
1E2C8
 10
158.052
 20
80.2939
 30
0.000000
  70
    32
  0
VERTEX
  8
0
  5
1E2C9
 10
157.838
 20
80.3766
 30
0.000000
  70
    32
  0
VERTEX
  8
0
  5
1E2CA
 10
157.620
 20
80.4487
 30
0.000000
  70
    32
  0
VERTEX
  8
0
  5
1E2CB
 10
157.399
 20
80.5100
 30
0.000000
  70
    32
  0
VERTEX
  8
0
  5
1E2CC
 10
157.175
 20
80.5604
 30
0.000000
  70
    32
  0
VERTEX
  8
0
  5
1E2CD
 10
156.949
 20
80.5997
 30
0.000000
  70
    32
  0
VERTEX
  8
0
  5
1E2CE
 10
156.721
 20
80.6279
 30
0.000000
  70
    32
  0
VERTEX
  8
0
  5
1E2CF
 10
156.493
 20
80.6448
 30
0.000000
  70
    32
  0
VERTEX
  8
0
  5
1E2D0
 10
156.263
 20
80.6504
 30
0.000000
  70
    32
  0
VERTEX
  8
0
  5
1E2D1
 10
156.034
 20
80.6448
 30
0.000000
  70
    32
  0
VERTEX
  8
0
  5
1E2D2
 10
155.805
 20
80.6279
 30
0.000000
  70
    32
  0
VERTEX
  8
0
  5
1E2D3
 10
155.578
 20
80.5997
 30
0.000000
  70
    32
  0
VERTEX
  8
0
  5
1E2D4
 10
155.352
 20
80.5604
 30
0.000000
  70
    32
  0
VERTEX
  8
0
  5
1E2D5
 10
155.128
 20
80.5100
 30
0.000000
  70
    32
  0
VERTEX
  8
0
  5
1E2D6
 10
154.907
 20
80.4487
 30
0.000000
  70
    32
  0
VERTEX
  8
0
  5
1E2D7
 10
154.689
 20
80.3766
 30
0.000000
  70
    32
  0
VERTEX
  8
0
  5
1E2D8
 10
154.475
 20
80.2939
 30
0.000000
  70
    32
  0
VERTEX
  8
0
  5
1E2D9
 10
154.265
 20
80.2007
 30
0.000000
  70
    32
  0
VERTEX
  8
0
  5
1E2DA
 10
154.060
 20
80.0974
 30
0.000000
  70
    32
  0
VERTEX
  8
0
  5
1E2DB
 10
153.861
 20
79.9841
 30
0.000000
  70
    32
  0
VERTEX
  8
0
  5
1E2DC
 10
153.667
 20
79.8611
 30
0.000000
  70
    32
  0
VERTEX
  8
0
  5
1E2DD
 10
153.479
 20
79.7287
 30
0.000000
  70
    32
  0
VERTEX
  8
0
  5
1E2DE
 10
153.299
 20
79.5873
 30
0.000000
  70
    32
  0
VERTEX
  8
0
  5
1E2DF
 10
153.125
 20
79.4371
 30
0.000000
  70
    32
  0
VERTEX
  8
0
  5
1E2E0
 10
152.959
 20
79.2786
 30
0.000000
  70
    32
  0
VERTEX
  8
0
  5
1E2E1
 10
152.801
 20
79.1121
 30
0.000000
  70
    32
  0
VERTEX
  8
0
  5
1E2E2
 10
152.651
 20
78.9380
 30
0.000000
  70
    32
  0
VERTEX
  8
0
  5
1E2E3
 10
152.510
 20
78.7568
 30
0.000000
  70
    32
  0
VERTEX
  8
0
  5
1E2E4
 10
152.378
 20
78.5688
 30
0.000000
  70
    32
  0
VERTEX
  8
0
  5
1E2E5
 10
152.255
 20
78.3746
 30
0.000000
  70
    32
  0
VERTEX
  8
0
  5
1E2E6
 10
152.142
 20
78.1746
 30
0.000000
  70
    32
  0
VERTEX
  8
0
  5
1E2E7
 10
152.039
 20
77.9692
 30
0.000000
  70
    32
  0
VERTEX
  8
0
  5
1E2E8
 10
151.946
 20
77.7591
 30
0.000000
  70
    32
  0
VERTEX
  8
0
  5
1E2E9
 10
151.863
 20
77.5446
 30
0.000000
  70
    32
  0
VERTEX
  8
0
  5
1E2EA
 10
151.791
 20
77.3263
 30
0.000000
  70
    32
  0
VERTEX
  8
0
  5
1E2EB
 10
151.730
 20
77.1047
 30
0.000000
  70
    32
  0
VERTEX
  8
0
  5
1E2EC
 10
151.680
 20
76.8804
 30
0.000000
  70
    32
  0
VERTEX
  8
0
  5
1E2ED
 10
151.641
 20
76.6539
 30
0.000000
  70
    32
  0
VERTEX
  8
0
  5
1E2EE
 10
151.613
 20
76.4258
 30
0.000000
  70
    32
  0
VERTEX
  8
0
  5
1E2EF
 10
151.596
 20
76.1965
 30
0.000000
  70
    32
  0
VERTEX
  8
0
  5
1E2F0
 10
151.590
 20
75.9667
 30
0.000000
  70
    32
  0
VERTEX
  8
0
  5
1E2F1
 10
151.596
 20
75.7368
 30
0.000000
  70
    32
  0
VERTEX
  8
0
  5
1E2F2
 10
151.613
 20
75.5076
 30
0.000000
  70
    32
  0
VERTEX
  8
0
  5
1E2F3
 10
151.641
 20
75.2794
 30
0.000000
  70
    32
  0
VERTEX
  8
0
  5
1E2F4
 10
151.680
 20
75.0529
 30
0.000000
  70
    32
  0
VERTEX
  8
0
  5
1E2F5
 10
151.730
 20
74.8286
 30
0.000000
  70
    32
  0
VERTEX
  8
0
  5
1E2F6
 10
151.791
 20
74.6070
 30
0.000000
  70
    32
  0
VERTEX
  8
0
  5
1E2F7
 10
151.863
 20
74.3888
 30
0.000000
  70
    32
  0
VERTEX
  8
0
  5
1E2F8
 10
151.946
 20
74.1743
 30
0.000000
  70
    32
  0
VERTEX
  8
0
  5
1E2F9
 10
152.039
 20
73.9641
 30
0.000000
  70
    32
  0
VERTEX
  8
0
  5
1E2FA
 10
152.142
 20
73.7588
 30
0.000000
  70
    32
  0
VERTEX
  8
0
  5
1E2FB
 10
152.255
 20
73.5587
 30
0.000000
  70
    32
  0
VERTEX
  8
0
  5
1E2FC
 10
152.378
 20
73.3645
 30
0.000000
  70
    32
  0
VERTEX
  8
0
  5
1E2FD
 10
152.510
 20
73.1766
 30
0.000000
  70
    32
  0
VERTEX
  8
0
  5
1E2FE
 10
152.651
 20
72.9953
 30
0.000000
  70
    32
  0
VERTEX
  8
0
  5
1E2FF
 10
152.801
 20
72.8213
 30
0.000000
  70
    32
  0
VERTEX
  8
0
  5
1E300
 10
152.959
 20
72.6548
 30
0.000000
  70
    32
  0
VERTEX
  8
0
  5
1E301
 10
153.125
 20
72.4962
 30
0.000000
  70
    32
  0
VERTEX
  8
0
  5
1E302
 10
153.299
 20
72.3461
 30
0.000000
  70
    32
  0
VERTEX
  8
0
  5
1E303
 10
153.479
 20
72.2046
 30
0.000000
  70
    32
  0
VERTEX
  8
0
  5
1E304
 10
153.667
 20
72.0723
 30
0.000000
  70
    32
  0
VERTEX
  8
0
  5
1E305
 10
153.861
 20
71.9493
 30
0.000000
  70
    32
  0
VERTEX
  8
0
  5
1E306
 10
154.060
 20
71.8360
 30
0.000000
  70
    32
  0
VERTEX
  8
0
  5
1E307
 10
154.265
 20
71.7326
 30
0.000000
  70
    32
  0
VERTEX
  8
0
  5
1E308
 10
154.475
 20
71.6394
 30
0.000000
  70
    32
  0
VERTEX
  8
0
  5
1E309
 10
154.689
 20
71.5567
 30
0.000000
  70
    32
  0
VERTEX
  8
0
  5
1E30A
 10
154.907
 20
71.4846
 30
0.000000
  70
    32
  0
VERTEX
  8
0
  5
1E30B
 10
155.128
 20
71.4233
 30
0.000000
  70
    32
  0
VERTEX
  8
0
  5
1E30C
 10
155.352
 20
71.3729
 30
0.000000
  70
    32
  0
VERTEX
  8
0
  5
1E30D
 10
155.578
 20
71.3336
 30
0.000000
  70
    32
  0
VERTEX
  8
0
  5
1E30E
 10
155.805
 20
71.3055
 30
0.000000
  70
    32
  0
VERTEX
  8
0
  5
1E30F
 10
156.034
 20
71.2886
 30
0.000000
  70
    32
  0
VERTEX
  8
0
  5
1E310
 10
156.263
 20
71.2829
 30
0.000000
  70
    32
  0
SEQEND
  8
0
  5
1E311
  0
LINE
  5
1D443
  8
0
 10
156.55000000000061
 20
83.166666666666799
 30
0.0
 11
156.25236630445281
 21
83.166666666666799
 31
0.0
  0
ARC
  5
1D444
  8
0
 10
156.55000000000061
 20
75.966666666666811
 30
0.0
 40
7.1999999999999957
 50
290.67709639263569
 51
90.0
  0
POLYLINE
  5
1D445
  8
0
 66
     1
 10
0.0
 20
0.0
 30
0.0
  0
VERTEX
  5
1E00F
  8
0
 10
156.25236630445281
 20
83.166666666666799
 30
0.0
  0
VERTEX
  5
1E010
  8
0
 10
156.02285762658991
 20
83.163039707080813
 30
0.0
  0
VERTEX
  5
1E011
  8
0
 10
155.4198376053003
 20
83.118870866713465
 30
0.0
  0
VERTEX
  5
1E012
  8
0
 10
154.8225036191169
 20
83.025013206149126
 30
0.0
  0
VERTEX
  5
1E013
  8
0
 10
154.2182802551994
 20
82.877194258580616
 30
0.0
  0
VERTEX
  5
1E014
  8
0
 10
153.6286966102081
 20
82.678680947256225
 30
0.0
  0
VERTEX
  5
1E015
  8
0
 10
153.21276536584489
 20
82.503762352526337
 30
0.0
  0
SEQEND
  5
1E016
  8
0
  0
POLYLINE
  5
1D446
  8
0
 66
     1
 10
0.0
 20
0.0
 30
0.0
  0
VERTEX
  5
1E017
  8
0
 10
127.2872346341554
 20
82.503762352526209
 30
0.0
  0
VERTEX
  5
1E018
  8
0
 10
127.2568954639422
 20
82.51755152157267
 30
0.0
  0
VERTEX
  5
1E019
  8
0
 10
126.6913855618151
 20
82.745174570787924
 30
0.0
  0
VERTEX
  5
1E01A
  8
0
 10
126.1090070143801
 20
82.925066470885767
 30
0.0
  0
VERTEX
  5
1E01B
  8
0
 10
125.49625278544261
 20
83.058825818337368
 30
0.0
  0
VERTEX
  5
1E01C
  8
0
 10
124.8743395726615
 20
83.139633408114207
 30
0.0
  0
VERTEX
  5
1E01D
  8
0
 10
124.26576165959069
 20
83.166599106187505
 30
0.0
  0
VERTEX
  5
1E01E
  8
0
 10
124.2474459349083
 20
83.166666666666799
 30
0.0
  0
SEQEND
  5
1E01F
  8
0
  0
LINE
  5
1D44A
  8
0
 10
124.2474459349083
 20
83.166666666666799
 30
0.0
 11
123.95
 21
83.166666666666799
 31
0.0
  0
ARC
  5
1D44B
  8
0
 10
123.95
 20
75.966666666666811
 30
0.0
 40
7.1999999999999948
 50
90.0
 51
249.32290360736431
  0
ARC
  5
1D450
  8
0
 10
133.0019036319697
 20
120.0583502826094
 30
0.0
 40
57.133049242425081
 50
284.18235019523399
 51
297.1718425900379
  0
ARC
  5
1D453
  8
0
 10
147.4980963680307
 20
120.058350282609
 30
0.0
 40
57.13304924242464
 50
242.8281574099619
 51
255.81764980476601
  0
LINE
  5
1D455
  8
0
 10
140.8000000000003
 20
83.144111268694076
 30
0.0
 11
139.7000000000003
 21
83.144111268694076
 31
0.0
  0
ARC
  5
1D456
  8
0
 10
140.2500000000008
 20
76.449677094029596
 30
0.0
 40
6.7169895726371172
 50
94.696746754375724
 51
98.746697778422856
  0
ARC
  5
1D457
  8
0
 10
140.24999992602361
 20
76.449677293216837
 30
0.0
 40
6.7169893601574993
 50
108.4109431001683
 51
112.7067525136025
  0
ARC
  5
1D458
  8
0
 10
140.24999999491359
 20
76.449677099553753
 30
0.0
 40
6.7169895651375988
 50
123.3518254280763
 51
135.77715419928089
  0
ARC
  5
1D459
  8
0
 10
140.2500000000891
 20
76.449677094130152
 30
0.0
 40
6.7169895725019719
 50
44.222845804141471
 51
56.64817455147476
  0
ARC
  5
1D45A
  8
0
 10
140.25000007420209
 20
76.449677280917058
 30
0.0
 40
6.7169893715946341
 50
67.293247549338332
 51
71.589056952116479
  0
ARC
  5
1D45B
  8
0
 10
140.25
 20
76.449677094031813
 30
0.0
 40
6.7169895726348896
 50
81.253302221709887
 51
85.303253245624276
  0
POLYLINE
  5
1D45C
  8
0
 66
     1
 10
0.0
 20
0.0
 30
0.0
  0
VERTEX
  5
1E020
  8
0
 10
136.5571428660727
 20
82.060448440834406
 30
0.0
  0
VERTEX
  5
1E021
  8
0
 10
136.55737597302121
 20
82.060579013489459
 30
0.0
  0
VERTEX
  5
1E022
  8
0
 10
136.58602641145379
 20
82.07660421453653
 30
0.0
  0
VERTEX
  5
1E023
  8
0
 10
136.65799890063451
 20
82.116661064519292
 30
0.0
  0
VERTEX
  5
1E024
  8
0
 10
136.7727061521785
 20
82.179923539837205
 30
0.0
  0
VERTEX
  5
1E025
  8
0
 10
136.9306202025343
 20
82.265889515309084
 30
0.0
  0
VERTEX
  5
1E026
  8
0
 10
137.1241364057077
 20
82.369534734987724
 30
0.0
  0
VERTEX
  5
1E027
  8
0
 10
137.32845809016061
 20
82.477033248833024
 30
0.0
  0
VERTEX
  5
1E028
  8
0
 10
137.50313021364011
 20
82.567434957493504
 30
0.0
  0
VERTEX
  5
1E029
  8
0
 10
137.61429681855299
 20
82.624280141256463
 30
0.0
  0
VERTEX
  5
1E02A
  8
0
 10
137.65608080210399
 20
82.645511579592267
 30
0.0
  0
VERTEX
  5
1E02B
  8
0
 10
137.65714286287101
 20
82.646050289940774
 30
0.0
  0
SEQEND
  5
1E02C
  8
0
  0
LINE
  5
1D45D
  8
0
 10
139.2285714285529
 20
83.088549934530874
 30
0.0
 11
138.12857143007739
 21
82.822862305520857
 31
0.0
  0
POLYLINE
  5
1D45E
  8
0
 66
     1
 10
0.0
 20
0.0
 30
0.0
  0
VERTEX
  5
1E02D
  8
0
 10
142.84285713529621
 20
82.646050290870676
 30
0.0
  0
VERTEX
  5
1E02E
  8
0
 10
142.8567592105058
 20
82.638995014608781
 30
0.0
  0
VERTEX
  5
1E02F
  8
0
 10
142.91607863301539
 20
82.608799708610775
 30
0.0
  0
VERTEX
  5
1E030
  8
0
 10
143.0186408587227
 20
82.556240328431898
 30
0.0
  0
VERTEX
  5
1E031
  8
0
 10
143.16296328605409
 20
82.481504760234543
 30
0.0
  0
VERTEX
  5
1E032
  8
0
 10
143.3439141668423
 20
82.386472480536952
 30
0.0
  0
VERTEX
  5
1E033
  8
0
 10
143.5452262516005
 20
82.278926549779953
 30
0.0
  0
VERTEX
  5
1E034
  8
0
 10
143.73434725827059
 20
82.176053662766705
 30
0.0
  0
VERTEX
  5
1E035
  8
0
 10
143.8711840499399
 20
82.100453291413885
 30
0.0
  0
VERTEX
  5
1E036
  8
0
 10
143.93540474956461
 20
82.064621320365575
 30
0.0
  0
VERTEX
  5
1E037
  8
0
 10
143.94285713498121
 20
82.060448440244386
 30
0.0
  0
SEQEND
  5
1E038
  8
0
  0
LINE
  5
1D45F
  8
0
 10
142.3714285679448
 20
82.822862306008687
 30
0.0
 11
141.2714285714853
 21
83.088549934520415
 31
0.0
  0
ARC
  5
1D460
  8
0
 10
146.8316123188408
 20
61.000000000000028
 30
0.0
 40
0.598278985507225
 50
111.0555722399251
 51
129.99626903834181
  0
ARC
  5
1D461
  8
0
 10
146.8316123188408
 20
61.000000000000028
 30
0.0
 40
0.5982789855072606
 50
230.00373096165811
 51
248.94442776007219
  0
ARC
  5
1D462
  8
0
 10
133.66838768115969
 20
61.000000000000028
 30
0.0
 40
0.5982789855072375
 50
50.003730961658121
 51
68.944427760072159
  0
ARC
  5
1D463
  8
0
 10
133.66838768115969
 20
61.0
 30
0.0
 40
0.5982789855072054
 50
291.0555722399252
 51
309.99626903834178
  0
POLYLINE
  5
1D465
  8
0
 10
127.2872346341555
 20
82.503762352526053
 30
0.0
 66
     1
 70
     8
  0
VERTEX
  8
0
  5
1E312
 10
127.287
 20
82.5038
 30
0.000000
  70
    32
  0
VERTEX
  8
0
  5
1E313
 10
127.325
 20
82.4933
 30
0.000000
  70
    32
  0
VERTEX
  8
0
  5
1E314
 10
127.362
 20
82.4828
 30
0.000000
  70
    32
  0
VERTEX
  8
0
  5
1E315
 10
127.400
 20
82.4724
 30
0.000000
  70
    32
  0
VERTEX
  8
0
  5
1E316
 10
127.438
 20
82.4620
 30
0.000000
  70
    32
  0
VERTEX
  8
0
  5
1E317
 10
127.475
 20
82.4516
 30
0.000000
  70
    32
  0
VERTEX
  8
0
  5
1E318
 10
127.513
 20
82.4413
 30
0.000000
  70
    32
  0
VERTEX
  8
0
  5
1E319
 10
127.551
 20
82.4310
 30
0.000000
  70
    32
  0
VERTEX
  8
0
  5
1E31A
 10
127.588
 20
82.4207
 30
0.000000
  70
    32
  0
VERTEX
  8
0
  5
1E31B
 10
127.626
 20
82.4104
 30
0.000000
  70
    32
  0
VERTEX
  8
0
  5
1E31C
 10
127.664
 20
82.4002
 30
0.000000
  70
    32
  0
VERTEX
  8
0
  5
1E31D
 10
127.701
 20
82.3900
 30
0.000000
  70
    32
  0
VERTEX
  8
0
  5
1E31E
 10
127.739
 20
82.3799
 30
0.000000
  70
    32
  0
VERTEX
  8
0
  5
1E31F
 10
127.777
 20
82.3697
 30
0.000000
  70
    32
  0
VERTEX
  8
0
  5
1E320
 10
127.815
 20
82.3596
 30
0.000000
  70
    32
  0
VERTEX
  8
0
  5
1E321
 10
127.852
 20
82.3496
 30
0.000000
  70
    32
  0
VERTEX
  8
0
  5
1E322
 10
127.890
 20
82.3395
 30
0.000000
  70
    32
  0
VERTEX
  8
0
  5
1E323
 10
127.928
 20
82.3295
 30
0.000000
  70
    32
  0
VERTEX
  8
0
  5
1E324
 10
127.966
 20
82.3195
 30
0.000000
  70
    32
  0
VERTEX
  8
0
  5
1E325
 10
128.003
 20
82.3096
 30
0.000000
  70
    32
  0
VERTEX
  8
0
  5
1E326
 10
128.041
 20
82.2997
 30
0.000000
  70
    32
  0
VERTEX
  8
0
  5
1E327
 10
128.079
 20
82.2898
 30
0.000000
  70
    32
  0
VERTEX
  8
0
  5
1E328
 10
128.117
 20
82.2799
 30
0.000000
  70
    32
  0
VERTEX
  8
0
  5
1E329
 10
128.155
 20
82.2701
 30
0.000000
  70
    32
  0
VERTEX
  8
0
  5
1E32A
 10
128.192
 20
82.2603
 30
0.000000
  70
    32
  0
VERTEX
  8
0
  5
1E32B
 10
128.230
 20
82.2505
 30
0.000000
  70
    32
  0
VERTEX
  8
0
  5
1E32C
 10
128.268
 20
82.2408
 30
0.000000
  70
    32
  0
VERTEX
  8
0
  5
1E32D
 10
128.306
 20
82.2311
 30
0.000000
  70
    32
  0
VERTEX
  8
0
  5
1E32E
 10
128.344
 20
82.2214
 30
0.000000
  70
    32
  0
VERTEX
  8
0
  5
1E32F
 10
128.381
 20
82.2118
 30
0.000000
  70
    32
  0
VERTEX
  8
0
  5
1E330
 10
128.419
 20
82.2022
 30
0.000000
  70
    32
  0
VERTEX
  8
0
  5
1E331
 10
128.457
 20
82.1926
 30
0.000000
  70
    32
  0
VERTEX
  8
0
  5
1E332
 10
128.495
 20
82.1830
 30
0.000000
  70
    32
  0
VERTEX
  8
0
  5
1E333
 10
128.533
 20
82.1735
 30
0.000000
  70
    32
  0
VERTEX
  8
0
  5
1E334
 10
128.571
 20
82.1640
 30
0.000000
  70
    32
  0
VERTEX
  8
0
  5
1E335
 10
128.609
 20
82.1545
 30
0.000000
  70
    32
  0
VERTEX
  8
0
  5
1E336
 10
128.647
 20
82.1451
 30
0.000000
  70
    32
  0
VERTEX
  8
0
  5
1E337
 10
128.684
 20
82.1357
 30
0.000000
  70
    32
  0
VERTEX
  8
0
  5
1E338
 10
128.722
 20
82.1263
 30
0.000000
  70
    32
  0
VERTEX
  8
0
  5
1E339
 10
128.760
 20
82.1170
 30
0.000000
  70
    32
  0
VERTEX
  8
0
  5
1E33A
 10
128.798
 20
82.1077
 30
0.000000
  70
    32
  0
VERTEX
  8
0
  5
1E33B
 10
128.836
 20
82.0984
 30
0.000000
  70
    32
  0
VERTEX
  8
0
  5
1E33C
 10
128.874
 20
82.0892
 30
0.000000
  70
    32
  0
VERTEX
  8
0
  5
1E33D
 10
128.912
 20
82.0799
 30
0.000000
  70
    32
  0
VERTEX
  8
0
  5
1E33E
 10
128.950
 20
82.0708
 30
0.000000
  70
    32
  0
VERTEX
  8
0
  5
1E33F
 10
128.988
 20
82.0616
 30
0.000000
  70
    32
  0
VERTEX
  8
0
  5
1E340
 10
129.026
 20
82.0525
 30
0.000000
  70
    32
  0
VERTEX
  8
0
  5
1E341
 10
129.064
 20
82.0434
 30
0.000000
  70
    32
  0
VERTEX
  8
0
  5
1E342
 10
129.102
 20
82.0343
 30
0.000000
  70
    32
  0
VERTEX
  8
0
  5
1E343
 10
129.140
 20
82.0253
 30
0.000000
  70
    32
  0
VERTEX
  8
0
  5
1E344
 10
129.178
 20
82.0163
 30
0.000000
  70
    32
  0
VERTEX
  8
0
  5
1E345
 10
129.216
 20
82.0073
 30
0.000000
  70
    32
  0
VERTEX
  8
0
  5
1E346
 10
129.254
 20
81.9983
 30
0.000000
  70
    32
  0
VERTEX
  8
0
  5
1E347
 10
129.292
 20
81.9894
 30
0.000000
  70
    32
  0
VERTEX
  8
0
  5
1E348
 10
129.330
 20
81.9805
 30
0.000000
  70
    32
  0
VERTEX
  8
0
  5
1E349
 10
129.368
 20
81.9717
 30
0.000000
  70
    32
  0
VERTEX
  8
0
  5
1E34A
 10
129.406
 20
81.9629
 30
0.000000
  70
    32
  0
VERTEX
  8
0
  5
1E34B
 10
129.444
 20
81.9541
 30
0.000000
  70
    32
  0
VERTEX
  8
0
  5
1E34C
 10
129.482
 20
81.9453
 30
0.000000
  70
    32
  0
VERTEX
  8
0
  5
1E34D
 10
129.520
 20
81.9366
 30
0.000000
  70
    32
  0
VERTEX
  8
0
  5
1E34E
 10
129.558
 20
81.9279
 30
0.000000
  70
    32
  0
VERTEX
  8
0
  5
1E34F
 10
129.596
 20
81.9192
 30
0.000000
  70
    32
  0
VERTEX
  8
0
  5
1E350
 10
129.634
 20
81.9106
 30
0.000000
  70
    32
  0
VERTEX
  8
0
  5
1E351
 10
129.673
 20
81.9020
 30
0.000000
  70
    32
  0
VERTEX
  8
0
  5
1E352
 10
129.711
 20
81.8934
 30
0.000000
  70
    32
  0
VERTEX
  8
0
  5
1E353
 10
129.749
 20
81.8848
 30
0.000000
  70
    32
  0
VERTEX
  8
0
  5
1E354
 10
129.787
 20
81.8763
 30
0.000000
  70
    32
  0
VERTEX
  8
0
  5
1E355
 10
129.825
 20
81.8678
 30
0.000000
  70
    32
  0
VERTEX
  8
0
  5
1E356
 10
129.863
 20
81.8594
 30
0.000000
  70
    32
  0
VERTEX
  8
0
  5
1E357
 10
129.901
 20
81.8510
 30
0.000000
  70
    32
  0
VERTEX
  8
0
  5
1E358
 10
129.939
 20
81.8426
 30
0.000000
  70
    32
  0
VERTEX
  8
0
  5
1E359
 10
129.977
 20
81.8342
 30
0.000000
  70
    32
  0
VERTEX
  8
0
  5
1E35A
 10
130.016
 20
81.8259
 30
0.000000
  70
    32
  0
VERTEX
  8
0
  5
1E35B
 10
130.054
 20
81.8176
 30
0.000000
  70
    32
  0
VERTEX
  8
0
  5
1E35C
 10
130.092
 20
81.8093
 30
0.000000
  70
    32
  0
VERTEX
  8
0
  5
1E35D
 10
130.130
 20
81.8010
 30
0.000000
  70
    32
  0
VERTEX
  8
0
  5
1E35E
 10
130.168
 20
81.7928
 30
0.000000
  70
    32
  0
VERTEX
  8
0
  5
1E35F
 10
130.206
 20
81.7847
 30
0.000000
  70
    32
  0
VERTEX
  8
0
  5
1E360
 10
130.245
 20
81.7765
 30
0.000000
  70
    32
  0
VERTEX
  8
0
  5
1E361
 10
130.283
 20
81.7684
 30
0.000000
  70
    32
  0
VERTEX
  8
0
  5
1E362
 10
130.321
 20
81.7603
 30
0.000000
  70
    32
  0
VERTEX
  8
0
  5
1E363
 10
130.359
 20
81.7522
 30
0.000000
  70
    32
  0
VERTEX
  8
0
  5
1E364
 10
130.398
 20
81.7442
 30
0.000000
  70
    32
  0
VERTEX
  8
0
  5
1E365
 10
130.436
 20
81.7362
 30
0.000000
  70
    32
  0
VERTEX
  8
0
  5
1E366
 10
130.474
 20
81.7283
 30
0.000000
  70
    32
  0
VERTEX
  8
0
  5
1E367
 10
130.512
 20
81.7203
 30
0.000000
  70
    32
  0
VERTEX
  8
0
  5
1E368
 10
130.550
 20
81.7124
 30
0.000000
  70
    32
  0
VERTEX
  8
0
  5
1E369
 10
130.589
 20
81.7045
 30
0.000000
  70
    32
  0
VERTEX
  8
0
  5
1E36A
 10
130.627
 20
81.6967
 30
0.000000
  70
    32
  0
VERTEX
  8
0
  5
1E36B
 10
130.665
 20
81.6889
 30
0.000000
  70
    32
  0
VERTEX
  8
0
  5
1E36C
 10
130.703
 20
81.6811
 30
0.000000
  70
    32
  0
VERTEX
  8
0
  5
1E36D
 10
130.742
 20
81.6734
 30
0.000000
  70
    32
  0
VERTEX
  8
0
  5
1E36E
 10
130.780
 20
81.6656
 30
0.000000
  70
    32
  0
VERTEX
  8
0
  5
1E36F
 10
130.818
 20
81.6579
 30
0.000000
  70
    32
  0
VERTEX
  8
0
  5
1E370
 10
130.857
 20
81.6503
 30
0.000000
  70
    32
  0
VERTEX
  8
0
  5
1E371
 10
130.895
 20
81.6427
 30
0.000000
  70
    32
  0
VERTEX
  8
0
  5
1E372
 10
130.933
 20
81.6351
 30
0.000000
  70
    32
  0
VERTEX
  8
0
  5
1E373
 10
130.972
 20
81.6275
 30
0.000000
  70
    32
  0
VERTEX
  8
0
  5
1E374
 10
131.010
 20
81.6200
 30
0.000000
  70
    32
  0
VERTEX
  8
0
  5
1E375
 10
131.048
 20
81.6124
 30
0.000000
  70
    32
  0
VERTEX
  8
0
  5
1E376
 10
131.086
 20
81.6050
 30
0.000000
  70
    32
  0
VERTEX
  8
0
  5
1E377
 10
131.125
 20
81.5975
 30
0.000000
  70
    32
  0
VERTEX
  8
0
  5
1E378
 10
131.163
 20
81.5901
 30
0.000000
  70
    32
  0
VERTEX
  8
0
  5
1E379
 10
131.201
 20
81.5827
 30
0.000000
  70
    32
  0
VERTEX
  8
0
  5
1E37A
 10
131.240
 20
81.5754
 30
0.000000
  70
    32
  0
VERTEX
  8
0
  5
1E37B
 10
131.278
 20
81.5681
 30
0.000000
  70
    32
  0
VERTEX
  8
0
  5
1E37C
 10
131.317
 20
81.5608
 30
0.000000
  70
    32
  0
VERTEX
  8
0
  5
1E37D
 10
131.355
 20
81.5535
 30
0.000000
  70
    32
  0
VERTEX
  8
0
  5
1E37E
 10
131.393
 20
81.5463
 30
0.000000
  70
    32
  0
VERTEX
  8
0
  5
1E37F
 10
131.432
 20
81.5391
 30
0.000000
  70
    32
  0
VERTEX
  8
0
  5
1E380
 10
131.470
 20
81.5319
 30
0.000000
  70
    32
  0
VERTEX
  8
0
  5
1E381
 10
131.508
 20
81.5248
 30
0.000000
  70
    32
  0
VERTEX
  8
0
  5
1E382
 10
131.547
 20
81.5177
 30
0.000000
  70
    32
  0
VERTEX
  8
0
  5
1E383
 10
131.585
 20
81.5106
 30
0.000000
  70
    32
  0
VERTEX
  8
0
  5
1E384
 10
131.624
 20
81.5036
 30
0.000000
  70
    32
  0
VERTEX
  8
0
  5
1E385
 10
131.662
 20
81.4965
 30
0.000000
  70
    32
  0
VERTEX
  8
0
  5
1E386
 10
131.701
 20
81.4896
 30
0.000000
  70
    32
  0
VERTEX
  8
0
  5
1E387
 10
131.739
 20
81.4826
 30
0.000000
  70
    32
  0
VERTEX
  8
0
  5
1E388
 10
131.777
 20
81.4757
 30
0.000000
  70
    32
  0
VERTEX
  8
0
  5
1E389
 10
131.816
 20
81.4688
 30
0.000000
  70
    32
  0
VERTEX
  8
0
  5
1E38A
 10
131.854
 20
81.4619
 30
0.000000
  70
    32
  0
VERTEX
  8
0
  5
1E38B
 10
131.893
 20
81.4551
 30
0.000000
  70
    32
  0
VERTEX
  8
0
  5
1E38C
 10
131.931
 20
81.4483
 30
0.000000
  70
    32
  0
VERTEX
  8
0
  5
1E38D
 10
131.970
 20
81.4416
 30
0.000000
  70
    32
  0
VERTEX
  8
0
  5
1E38E
 10
132.008
 20
81.4348
 30
0.000000
  70
    32
  0
VERTEX
  8
0
  5
1E38F
 10
132.047
 20
81.4281
 30
0.000000
  70
    32
  0
VERTEX
  8
0
  5
1E390
 10
132.085
 20
81.4214
 30
0.000000
  70
    32
  0
VERTEX
  8
0
  5
1E391
 10
132.123
 20
81.4148
 30
0.000000
  70
    32
  0
VERTEX
  8
0
  5
1E392
 10
132.162
 20
81.4082
 30
0.000000
  70
    32
  0
SEQEND
  8
0
  5
1E393
  0
POLYLINE
  5
1D466
  8
0
 66
     1
 10
0.0
 20
0.0
 30
0.0
  0
VERTEX
  5
1E039
  8
0
 10
134.66531606109299
 20
81.134447546455533
 30
0.0
  0
VERTEX
  5
1E03A
  8
0
 10
134.3729251252791
 20
81.142109370847194
 30
0.0
  0
VERTEX
  5
1E03B
  8
0
 10
134.025502669346
 20
81.164642612799426
 30
0.0
  0
VERTEX
  5
1E03C
  8
0
 10
133.6324985695727
 20
81.201562931118815
 30
0.0
  0
VERTEX
  5
1E03D
  8
0
 10
133.20570775885591
 20
81.251582274798409
 30
0.0
  0
VERTEX
  5
1E03E
  8
0
 10
132.7530834243361
 20
81.313968745898293
 30
0.0
  0
VERTEX
  5
1E03F
  8
0
 10
132.2908296411733
 20
81.386438079659186
 30
0.0
  0
VERTEX
  5
1E040
  8
0
 10
132.16198493211769
 20
81.40818451222674
 30
0.0
  0
SEQEND
  5
1E041
  8
0
  0
POLYLINE
  5
1D467
  8
0
 66
     1
 10
0.0
 20
0.0
 30
0.0
  0
VERTEX
  5
1E042
  8
0
 10
148.33801506788279
 20
81.408184512226697
 30
0.0
  0
VERTEX
  5
1E043
  8
0
 10
147.87462824059679
 20
81.333101667057448
 30
0.0
  0
VERTEX
  5
1E044
  8
0
 10
147.40452003186061
 20
81.265941686375982
 30
0.0
  0
VERTEX
  5
1E045
  8
0
 10
146.9667727470806
 20
81.212332807467064
 30
0.0
  0
VERTEX
  5
1E046
  8
0
 10
146.54932544647281
 20
81.170863405786747
 30
0.0
  0
VERTEX
  5
1E047
  8
0
 10
146.1653545934069
 20
81.143958347713749
 30
0.0
  0
VERTEX
  5
1E048
  8
0
 10
145.99073759351921
 20
81.136836456616095
 30
0.0
  0
VERTEX
  5
1E049
  8
0
 10
145.83468393890749
 20
81.134447546455476
 30
0.0
  0
SEQEND
  5
1E04A
  8
0
  0
POLYLINE
  5
1D468
  8
0
 10
148.33801506788285
 20
81.408184512226683
 30
0.0
 66
     1
 70
     8
  0
VERTEX
  8
0
  5
1E394
 10
148.338
 20
81.4082
 30
0.000000
  70
    32
  0
VERTEX
  8
0
  5
1E395
 10
148.377
 20
81.4148
 30
0.000000
  70
    32
  0
VERTEX
  8
0
  5
1E396
 10
148.415
 20
81.4214
 30
0.000000
  70
    32
  0
VERTEX
  8
0
  5
1E397
 10
148.453
 20
81.4281
 30
0.000000
  70
    32
  0
VERTEX
  8
0
  5
1E398
 10
148.492
 20
81.4348
 30
0.000000
  70
    32
  0
VERTEX
  8
0
  5
1E399
 10
148.530
 20
81.4416
 30
0.000000
  70
    32
  0
VERTEX
  8
0
  5
1E39A
 10
148.569
 20
81.4483
 30
0.000000
  70
    32
  0
VERTEX
  8
0
  5
1E39B
 10
148.607
 20
81.4551
 30
0.000000
  70
    32
  0
VERTEX
  8
0
  5
1E39C
 10
148.646
 20
81.4619
 30
0.000000
  70
    32
  0
VERTEX
  8
0
  5
1E39D
 10
148.684
 20
81.4688
 30
0.000000
  70
    32
  0
VERTEX
  8
0
  5
1E39E
 10
148.723
 20
81.4757
 30
0.000000
  70
    32
  0
VERTEX
  8
0
  5
1E39F
 10
148.761
 20
81.4826
 30
0.000000
  70
    32
  0
VERTEX
  8
0
  5
1E3A0
 10
148.799
 20
81.4896
 30
0.000000
  70
    32
  0
VERTEX
  8
0
  5
1E3A1
 10
148.838
 20
81.4965
 30
0.000000
  70
    32
  0
VERTEX
  8
0
  5
1E3A2
 10
148.876
 20
81.5036
 30
0.000000
  70
    32
  0
VERTEX
  8
0
  5
1E3A3
 10
148.915
 20
81.5106
 30
0.000000
  70
    32
  0
VERTEX
  8
0
  5
1E3A4
 10
148.953
 20
81.5177
 30
0.000000
  70
    32
  0
VERTEX
  8
0
  5
1E3A5
 10
148.992
 20
81.5248
 30
0.000000
  70
    32
  0
VERTEX
  8
0
  5
1E3A6
 10
149.030
 20
81.5319
 30
0.000000
  70
    32
  0
VERTEX
  8
0
  5
1E3A7
 10
149.068
 20
81.5391
 30
0.000000
  70
    32
  0
VERTEX
  8
0
  5
1E3A8
 10
149.107
 20
81.5463
 30
0.000000
  70
    32
  0
VERTEX
  8
0
  5
1E3A9
 10
149.145
 20
81.5535
 30
0.000000
  70
    32
  0
VERTEX
  8
0
  5
1E3AA
 10
149.183
 20
81.5608
 30
0.000000
  70
    32
  0
VERTEX
  8
0
  5
1E3AB
 10
149.222
 20
81.5681
 30
0.000000
  70
    32
  0
VERTEX
  8
0
  5
1E3AC
 10
149.260
 20
81.5754
 30
0.000000
  70
    32
  0
VERTEX
  8
0
  5
1E3AD
 10
149.299
 20
81.5827
 30
0.000000
  70
    32
  0
VERTEX
  8
0
  5
1E3AE
 10
149.337
 20
81.5901
 30
0.000000
  70
    32
  0
VERTEX
  8
0
  5
1E3AF
 10
149.375
 20
81.5975
 30
0.000000
  70
    32
  0
VERTEX
  8
0
  5
1E3B0
 10
149.414
 20
81.6050
 30
0.000000
  70
    32
  0
VERTEX
  8
0
  5
1E3B1
 10
149.452
 20
81.6124
 30
0.000000
  70
    32
  0
VERTEX
  8
0
  5
1E3B2
 10
149.490
 20
81.6200
 30
0.000000
  70
    32
  0
VERTEX
  8
0
  5
1E3B3
 10
149.528
 20
81.6275
 30
0.000000
  70
    32
  0
VERTEX
  8
0
  5
1E3B4
 10
149.567
 20
81.6351
 30
0.000000
  70
    32
  0
VERTEX
  8
0
  5
1E3B5
 10
149.605
 20
81.6427
 30
0.000000
  70
    32
  0
VERTEX
  8
0
  5
1E3B6
 10
149.643
 20
81.6503
 30
0.000000
  70
    32
  0
VERTEX
  8
0
  5
1E3B7
 10
149.682
 20
81.6579
 30
0.000000
  70
    32
  0
VERTEX
  8
0
  5
1E3B8
 10
149.720
 20
81.6656
 30
0.000000
  70
    32
  0
VERTEX
  8
0
  5
1E3B9
 10
149.758
 20
81.6734
 30
0.000000
  70
    32
  0
VERTEX
  8
0
  5
1E3BA
 10
149.797
 20
81.6811
 30
0.000000
  70
    32
  0
VERTEX
  8
0
  5
1E3BB
 10
149.835
 20
81.6889
 30
0.000000
  70
    32
  0
VERTEX
  8
0
  5
1E3BC
 10
149.873
 20
81.6967
 30
0.000000
  70
    32
  0
VERTEX
  8
0
  5
1E3BD
 10
149.911
 20
81.7045
 30
0.000000
  70
    32
  0
VERTEX
  8
0
  5
1E3BE
 10
149.950
 20
81.7124
 30
0.000000
  70
    32
  0
VERTEX
  8
0
  5
1E3BF
 10
149.988
 20
81.7203
 30
0.000000
  70
    32
  0
VERTEX
  8
0
  5
1E3C0
 10
150.026
 20
81.7283
 30
0.000000
  70
    32
  0
VERTEX
  8
0
  5
1E3C1
 10
150.064
 20
81.7362
 30
0.000000
  70
    32
  0
VERTEX
  8
0
  5
1E3C2
 10
150.102
 20
81.7442
 30
0.000000
  70
    32
  0
VERTEX
  8
0
  5
1E3C3
 10
150.141
 20
81.7522
 30
0.000000
  70
    32
  0
VERTEX
  8
0
  5
1E3C4
 10
150.179
 20
81.7603
 30
0.000000
  70
    32
  0
VERTEX
  8
0
  5
1E3C5
 10
150.217
 20
81.7684
 30
0.000000
  70
    32
  0
VERTEX
  8
0
  5
1E3C6
 10
150.255
 20
81.7765
 30
0.000000
  70
    32
  0
VERTEX
  8
0
  5
1E3C7
 10
150.294
 20
81.7847
 30
0.000000
  70
    32
  0
VERTEX
  8
0
  5
1E3C8
 10
150.332
 20
81.7928
 30
0.000000
  70
    32
  0
VERTEX
  8
0
  5
1E3C9
 10
150.370
 20
81.8010
 30
0.000000
  70
    32
  0
VERTEX
  8
0
  5
1E3CA
 10
150.408
 20
81.8093
 30
0.000000
  70
    32
  0
VERTEX
  8
0
  5
1E3CB
 10
150.446
 20
81.8176
 30
0.000000
  70
    32
  0
VERTEX
  8
0
  5
1E3CC
 10
150.484
 20
81.8259
 30
0.000000
  70
    32
  0
VERTEX
  8
0
  5
1E3CD
 10
150.523
 20
81.8342
 30
0.000000
  70
    32
  0
VERTEX
  8
0
  5
1E3CE
 10
150.561
 20
81.8426
 30
0.000000
  70
    32
  0
VERTEX
  8
0
  5
1E3CF
 10
150.599
 20
81.8510
 30
0.000000
  70
    32
  0
VERTEX
  8
0
  5
1E3D0
 10
150.637
 20
81.8594
 30
0.000000
  70
    32
  0
VERTEX
  8
0
  5
1E3D1
 10
150.675
 20
81.8678
 30
0.000000
  70
    32
  0
VERTEX
  8
0
  5
1E3D2
 10
150.713
 20
81.8763
 30
0.000000
  70
    32
  0
VERTEX
  8
0
  5
1E3D3
 10
150.751
 20
81.8848
 30
0.000000
  70
    32
  0
VERTEX
  8
0
  5
1E3D4
 10
150.789
 20
81.8934
 30
0.000000
  70
    32
  0
VERTEX
  8
0
  5
1E3D5
 10
150.827
 20
81.9020
 30
0.000000
  70
    32
  0
VERTEX
  8
0
  5
1E3D6
 10
150.866
 20
81.9106
 30
0.000000
  70
    32
  0
VERTEX
  8
0
  5
1E3D7
 10
150.904
 20
81.9192
 30
0.000000
  70
    32
  0
VERTEX
  8
0
  5
1E3D8
 10
150.942
 20
81.9279
 30
0.000000
  70
    32
  0
VERTEX
  8
0
  5
1E3D9
 10
150.980
 20
81.9366
 30
0.000000
  70
    32
  0
VERTEX
  8
0
  5
1E3DA
 10
151.018
 20
81.9453
 30
0.000000
  70
    32
  0
VERTEX
  8
0
  5
1E3DB
 10
151.056
 20
81.9541
 30
0.000000
  70
    32
  0
VERTEX
  8
0
  5
1E3DC
 10
151.094
 20
81.9629
 30
0.000000
  70
    32
  0
VERTEX
  8
0
  5
1E3DD
 10
151.132
 20
81.9717
 30
0.000000
  70
    32
  0
VERTEX
  8
0
  5
1E3DE
 10
151.170
 20
81.9805
 30
0.000000
  70
    32
  0
VERTEX
  8
0
  5
1E3DF
 10
151.208
 20
81.9894
 30
0.000000
  70
    32
  0
VERTEX
  8
0
  5
1E3E0
 10
151.246
 20
81.9983
 30
0.000000
  70
    32
  0
VERTEX
  8
0
  5
1E3E1
 10
151.284
 20
82.0073
 30
0.000000
  70
    32
  0
VERTEX
  8
0
  5
1E3E2
 10
151.322
 20
82.0163
 30
0.000000
  70
    32
  0
VERTEX
  8
0
  5
1E3E3
 10
151.360
 20
82.0253
 30
0.000000
  70
    32
  0
VERTEX
  8
0
  5
1E3E4
 10
151.398
 20
82.0343
 30
0.000000
  70
    32
  0
VERTEX
  8
0
  5
1E3E5
 10
151.436
 20
82.0434
 30
0.000000
  70
    32
  0
VERTEX
  8
0
  5
1E3E6
 10
151.474
 20
82.0525
 30
0.000000
  70
    32
  0
VERTEX
  8
0
  5
1E3E7
 10
151.512
 20
82.0616
 30
0.000000
  70
    32
  0
VERTEX
  8
0
  5
1E3E8
 10
151.550
 20
82.0708
 30
0.000000
  70
    32
  0
VERTEX
  8
0
  5
1E3E9
 10
151.588
 20
82.0799
 30
0.000000
  70
    32
  0
VERTEX
  8
0
  5
1E3EA
 10
151.626
 20
82.0892
 30
0.000000
  70
    32
  0
VERTEX
  8
0
  5
1E3EB
 10
151.664
 20
82.0984
 30
0.000000
  70
    32
  0
VERTEX
  8
0
  5
1E3EC
 10
151.702
 20
82.1077
 30
0.000000
  70
    32
  0
VERTEX
  8
0
  5
1E3ED
 10
151.740
 20
82.1170
 30
0.000000
  70
    32
  0
VERTEX
  8
0
  5
1E3EE
 10
151.778
 20
82.1263
 30
0.000000
  70
    32
  0
VERTEX
  8
0
  5
1E3EF
 10
151.816
 20
82.1357
 30
0.000000
  70
    32
  0
VERTEX
  8
0
  5
1E3F0
 10
151.853
 20
82.1451
 30
0.000000
  70
    32
  0
VERTEX
  8
0
  5
1E3F1
 10
151.891
 20
82.1545
 30
0.000000
  70
    32
  0
VERTEX
  8
0
  5
1E3F2
 10
151.929
 20
82.1640
 30
0.000000
  70
    32
  0
VERTEX
  8
0
  5
1E3F3
 10
151.967
 20
82.1735
 30
0.000000
  70
    32
  0
VERTEX
  8
0
  5
1E3F4
 10
152.005
 20
82.1830
 30
0.000000
  70
    32
  0
VERTEX
  8
0
  5
1E3F5
 10
152.043
 20
82.1926
 30
0.000000
  70
    32
  0
VERTEX
  8
0
  5
1E3F6
 10
152.081
 20
82.2022
 30
0.000000
  70
    32
  0
VERTEX
  8
0
  5
1E3F7
 10
152.119
 20
82.2118
 30
0.000000
  70
    32
  0
VERTEX
  8
0
  5
1E3F8
 10
152.156
 20
82.2214
 30
0.000000
  70
    32
  0
VERTEX
  8
0
  5
1E3F9
 10
152.194
 20
82.2311
 30
0.000000
  70
    32
  0
VERTEX
  8
0
  5
1E3FA
 10
152.232
 20
82.2408
 30
0.000000
  70
    32
  0
VERTEX
  8
0
  5
1E3FB
 10
152.270
 20
82.2505
 30
0.000000
  70
    32
  0
VERTEX
  8
0
  5
1E3FC
 10
152.308
 20
82.2603
 30
0.000000
  70
    32
  0
VERTEX
  8
0
  5
1E3FD
 10
152.345
 20
82.2701
 30
0.000000
  70
    32
  0
VERTEX
  8
0
  5
1E3FE
 10
152.383
 20
82.2799
 30
0.000000
  70
    32
  0
VERTEX
  8
0
  5
1E3FF
 10
152.421
 20
82.2898
 30
0.000000
  70
    32
  0
VERTEX
  8
0
  5
1E400
 10
152.459
 20
82.2997
 30
0.000000
  70
    32
  0
VERTEX
  8
0
  5
1E401
 10
152.497
 20
82.3096
 30
0.000000
  70
    32
  0
VERTEX
  8
0
  5
1E402
 10
152.534
 20
82.3195
 30
0.000000
  70
    32
  0
VERTEX
  8
0
  5
1E403
 10
152.572
 20
82.3295
 30
0.000000
  70
    32
  0
VERTEX
  8
0
  5
1E404
 10
152.610
 20
82.3395
 30
0.000000
  70
    32
  0
VERTEX
  8
0
  5
1E405
 10
152.648
 20
82.3496
 30
0.000000
  70
    32
  0
VERTEX
  8
0
  5
1E406
 10
152.685
 20
82.3596
 30
0.000000
  70
    32
  0
VERTEX
  8
0
  5
1E407
 10
152.723
 20
82.3697
 30
0.000000
  70
    32
  0
VERTEX
  8
0
  5
1E408
 10
152.761
 20
82.3799
 30
0.000000
  70
    32
  0
VERTEX
  8
0
  5
1E409
 10
152.799
 20
82.3900
 30
0.000000
  70
    32
  0
VERTEX
  8
0
  5
1E40A
 10
152.836
 20
82.4002
 30
0.000000
  70
    32
  0
VERTEX
  8
0
  5
1E40B
 10
152.874
 20
82.4104
 30
0.000000
  70
    32
  0
VERTEX
  8
0
  5
1E40C
 10
152.912
 20
82.4207
 30
0.000000
  70
    32
  0
VERTEX
  8
0
  5
1E40D
 10
152.949
 20
82.4310
 30
0.000000
  70
    32
  0
VERTEX
  8
0
  5
1E40E
 10
152.987
 20
82.4413
 30
0.000000
  70
    32
  0
VERTEX
  8
0
  5
1E40F
 10
153.025
 20
82.4516
 30
0.000000
  70
    32
  0
VERTEX
  8
0
  5
1E410
 10
153.062
 20
82.4620
 30
0.000000
  70
    32
  0
VERTEX
  8
0
  5
1E411
 10
153.100
 20
82.4724
 30
0.000000
  70
    32
  0
VERTEX
  8
0
  5
1E412
 10
153.138
 20
82.4828
 30
0.000000
  70
    32
  0
VERTEX
  8
0
  5
1E413
 10
153.175
 20
82.4933
 30
0.000000
  70
    32
  0
VERTEX
  8
0
  5
1E414
 10
153.213
 20
82.5038
 30
0.000000
  70
    32
  0
SEQEND
  8
0
  5
1E415
  0
LINE
  5
1D46B
  8
0
 10
134.66531606109299
 20
81.134447546455533
 30
0.0
 11
145.83468393890749
 21
81.134447546455476
 31
0.0
  0
LINE
  5
1D46D
  8
0
 10
147.00000000000031
 20
61.55833333333333
 30
0.0
 11
147.00000000000031
 21
64.666666666666686
 31
0.0
  0
LINE
  5
1D46E
  8
0
 10
133.50000000000031
 20
64.666666666666686
 30
0.0
 11
133.50000000000031
 21
61.55833333333333
 31
0.0
  0
LINE
  5
1D46F
  8
0
 10
133.50000000000031
 20
61.55833333333333
 30
0.0
 11
147.00000000000031
 21
61.55833333333333
 31
0.0
  0
LINE
  5
1D471
  8
0
 10
147.00000000000031
 20
59.166666666666679
 30
0.0
 11
147.00000000000031
 21
60.441666666666691
 31
0.0
  0
LINE
  5
1D472
  8
0
 10
133.50000000000031
 20
60.441666666666691
 30
0.0
 11
133.50000000000031
 21
59.166666666666679
 31
0.0
  0
LINE
  5
1D473
  8
0
 10
133.50000000000031
 20
59.166666666666679
 30
0.0
 11
147.00000000000031
 21
59.166666666666679
 31
0.0
  0
LINE
  5
1D474
  8
0
 10
133.50000000000031
 20
60.441666666666691
 30
0.0
 11
147.00000000000031
 21
60.441666666666691
 31
0.0
  0
LINE
  5
1D475
  8
0
 10
160.36706341702879
 20
61.458333333333343
 30
0.0
 11
133.9583333333336
 21
61.458333333333343
 31
0.0
  0
LINE
  5
1D476
  8
0
 10
133.9583333333336
 20
60.541666666666679
 30
0.0
 11
160.36706341702879
 21
60.541666666666679
 31
0.0
  0
ARC
  5
1D477
  8
0
 10
133.9583333333336
 20
61.000000000000028
 30
0.0
 40
0.4583333333333333
 50
90.0
 51
270.0
  0
LINE
  5
1D595
  8
2
 10
163.74468024894199
 20
146.3941112686941
 30
0.0
 11
158.8333333333336
 21
146.3941112686941
 31
0.0
  0
LINE
  5
1D596
  8
2
 10
158.8333333333336
 20
145.3941112686941
 30
0.0
 11
163.74468024894199
 21
145.3941112686941
 31
0.0
  0
ARC
  5
1D598
  8
2
 10
158.8333333333336
 20
145.89411126869399
 30
0.0
 40
0.5
 50
90.0
 51
270.0
  0
LINE
  5
1D59C
  8
0
 10
173.8333333333336
 20
146.3941112686941
 30
0.0
 11
163.74468024894199
 21
146.3941112686941
 31
0.0
  0
LINE
  5
1D59D
  8
0
 10
163.74468024894199
 20
145.3941112686941
 30
0.0
 11
173.8333333333336
 21
145.3941112686941
 31
0.0
  0
ARC
  5
1D59E
  8
0
 10
173.8333333333336
 20
145.89411126869399
 30
0.0
 40
0.5
 50
270.0
 51
90.0
  0
LINE
  5
1D5A1
  8
2
 10
158.62905957422919
 20
148.6476352230012
 30
0.0
 11
156.9108790771981
 21
149.0372709971069
 31
0.0
  0
LINE
  5
1D5A2
  8
2
 10
153.7095241988319
 20
148.8233083690337
 30
0.0
 11
158.42633229696739
 21
147.7536668629169
 31
0.0
  0
ARC
  5
1D5A4
  8
2
 10
158.00119940128619
 20
145.8941112686941
 30
0.0
 40
2.8241994553698571
 50
282.84500458833821
 51
77.154995411662853
  0
LINE
  5
1D5AC
  8
2
 10
158.42633229696739
 20
144.03455567447119
 30
0.0
 11
153.7095241988319
 21
142.96491416835451
 31
0.0
  0
LINE
  5
1D5AD
  8
2
 10
156.9108790771981
 20
142.75095154028131
 30
0.0
 11
158.62905957422919
 21
143.14058731438689
 31
0.0
  0
LINE
  5
1D5C5
  8
1
 10
140.25000000000031
 20
136.1441112686941
 30
0.0
 11
140.25000000000031
 21
155.6441112686941
 31
0.0
  0
LINE
  5
1D5C6
  8
1
 10
252.8333333333336
 20
145.89411126869399
 30
0.0
 11
113.7500000000005
 21
145.89411126869399
 31
0.0
  0
LINE
  5
1D5CD
  8
0
 10
156.9108790771981
 20
149.0372709971069
 30
0.0
 11
141.74280995074599
 21
152.47696919295109
 31
0.0
  0
LINE
  5
1D5CE
  8
0
 10
144.8522653341478
 20
150.83188949316951
 30
0.0
 11
153.7095241988319
 21
148.8233083690337
 31
0.0
  0
LINE
  5
1D5CF
  8
0
 10
153.7095241988319
 20
142.96491416835451
 30
0.0
 11
144.8522653341478
 21
140.95633304421861
 31
0.0
  0
LINE
  5
1D5D0
  8
0
 10
141.74280995074599
 20
139.31125334443689
 30
0.0
 11
156.9108790771981
 21
142.75095154028131
 31
0.0
  0
LINE
  5
1D5D1
  8
0
 10
132.16198493211769
 20
148.4643034307984
 30
0.0
 11
118.2500000000002
 21
149.3941112686941
 31
0.0
  0
LINE
  5
1D5D2
  8
0
 10
148.33801506788279
 20
143.3239191065897
 30
0.0
 11
162.25000000000031
 21
142.39411126869399
 31
0.0
  0
LINE
  5
1D5D3
  8
0
 10
118.2500000000002
 20
142.39411126869399
 30
0.0
 11
132.16198493211769
 21
143.3239191065897
 31
0.0
  0
LINE
  5
1D5D4
  8
0
 10
162.25000000000031
 20
149.3941112686941
 30
0.0
 11
148.33801506788279
 21
148.4643034307984
 31
0.0
  0
POLYLINE
  5
1D5D5
  8
0
 66
     1
 10
0.0
 20
0.0
 30
0.0
  0
VERTEX
  5
1E04B
  8
0
 10
134.66531606109299
 20
142.10283110198111
 30
0.0
  0
VERTEX
  5
1E04C
  8
0
 10
134.47718798662629
 20
142.34902735373589
 30
0.0
  0
VERTEX
  5
1E04D
  8
0
 10
134.26254765058539
 20
142.57366668413621
 30
0.0
  0
VERTEX
  5
1E04E
  8
0
 10
134.025502669346
 20
142.7725511640989
 30
0.0
  0
VERTEX
  5
1E04F
  8
0
 10
133.76811414312741
 20
142.94346508057251
 30
0.0
  0
VERTEX
  5
1E050
  8
0
 10
133.49312891702419
 20
143.08536108197009
 30
0.0
  0
VERTEX
  5
1E051
  8
0
 10
133.20570775885579
 20
143.19577543554789
 30
0.0
  0
VERTEX
  5
1E052
  8
0
 10
132.90595991525461
 20
143.27392906255449
 30
0.0
  0
VERTEX
  5
1E053
  8
0
 10
132.59913699467941
 20
143.3187226214045
 30
0.0
  0
VERTEX
  5
1E054
  8
0
 10
132.2908296411733
 20
143.3295536931015
 30
0.0
  0
VERTEX
  5
1E055
  8
0
 10
132.16198493211769
 20
143.3239191065897
 30
0.0
  0
SEQEND
  5
1E056
  8
0
  0
ARC
  5
1D5D6
  8
0
 10
140.25000000000031
 20
145.89411126869399
 30
0.0
 40
6.75
 50
214.17144687970281
 51
325.82855312029722
  0
POLYLINE
  5
1D5D7
  8
0
 66
     1
 10
0.0
 20
0.0
 30
0.0
  0
VERTEX
  5
1E057
  8
0
 10
148.33801506788279
 20
143.3239191065897
 30
0.0
  0
VERTEX
  5
1E058
  8
0
 10
148.10634054397769
 20
143.32977501008341
 30
0.0
  0
VERTEX
  5
1E059
  8
0
 10
147.87462824059679
 20
143.3164498766981
 30
0.0
  0
VERTEX
  5
1E05A
  8
0
 10
147.63789394348149
 20
143.28266285068179
 30
0.0
  0
VERTEX
  5
1E05B
  8
0
 10
147.40452003186061
 20
143.22873104386721
 30
0.0
  0
VERTEX
  5
1E05C
  8
0
 10
147.1824488289337
 20
143.15717359337839
 30
0.0
  0
VERTEX
  5
1E05D
  8
0
 10
146.9667727470806
 20
143.06725862293561
 30
0.0
  0
VERTEX
  5
1E05E
  8
0
 10
146.75300831888529
 20
142.9559889902832
 30
0.0
  0
VERTEX
  5
1E05F
  8
0
 10
146.54932544647281
 20
142.82660530076549
 30
0.0
  0
VERTEX
  5
1E060
  8
0
 10
146.3502046219451
 20
142.6739671531499
 30
0.0
  0
VERTEX
  5
1E061
  8
0
 10
146.1653545934069
 20
142.50399243452981
 30
0.0
  0
VERTEX
  5
1E062
  8
0
 10
145.99073759351921
 20
142.3111181062003
 30
0.0
  0
VERTEX
  5
1E063
  8
0
 10
145.83468393890749
 20
142.10283110198111
 30
0.0
  0
SEQEND
  5
1E064
  8
0
  0
POLYLINE
  5
1D5D8
  8
0
 66
     1
 10
0.0
 20
0.0
 30
0.0
  0
VERTEX
  5
1E065
  8
0
 10
145.83468393890749
 20
149.68539143540701
 30
0.0
  0
VERTEX
  5
1E066
  8
0
 10
146.02281201337419
 20
149.4391951836522
 30
0.0
  0
VERTEX
  5
1E067
  8
0
 10
146.23745234941509
 20
149.21455585325191
 30
0.0
  0
VERTEX
  5
1E068
  8
0
 10
146.4744973306546
 20
149.01567137328919
 30
0.0
  0
VERTEX
  5
1E069
  8
0
 10
146.73188585687311
 20
148.84475745681561
 30
0.0
  0
VERTEX
  5
1E06A
  8
0
 10
147.0068710829764
 20
148.702861455418
 30
0.0
  0
VERTEX
  5
1E06B
  8
0
 10
147.29429224114469
 20
148.59244710184021
 30
0.0
  0
VERTEX
  5
1E06C
  8
0
 10
147.5940400847459
 20
148.51429347483361
 30
0.0
  0
VERTEX
  5
1E06D
  8
0
 10
147.9008630053211
 20
148.46949991598359
 30
0.0
  0
VERTEX
  5
1E06E
  8
0
 10
148.20917035882721
 20
148.45866884428659
 30
0.0
  0
VERTEX
  5
1E06F
  8
0
 10
148.33801506788279
 20
148.4643034307984
 30
0.0
  0
SEQEND
  5
1E070
  8
0
  0
ARC
  5
1D5D9
  8
0
 10
140.25000000000031
 20
145.89411126869399
 30
0.0
 40
6.7499999999999991
 50
34.171446879702707
 51
145.82855312029719
  0
POLYLINE
  5
1D5DA
  8
0
 66
     1
 10
0.0
 20
0.0
 30
0.0
  0
VERTEX
  5
1E071
  8
0
 10
132.16198493211769
 20
148.4643034307984
 30
0.0
  0
VERTEX
  5
1E072
  8
0
 10
132.3936594560229
 20
148.45844752730471
 30
0.0
  0
VERTEX
  5
1E073
  8
0
 10
132.62537175940381
 20
148.47177266068999
 30
0.0
  0
VERTEX
  5
1E074
  8
0
 10
132.862106056519
 20
148.50555968670631
 30
0.0
  0
VERTEX
  5
1E075
  8
0
 10
133.09547996814001
 20
148.55949149352091
 30
0.0
  0
VERTEX
  5
1E076
  8
0
 10
133.31755117106681
 20
148.63104894400971
 30
0.0
  0
VERTEX
  5
1E077
  8
0
 10
133.53322725291989
 20
148.72096391445251
 30
0.0
  0
VERTEX
  5
1E078
  8
0
 10
133.74699168111519
 20
148.83223354710489
 30
0.0
  0
VERTEX
  5
1E079
  8
0
 10
133.95067455352779
 20
148.9616172366226
 30
0.0
  0
VERTEX
  5
1E07A
  8
0
 10
134.1497953780555
 20
149.11425538423831
 30
0.0
  0
VERTEX
  5
1E07B
  8
0
 10
134.33464540659369
 20
149.28423010285829
 30
0.0
  0
VERTEX
  5
1E07C
  8
0
 10
134.5092624064813
 20
149.4771044311878
 30
0.0
  0
VERTEX
  5
1E07D
  8
0
 10
134.66531606109299
 20
149.68539143540701
 30
0.0
  0
SEQEND
  5
1E07E
  8
0
  0
POLYLINE
  5
1D5DB
  8
0
 66
     1
 10
0.0
 20
0.0
 30
0.0
  0
VERTEX
  5
1E07F
  8
0
 10
143.39285713500021
 20
146.44411126869409
 30
0.0
  0
VERTEX
  5
1E080
  8
0
 10
143.29351768738439
 20
146.435013854175
 30
0.0
  0
VERTEX
  5
1E081
  8
0
 10
143.19608333101601
 20
146.40770650822179
 30
0.0
  0
VERTEX
  5
1E082
  8
0
 10
143.1032907588426
 20
146.36161781046289
 30
0.0
  0
VERTEX
  5
1E083
  8
0
 10
143.0191076707834
 20
146.29761013857791
 30
0.0
  0
VERTEX
  5
1E084
  8
0
 10
142.9529609909022
 20
146.224108528009
 30
0.0
  0
VERTEX
  5
1E085
  8
0
 10
142.90015430057579
 20
146.1385369566855
 30
0.0
  0
VERTEX
  5
1E086
  8
0
 10
142.866374086929
 20
146.0529738533188
 30
0.0
  0
VERTEX
  5
1E087
  8
0
 10
142.84709599020081
 20
145.9622638389107
 30
0.0
  0
VERTEX
  5
1E088
  8
0
 10
142.84324301314589
 20
145.87513599007289
 30
0.0
  0
VERTEX
  5
1E089
  8
0
 10
142.8530801978649
 20
145.78856100513801
 30
0.0
  0
VERTEX
  5
1E08A
  8
0
 10
142.87585099197759
 20
145.70662760560521
 30
0.0
  0
VERTEX
  5
1E08B
  8
0
 10
142.9105338345976
 20
145.62979283594919
 30
0.0
  0
VERTEX
  5
1E08C
  8
0
 10
142.9571590147664
 20
145.55852328457689
 30
0.0
  0
VERTEX
  5
1E08D
  8
0
 10
143.0132701979166
 20
145.4960990110996
 30
0.0
  0
VERTEX
  5
1E08E
  8
0
 10
143.0811713882417
 20
145.44100127182199
 30
0.0
  0
VERTEX
  5
1E08F
  8
0
 10
143.15555207563349
 20
145.3979396161393
 30
0.0
  0
VERTEX
  5
1E090
  8
0
 10
143.2414319828097
 20
145.3654058539384
 30
0.0
  0
VERTEX
  5
1E091
  8
0
 10
143.3301397422664
 20
145.34769885242901
 30
0.0
  0
VERTEX
  5
1E092
  8
0
 10
143.42811934725569
 20
145.3452811431757
 30
0.0
  0
VERTEX
  5
1E093
  8
0
 10
143.5244166804066
 20
145.36007748136171
 30
0.0
  0
VERTEX
  5
1E094
  8
0
 10
143.6229667206122
 20
145.3946131932623
 30
0.0
  0
VERTEX
  5
1E095
  8
0
 10
143.7141714536302
 20
145.44772902370281
 30
0.0
  0
VERTEX
  5
1E096
  8
0
 10
143.79434958699491
 20
145.51831932672491
 30
0.0
  0
VERTEX
  5
1E097
  8
0
 10
143.8609948196858
 20
145.60541227635551
 30
0.0
  0
VERTEX
  5
1E098
  8
0
 10
143.89856303997709
 20
145.6779843209907
 30
0.0
  0
VERTEX
  5
1E099
  8
0
 10
143.9254571096117
 20
145.7568623450413
 30
0.0
  0
VERTEX
  5
1E09A
  8
0
 10
143.94017465043419
 20
145.84058949368119
 30
0.0
  0
VERTEX
  5
1E09B
  8
0
 10
143.94192614347
 20
145.92609914042731
 30
0.0
  0
VERTEX
  5
1E09C
  8
0
 10
143.93181786306951
 20
146.0035208028915
 30
0.0
  0
VERTEX
  5
1E09D
  8
0
 10
143.9112227102666
 20
146.07795122729601
 30
0.0
  0
VERTEX
  5
1E09E
  8
0
 10
143.8803737383117
 20
146.14865932214701
 30
0.0
  0
VERTEX
  5
1E09F
  8
0
 10
143.8408638302661
 20
146.21315672156399
 30
0.0
  0
VERTEX
  5
1E0A0
  8
0
 10
143.7879120117795
 20
146.27674037579419
 30
0.0
  0
VERTEX
  5
1E0A1
  8
0
 10
143.7273587782939
 20
146.33069877496729
 30
0.0
  0
VERTEX
  5
1E0A2
  8
0
 10
143.64982405308029
 20
146.38036012349599
 30
0.0
  0
VERTEX
  5
1E0A3
  8
0
 10
143.5661253788831
 20
146.4161056323243
 30
0.0
  0
VERTEX
  5
1E0A4
  8
0
 10
143.48069528388089
 20
146.43702764437711
 30
0.0
  0
VERTEX
  5
1E0A5
  8
0
 10
143.39285713500021
 20
146.44411126869409
 30
0.0
  0
SEQEND
  5
1E0A6
  8
0
  0
POLYLINE
  5
1D5DC
  8
0
 66
     1
 10
0.0
 20
0.0
 30
0.0
  0
VERTEX
  5
1E0A7
  8
0
 10
137.1071428650003
 20
146.44411126869409
 30
0.0
  0
VERTEX
  5
1E0A8
  8
0
 10
136.9838803322975
 20
146.43002575656331
 30
0.0
  0
VERTEX
  5
1E0A9
  8
0
 10
136.86673756655449
 20
146.3887882263939
 30
0.0
  0
VERTEX
  5
1E0AA
  8
0
 10
136.77588172193171
 20
146.33308809714981
 30
0.0
  0
VERTEX
  5
1E0AB
  8
0
 10
136.69590694360051
 20
146.25933040421469
 30
0.0
  0
VERTEX
  5
1E0AC
  8
0
 10
136.64398172273511
 20
146.19064783352931
 30
0.0
  0
VERTEX
  5
1E0AD
  8
0
 10
136.60252980096519
 20
146.1128934791345
 30
0.0
  0
VERTEX
  5
1E0AE
  8
0
 10
136.5735096942704
 20
146.0269345359236
 30
0.0
  0
VERTEX
  5
1E0AF
  8
0
 10
136.5587425329727
 20
145.9360287570735
 30
0.0
  0
VERTEX
  5
1E0B0
  8
0
 10
136.5586148864914
 20
145.85472030862641
 30
0.0
  0
VERTEX
  5
1E0B1
  8
0
 10
136.57028317893361
 20
145.7746052961389
 30
0.0
  0
VERTEX
  5
1E0B2
  8
0
 10
136.59212173463209
 20
145.7012009009789
 30
0.0
  0
VERTEX
  5
1E0B3
  8
0
 10
136.62326678635401
 20
145.63264627961539
 30
0.0
  0
VERTEX
  5
1E0B4
  8
0
 10
136.66613536811039
 20
145.5655018956119
 30
0.0
  0
VERTEX
  5
1E0B5
  8
0
 10
136.71704626551769
 20
145.50639404819421
 30
0.0
  0
VERTEX
  5
1E0B6
  8
0
 10
136.78365255753249
 20
145.44933390308211
 30
0.0
  0
VERTEX
  5
1E0B7
  8
0
 10
136.85718584864841
 20
145.40419138751301
 30
0.0
  0
VERTEX
  5
1E0B8
  8
0
 10
136.94781317143119
 20
145.36773103439111
 30
0.0
  0
VERTEX
  5
1E0B9
  8
0
 10
137.04308557175079
 20
145.34785431159281
 30
0.0
  0
VERTEX
  5
1E0BA
  8
0
 10
137.1482758179265
 20
145.34570957586519
 30
0.0
  0
VERTEX
  5
1E0BB
  8
0
 10
137.25316421828671
 20
145.36384929156921
 30
0.0
  0
VERTEX
  5
1E0BC
  8
0
 10
137.3522353785628
 20
145.40183228754449
 30
0.0
  0
VERTEX
  5
1E0BD
  8
0
 10
137.44399395142401
 20
145.45933391696661
 30
0.0
  0
VERTEX
  5
1E0BE
  8
0
 10
137.51753779837131
 20
145.5280783062359
 30
0.0
  0
VERTEX
  5
1E0BF
  8
0
 10
137.5784258174767
 20
145.61057577055479
 30
0.0
  0
VERTEX
  5
1E0C0
  8
0
 10
137.61956124393529
 20
145.6944982168915
 30
0.0
  0
VERTEX
  5
1E0C1
  8
0
 10
137.6462264578127
 20
145.7850751280782
 30
0.0
  0
VERTEX
  5
1E0C2
  8
0
 10
137.65665822293539
 20
145.87252920604999
 30
0.0
  0
VERTEX
  5
1E0C3
  8
0
 10
137.653106083593
 20
145.9606256576931
 30
0.0
  0
VERTEX
  5
1E0C4
  8
0
 10
137.63619807208929
 20
146.04425835467791
 30
0.0
  0
VERTEX
  5
1E0C5
  8
0
 10
137.60690586460009
 20
146.12375652606059
 30
0.0
  0
VERTEX
  5
1E0C6
  8
0
 10
137.56554469120951
 20
146.1979510044651
 30
0.0
  0
VERTEX
  5
1E0C7
  8
0
 10
137.51408758262431
 20
146.26410585892199
 30
0.0
  0
VERTEX
  5
1E0C8
  8
0
 10
137.45083729453751
 20
146.32344790740419
 30
0.0
  0
VERTEX
  5
1E0C9
  8
0
 10
137.38036305787551
 20
146.37144838877299
 30
0.0
  0
VERTEX
  5
1E0CA
  8
0
 10
137.29823498224181
 20
146.4098073957187
 30
0.0
  0
VERTEX
  5
1E0CB
  8
0
 10
137.21237308017089
 20
146.43395069094399
 30
0.0
  0
VERTEX
  5
1E0CC
  8
0
 10
137.1071428650003
 20
146.44411126869409
 30
0.0
  0
SEQEND
  5
1E0CD
  8
0
  0
CIRCLE
  5
1D5DD
  8
0
 10
140.25000000000031
 20
145.89411126869399
 30
0.0
 40
5.0099999999999989
  0
POLYLINE
  5
1D5DE
  8
0
 66
     1
 10
0.0
 20
0.0
 30
0.0
  0
VERTEX
  5
1E0CE
  8
0
 10
141.82142857142881
 20
145.34411126869401
 30
0.0
  0
VERTEX
  5
1E0CF
  8
0
 10
141.72831041052891
 20
145.3521067018994
 30
0.0
  0
VERTEX
  5
1E0D0
  8
0
 10
141.63748446267331
 20
145.3757826423824
 30
0.0
  0
VERTEX
  5
1E0D1
  8
0
 10
141.55156896597049
 20
145.41493631467881
 30
0.0
  0
VERTEX
  5
1E0D2
  8
0
 10
141.47321564769081
 20
145.46837924060381
 30
0.0
  0
VERTEX
  5
1E0D3
  8
0
 10
141.4061583092944
 20
145.53357830901021
 30
0.0
  0
VERTEX
  5
1E0D4
  8
0
 10
141.35086635323361
 20
145.60938122319979
 30
0.0
  0
VERTEX
  5
1E0D5
  8
0
 10
141.30988693059581
 20
145.69221616381029
 30
0.0
  0
VERTEX
  5
1E0D6
  8
0
 10
141.2832165564148
 20
145.7808512718083
 30
0.0
  0
VERTEX
  5
1E0D7
  8
0
 10
141.271929720934
 20
145.87198846745181
 30
0.0
  0
VERTEX
  5
1E0D8
  8
0
 10
141.27585538260661
 20
145.96375246080299
 30
0.0
  0
VERTEX
  5
1E0D9
  8
0
 10
141.29501907018081
 20
146.05327236557409
 30
0.0
  0
VERTEX
  5
1E0DA
  8
0
 10
141.32861646282061
 20
146.13831656267661
 30
0.0
  0
VERTEX
  5
1E0DB
  8
0
 10
141.37589925771289
 20
146.21651394401039
 30
0.0
  0
VERTEX
  5
1E0DC
  8
0
 10
141.43521981872959
 20
146.2857013596545
 30
0.0
  0
VERTEX
  5
1E0DD
  8
0
 10
141.50542385821339
 20
146.34420271598009
 30
0.0
  0
VERTEX
  5
1E0DE
  8
0
 10
141.58395450681471
 20
146.390202055381
 30
0.0
  0
VERTEX
  5
1E0DF
  8
0
 10
141.66984372247711
 20
146.4227562711817
 30
0.0
  0
VERTEX
  5
1E0E0
  8
0
 10
141.75952297967859
 20
146.44061625285249
 30
0.0
  0
VERTEX
  5
1E0E1
  8
0
 10
141.85256605023679
 20
146.4431789696564
 30
0.0
  0
VERTEX
  5
1E0E2
  8
0
 10
141.94446951862841
 20
146.43017182992969
 30
0.0
  0
VERTEX
  5
1E0E3
  8
0
 10
142.03471178395651
 20
146.40101666026791
 30
0.0
  0
VERTEX
  5
1E0E4
  8
0
 10
142.11874773811999
 20
146.35682209968689
 30
0.0
  0
VERTEX
  5
1E0E5
  8
0
 10
142.19460975051169
 20
146.29805606999551
 30
0.0
  0
VERTEX
  5
1E0E6
  8
0
 10
142.2595084426589
 20
146.22665604225551
 30
0.0
  0
VERTEX
  5
1E0E7
  8
0
 10
142.31008212708929
 20
146.146392063608
 30
0.0
  0
VERTEX
  5
1E0E8
  8
0
 10
142.34640994730611
 20
146.05810686309209
 30
0.0
  0
VERTEX
  5
1E0E9
  8
0
 10
142.36627230777529
 20
145.96877964395969
 30
0.0
  0
VERTEX
  5
1E0EA
  8
0
 10
142.37116821097129
 20
145.87719001827509
 30
0.0
  0
VERTEX
  5
1E0EB
  8
0
 10
142.3613115197536
 20
145.78938791330751
 30
0.0
  0
VERTEX
  5
1E0EC
  8
0
 10
142.3377194824385
 20
145.70452304329811
 30
0.0
  0
VERTEX
  5
1E0ED
  8
0
 10
142.30093524441821
 20
145.62481102005691
 30
0.0
  0
VERTEX
  5
1E0EE
  8
0
 10
142.25233848254089
 20
145.55232676274721
 30
0.0
  0
VERTEX
  5
1E0EF
  8
0
 10
142.19084555988101
 20
145.48670161847181
 30
0.0
  0
VERTEX
  5
1E0F0
  8
0
 10
142.11991510550661
 20
145.4321526244691
 30
0.0
  0
VERTEX
  5
1E0F1
  8
0
 10
142.0376147034834
 20
145.3884330213051
 30
0.0
  0
VERTEX
  5
1E0F2
  8
0
 10
141.94925798502209
 20
145.35917235534001
 30
0.0
  0
VERTEX
  5
1E0F3
  8
0
 10
141.82142857142881
 20
145.34411126869401
 30
0.0
  0
SEQEND
  5
1E0F4
  8
0
  0
POLYLINE
  5
1D5DF
  8
0
 66
     1
 10
0.0
 20
0.0
 30
0.0
  0
VERTEX
  5
1E0F5
  8
0
 10
138.6785714285717
 20
145.34411126869401
 30
0.0
  0
VERTEX
  5
1E0F6
  8
0
 10
138.58340693201629
 20
145.35246205870689
 30
0.0
  0
VERTEX
  5
1E0F7
  8
0
 10
138.49124392281001
 20
145.37699580229889
 30
0.0
  0
VERTEX
  5
1E0F8
  8
0
 10
138.4047074890469
 20
145.4172053321754
 30
0.0
  0
VERTEX
  5
1E0F9
  8
0
 10
138.32615148470779
 20
145.47185520518869
 30
0.0
  0
VERTEX
  5
1E0FA
  8
0
 10
138.25821522303821
 20
145.5395227463261
 30
0.0
  0
VERTEX
  5
1E0FB
  8
0
 10
138.20265718681779
 20
145.61842007460939
 30
0.0
  0
VERTEX
  5
1E0FC
  8
0
 10
138.16277567917331
 20
145.7033707193994
 30
0.0
  0
VERTEX
  5
1E0FD
  8
0
 10
138.13769928687839
 20
145.79432486511061
 30
0.0
  0
VERTEX
  5
1E0FE
  8
0
 10
138.12872349220069
 20
145.88407847248089
 30
0.0
  0
VERTEX
  5
1E0FF
  8
0
 10
138.13442314164371
 20
145.974127778449
 30
0.0
  0
VERTEX
  5
1E100
  8
0
 10
138.154138870606
 20
146.0596852816422
 30
0.0
  0
VERTEX
  5
1E101
  8
0
 10
138.18694712757869
 20
146.1406990759213
 30
0.0
  0
VERTEX
  5
1E102
  8
0
 10
138.23278249367999
 20
146.21617199687469
 30
0.0
  0
VERTEX
  5
1E103
  8
0
 10
138.28965799310569
 20
146.28301529247631
 30
0.0
  0
VERTEX
  5
1E104
  8
0
 10
138.35919607890469
 20
146.34182771621849
 30
0.0
  0
VERTEX
  5
1E105
  8
0
 10
138.43711927800871
 20
146.38827810184711
 30
0.0
  0
VERTEX
  5
1E106
  8
0
 10
138.52502183856541
 20
146.42218943709861
 30
0.0
  0
VERTEX
  5
1E107
  8
0
 10
138.61743342392731
 20
146.44070265573569
 30
0.0
  0
VERTEX
  5
1E108
  8
0
 10
138.71324510565611
 20
146.4429583591272
 30
0.0
  0
VERTEX
  5
1E109
  8
0
 10
138.80836776703961
 20
146.4285763381985
 30
0.0
  0
VERTEX
  5
1E10A
  8
0
 10
138.89875786424599
 20
146.39804487293631
 30
0.0
  0
VERTEX
  5
1E10B
  8
0
 10
138.98294851773471
 20
146.35221015277111
 30
0.0
  0
VERTEX
  5
1E10C
  8
0
 10
139.05643847038991
 20
146.2936722563399
 30
0.0
  0
VERTEX
  5
1E10D
  8
0
 10
139.11918930982549
 20
146.2232858161903
 30
0.0
  0
VERTEX
  5
1E10E
  8
0
 10
139.168154624696
 20
146.14459873533571
 30
0.0
  0
VERTEX
  5
1E10F
  8
0
 10
139.2033754646975
 20
146.05867348691581
 30
0.0
  0
VERTEX
  5
1E110
  8
0
 10
139.22340289747069
 20
145.9689221248527
 30
0.0
  0
VERTEX
  5
1E111
  8
0
 10
139.22830657286681
 20
145.87704460156621
 30
0.0
  0
VERTEX
  5
1E112
  8
0
 10
139.21779202433731
 20
145.78603629380009
 30
0.0
  0
VERTEX
  5
1E113
  8
0
 10
139.19244775755209
 20
145.698072704851
 30
0.0
  0
VERTEX
  5
1E114
  8
0
 10
139.15282734453291
 20
145.61568542574429
 30
0.0
  0
VERTEX
  5
1E115
  8
0
 10
139.1003278126079
 20
145.54109348936171
 30
0.0
  0
VERTEX
  5
1E116
  8
0
 10
139.03604014773799
 20
145.47619156141539
 30
0.0
  0
VERTEX
  5
1E117
  8
0
 10
138.96225197718709
 20
145.42291561258369
 30
0.0
  0
VERTEX
  5
1E118
  8
0
 10
138.88004710811941
 20
145.38239806210089
 30
0.0
  0
VERTEX
  5
1E119
  8
0
 10
138.79269313297729
 20
145.35608130987811
 30
0.0
  0
VERTEX
  5
1E11A
  8
0
 10
138.67857142857179
 20
145.34411126869361
 30
0.0
  0
SEQEND
  5
1E11B
  8
0
  0
POLYLINE
  5
1D5E0
  8
0
 66
     1
 10
0.0
 20
0.0
 30
0.0
  0
VERTEX
  5
1E11C
  8
0
 10
140.25000000000031
 20
145.34411126869401
 30
0.0
  0
VERTEX
  5
1E11D
  8
0
 10
140.15784496143431
 20
145.35194306642239
 30
0.0
  0
VERTEX
  5
1E11E
  8
0
 10
140.0682917143769
 20
145.3749946161623
 30
0.0
  0
VERTEX
  5
1E11F
  8
0
 10
139.98394260076071
 20
145.41280748417191
 30
0.0
  0
VERTEX
  5
1E120
  8
0
 10
139.90707404839461
 20
145.4641091853091
 30
0.0
  0
VERTEX
  5
1E121
  8
0
 10
139.83983380673101
 20
145.52777333409361
 30
0.0
  0
VERTEX
  5
1E122
  8
0
 10
139.7841376009826
 20
145.60175493614511
 30
0.0
  0
VERTEX
  5
1E123
  8
0
 10
139.7416829904241
 20
145.6842243948586
 30
0.0
  0
VERTEX
  5
1E124
  8
0
 10
139.71358034481671
 20
145.7726454153327
 30
0.0
  0
VERTEX
  5
1E125
  8
0
 10
139.70086144358811
 20
145.86435689043401
 30
0.0
  0
VERTEX
  5
1E126
  8
0
 10
139.70359702069899
 20
145.9569108245102
 30
0.0
  0
VERTEX
  5
1E127
  8
0
 10
139.72186326123881
 20
146.04744451528819
 30
0.0
  0
VERTEX
  5
1E128
  8
0
 10
139.7549100475635
 20
146.13366489316289
 30
0.0
  0
VERTEX
  5
1E129
  8
0
 10
139.80205998077571
 20
146.21315653319741
 30
0.0
  0
VERTEX
  5
1E12A
  8
0
 10
139.8617623885352
 20
146.2836899604161
 30
0.0
  0
VERTEX
  5
1E12B
  8
0
 10
139.9327259716429
 20
146.34330678173811
 30
0.0
  0
VERTEX
  5
1E12C
  8
0
 10
140.01265096174291
 20
146.39026188497741
 30
0.0
  0
VERTEX
  5
1E12D
  8
0
 10
140.09939946447571
 20
146.42303273935821
 30
0.0
  0
VERTEX
  5
1E12E
  8
0
 10
140.19042060298329
 20
146.44087474173429
 30
0.0
  0
VERTEX
  5
1E12F
  8
0
 10
140.28288998259211
 20
146.44307119203381
 30
0.0
  0
VERTEX
  5
1E130
  8
0
 10
140.37443014336421
 20
146.4298510744043
 30
0.0
  0
VERTEX
  5
1E131
  8
0
 10
140.46228988456269
 20
146.40143054176329
 30
0.0
  0
VERTEX
  5
1E132
  8
0
 10
140.5441864685954
 20
146.35882012560941
 30
0.0
  0
VERTEX
  5
1E133
  8
0
 10
140.6178782011651
 20
146.30289686419181
 30
0.0
  0
VERTEX
  5
1E134
  8
0
 10
140.6812302124635
 20
146.2354915608301
 30
0.0
  0
VERTEX
  5
1E135
  8
0
 10
140.7324103484203
 20
146.1581553542824
 30
0.0
  0
VERTEX
  5
1E136
  8
0
 10
140.76997677979631
 20
146.07334337651201
 30
0.0
  0
VERTEX
  5
1E137
  8
0
 10
140.79263329657161
 20
145.9834839547978
 30
0.0
  0
VERTEX
  5
1E138
  8
0
 10
140.79999170365801
 20
145.89109035696671
 30
0.0
  0
VERTEX
  5
1E139
  8
0
 10
140.79166715090449
 20
145.7990543660278
 30
0.0
  0
VERTEX
  5
1E13A
  8
0
 10
140.7681617947766
 20
145.70969772679919
 30
0.0
  0
VERTEX
  5
1E13B
  8
0
 10
140.7299450830088
 20
145.62561025498991
 30
0.0
  0
VERTEX
  5
1E13C
  8
0
 10
140.67829846301831
 20
145.54905992964959
 30
0.0
  0
VERTEX
  5
1E13D
  8
0
 10
140.61429843438319
 20
145.4821326029404
 30
0.0
  0
VERTEX
  5
1E13E
  8
0
 10
140.54003678055321
 20
145.4268012367811
 30
0.0
  0
VERTEX
  5
1E13F
  8
0
 10
140.45735748960601
 20
145.38475722921609
 30
0.0
  0
VERTEX
  5
1E140
  8
0
 10
140.36879814625149
 20
145.3570945087626
 30
0.0
  0
VERTEX
  5
1E141
  8
0
 10
140.25000000000031
 20
145.34411126869401
 30
0.0
  0
SEQEND
  5
1E142
  8
0
  0
POLYLINE
  5
1D5E2
  8
0
 66
     1
 10
0.0
 20
0.0
 30
0.0
  0
VERTEX
  5
1E143
  8
0
 10
163.64366515203901
 20
143.66107952814741
 30
0.0
  0
VERTEX
  5
1E144
  8
0
 10
163.64298012149919
 20
143.65408848087381
 30
0.0
  0
VERTEX
  5
1E145
  8
0
 10
163.6225186457529
 20
143.51808655232341
 30
0.0
  0
VERTEX
  5
1E146
  8
0
 10
163.5886966864297
 20
143.38436600423941
 30
0.0
  0
VERTEX
  5
1E147
  8
0
 10
163.54120406479711
 20
143.2530106046143
 30
0.0
  0
VERTEX
  5
1E148
  8
0
 10
163.48028310513439
 20
143.1259769399685
 30
0.0
  0
VERTEX
  5
1E149
  8
0
 10
163.40410676620141
 20
143.00162313557661
 30
0.0
  0
VERTEX
  5
1E14A
  8
0
 10
163.31396089645759
 20
142.88417324288699
 30
0.0
  0
VERTEX
  5
1E14B
  8
0
 10
163.20887163717589
 20
142.77402822001281
 30
0.0
  0
VERTEX
  5
1E14C
  8
0
 10
163.0896630276273
 20
142.67385861860299
 30
0.0
  0
VERTEX
  5
1E14D
  8
0
 10
162.9168488670372
 20
142.5631309323233
 30
0.0
  0
VERTEX
  5
1E14E
  8
0
 10
162.72034694146689
 20
142.47548556188681
 30
0.0
  0
VERTEX
  5
1E14F
  8
0
 10
162.6114998105366
 20
142.44158657371909
 30
0.0
  0
VERTEX
  5
1E150
  8
0
 10
162.49706522532409
 20
142.41608413745331
 30
0.0
  0
VERTEX
  5
1E151
  8
0
 10
162.37610533409759
 20
142.39979945462181
 30
0.0
  0
VERTEX
  5
1E152
  8
0
 10
162.25000000000031
 20
142.39411126869399
 30
0.0
  0
SEQEND
  5
1E153
  8
0
  0
POLYLINE
  5
1D5E3
  8
0
 66
     1
 10
0.0
 20
0.0
 30
0.0
  0
VERTEX
  5
1E154
  8
0
 10
162.25000000000031
 20
149.3941112686941
 30
0.0
  0
VERTEX
  5
1E155
  8
0
 10
162.4417582926614
 20
149.38093097006811
 30
0.0
  0
VERTEX
  5
1E156
  8
0
 10
162.62097992964991
 20
149.34406456114431
 30
0.0
  0
VERTEX
  5
1E157
  8
0
 10
162.79010830188949
 20
149.28574016111151
 30
0.0
  0
VERTEX
  5
1E158
  8
0
 10
162.9446133483676
 20
149.20964090480749
 30
0.0
  0
VERTEX
  5
1E159
  8
0
 10
163.09293887421481
 20
149.1119202982575
 30
0.0
  0
VERTEX
  5
1E15A
  8
0
 10
163.22410342833359
 20
148.99966920653529
 30
0.0
  0
VERTEX
  5
1E15B
  8
0
 10
163.33776130094731
 20
148.87545986724169
 30
0.0
  0
VERTEX
  5
1E15C
  8
0
 10
163.43628220225489
 20
148.73756850512481
 30
0.0
  0
VERTEX
  5
1E15D
  8
0
 10
163.51633163194921
 20
148.59109548303709
 30
0.0
  0
VERTEX
  5
1E15E
  8
0
 10
163.57774362822511
 20
148.43806718734851
 30
0.0
  0
VERTEX
  5
1E15F
  8
0
 10
163.6188491757004
 20
148.28779806476271
 30
0.0
  0
VERTEX
  5
1E160
  8
0
 10
163.64298012149931
 20
148.13413405651289
 30
0.0
  0
VERTEX
  5
1E161
  8
0
 10
163.64366515838529
 20
148.1271429429035
 30
0.0
  0
SEQEND
  5
1E162
  8
0
  0
ARC
  5
1D5E4
  8
0
 10
140.2500000000002
 20
145.89411126869399
 30
0.0
 40
23.500000000000341
 50
354.5474212249967
 51
5.45257470121211
  0
POLYLINE
  5
1D5E6
  8
0
 66
     1
 10
0.0
 20
0.0
 30
0.0
  0
VERTEX
  5
1E163
  8
0
 10
116.85633484796151
 20
148.12714300924071
 30
0.0
  0
VERTEX
  5
1E164
  8
0
 10
116.8570198785014
 20
148.13413405651431
 30
0.0
  0
VERTEX
  5
1E165
  8
0
 10
116.87748135424761
 20
148.27013598506471
 30
0.0
  0
VERTEX
  5
1E166
  8
0
 10
116.9113033135709
 20
148.4038565331488
 30
0.0
  0
VERTEX
  5
1E167
  8
0
 10
116.9587959352034
 20
148.53521193277379
 30
0.0
  0
VERTEX
  5
1E168
  8
0
 10
117.01971689486609
 20
148.6622455974196
 30
0.0
  0
VERTEX
  5
1E169
  8
0
 10
117.0958932337992
 20
148.7865994018116
 30
0.0
  0
VERTEX
  5
1E16A
  8
0
 10
117.1860391035428
 20
148.90404929450099
 30
0.0
  0
VERTEX
  5
1E16B
  8
0
 10
117.29112836282469
 20
149.01419431737531
 30
0.0
  0
VERTEX
  5
1E16C
  8
0
 10
117.4103369723732
 20
149.1143639187851
 30
0.0
  0
VERTEX
  5
1E16D
  8
0
 10
117.58315113296329
 20
149.22509160506479
 30
0.0
  0
VERTEX
  5
1E16E
  8
0
 10
117.7796530585336
 20
149.31273697550131
 30
0.0
  0
VERTEX
  5
1E16F
  8
0
 10
117.8885001894639
 20
149.346635963669
 30
0.0
  0
VERTEX
  5
1E170
  8
0
 10
118.0029347746764
 20
149.37213839993481
 30
0.0
  0
VERTEX
  5
1E171
  8
0
 10
118.1238946659029
 20
149.38842308276631
 30
0.0
  0
VERTEX
  5
1E172
  8
0
 10
118.2500000000002
 20
149.3941112686941
 30
0.0
  0
SEQEND
  5
1E173
  8
0
  0
POLYLINE
  5
1D5E7
  8
0
 66
     1
 10
0.0
 20
0.0
 30
0.0
  0
VERTEX
  5
1E174
  8
0
 10
118.2500000000002
 20
142.39411126869399
 30
0.0
  0
VERTEX
  5
1E175
  8
0
 10
118.05824170733921
 20
142.40729156731999
 30
0.0
  0
VERTEX
  5
1E176
  8
0
 10
117.87902007035071
 20
142.44415797624379
 30
0.0
  0
VERTEX
  5
1E177
  8
0
 10
117.70989169811099
 20
142.50248237627659
 30
0.0
  0
VERTEX
  5
1E178
  8
0
 10
117.5553866516329
 20
142.57858163258061
 30
0.0
  0
VERTEX
  5
1E179
  8
0
 10
117.4070611257858
 20
142.67630223913059
 30
0.0
  0
VERTEX
  5
1E17A
  8
0
 10
117.27589657166691
 20
142.78855333085281
 30
0.0
  0
VERTEX
  5
1E17B
  8
0
 10
117.1622386990532
 20
142.91276267014641
 30
0.0
  0
VERTEX
  5
1E17C
  8
0
 10
117.0637177977456
 20
143.05065403226331
 30
0.0
  0
VERTEX
  5
1E17D
  8
0
 10
116.9836683680514
 20
143.197127054351
 30
0.0
  0
VERTEX
  5
1E17E
  8
0
 10
116.9222563717754
 20
143.35015535003961
 30
0.0
  0
VERTEX
  5
1E17F
  8
0
 10
116.88115082430009
 20
143.50042447262541
 30
0.0
  0
VERTEX
  5
1E180
  8
0
 10
116.8570198785013
 20
143.654088480875
 30
0.0
  0
VERTEX
  5
1E181
  8
0
 10
116.85633484161519
 20
143.66107959448459
 30
0.0
  0
SEQEND
  5
1E182
  8
0
  0
ARC
  5
1D5E8
  8
0
 10
140.25000000000051
 20
145.89411126869399
 30
0.0
 40
23.50000000000049
 50
174.54734649757211
 51
185.45267901805821
  0
LINE
  5
1D9C7
  8
0
 10
49.350000000000023
 20
57.0
 30
0.0
 11
49.350000000000023
 21
56.0
 31
0.0
  0
LINE
  5
1D9C8
  8
0
 10
50.64999999999997
 20
57.0
 30
0.0
 11
50.64999999999997
 21
56.0
 31
0.0
  0
LINE
  5
1D9C9
  8
0
 10
50.850000000000023
 20
57.0
 30
0.0
 11
50.850000000000023
 21
56.0
 31
0.0
  0
LINE
  5
1D9CA
  8
0
 10
46.0
 20
56.0
 30
0.0
 11
46.0
 21
57.0
 31
0.0
  0
LINE
  5
1D9CB
  8
0
 10
46.0
 20
56.0
 30
0.0
 11
49.350000000000023
 21
56.0
 31
0.0
  0
LINE
  5
1D9CC
  8
0
 10
54.0
 20
57.0
 30
0.0
 11
54.0
 21
56.0
 31
0.0
  0
LINE
  5
1D9CD
  8
0
 10
50.64999999999997
 20
56.0
 30
0.0
 11
54.0
 21
56.0
 31
0.0
  0
LINE
  5
1D9CE
  8
0
 10
51.149999999999977
 20
57.0
 30
0.0
 11
51.149999999999977
 21
56.0
 31
0.0
  0
LINE
  5
1D9CF
  8
0
 10
51.20181001438317
 20
56.0
 30
0.0
 11
51.244455403084032
 21
56.03044241526603
 31
0.0
  0
LINE
  5
1D9D0
  8
0
 10
51.244455403084032
 20
56.03044241526603
 30
0.0
 11
51.286776234626871
 21
56.121537975902299
 31
0.0
  0
LINE
  5
1D9D1
  8
0
 10
51.286776234626871
 20
56.121537975902299
 30
0.0
 11
51.307714125525649
 21
56.189631943040517
 31
0.0
  0
LINE
  5
1D9D2
  8
0
 10
48.692285874474351
 20
56.189631943040517
 30
0.0
 11
48.734323394301327
 21
56.068441109009541
 31
0.0
  0
LINE
  5
1D9D3
  8
0
 10
48.734323394301327
 20
56.068441109009541
 30
0.0
 11
48.776846977451889
 21
56.007614227345158
 31
0.0
  0
LINE
  5
1D9D4
  8
0
 10
48.776846977451889
 20
56.007614227345158
 30
0.0
 11
48.798189985616879
 21
56.0
 31
0.0
  0
LINE
  5
1D9D5
  8
0
 10
48.850000000000023
 20
57.0
 30
0.0
 11
48.850000000000023
 21
56.0
 31
0.0
  0
LINE
  5
1D9D6
  8
0
 10
48.692285874474351
 20
56.189631943040517
 30
0.0
 11
46.0
 21
56.189631943040517
 31
0.0
  0
LINE
  5
1D9D7
  8
0
 10
48.692285874474351
 20
56.189631943040517
 30
0.0
 11
48.46871606427225
 21
57.0
 31
0.0
  0
LINE
  5
1D9D8
  8
0
 10
51.531283935727743
 20
57.0
 30
0.0
 11
51.307714125525649
 21
56.189631943040517
 31
0.0
  0
LINE
  5
1D9D9
  8
0
 10
54.0
 20
56.189631943040517
 30
0.0
 11
51.307714125525649
 21
56.189631943040517
 31
0.0
  0
LINE
  5
1D9DA
  8
0
 10
45.0
 20
57.0
 30
0.0
 11
45.0
 21
59.166666666666679
 31
0.0
  0
LINE
  5
1D9DB
  8
0
 10
49.5
 20
57.0
 30
0.0
 11
45.0
 21
57.0
 31
0.0
  0
LINE
  5
1D9DC
  8
0
 10
55.0
 20
57.0
 30
0.0
 11
50.5
 21
57.0
 31
0.0
  0
LINE
  5
1D9DD
  8
0
 10
55.0
 20
59.166666666666679
 30
0.0
 11
55.0
 21
57.0
 31
0.0
  0
LINE
  5
1D9DE
  8
0
 10
52.374868417407583
 20
57.0
 30
0.0
 11
52.159574799365707
 21
57.010089796508048
 31
0.0
  0
LINE
  5
1D9DF
  8
0
 10
52.159574799365707
 20
57.010089796508048
 30
0.0
 11
51.938718043745553
 21
57.03751676833263
 31
0.0
  0
LINE
  5
1D9E0
  8
0
 10
51.938718043745553
 20
57.03751676833263
 30
0.0
 11
51.710930896760601
 21
57.079327260593182
 31
0.0
  0
LINE
  5
1D9E1
  8
0
 10
51.710930896760601
 20
57.079327260593182
 30
0.0
 11
51.480036495622073
 21
57.132369968077882
 31
0.0
  0
LINE
  5
1D9E2
  8
0
 10
51.480036495622073
 20
57.132369968077882
 30
0.0
 11
51.12153373787816
 21
57.230330009567439
 31
0.0
  0
LINE
  5
1D9E3
  8
0
 10
51.12153373787816
 20
57.230330009567439
 30
0.0
 11
50.758295270320843
 21
57.342982807443178
 31
0.0
  0
LINE
  5
1D9E4
  8
0
 10
50.758295270320843
 20
57.342982807443178
 30
0.0
 11
50.50007537046605
 21
57.428372660600701
 31
0.0
  0
LINE
  5
1D9E5
  8
0
 10
49.499919806611608
 20
57.428371036597412
 30
0.0
 11
49.258498219383632
 21
57.348426910784099
 31
0.0
  0
LINE
  5
1D9E6
  8
0
 10
49.258498219383632
 20
57.348426910784099
 30
0.0
 11
48.889256242584231
 21
57.233510895122322
 31
0.0
  0
LINE
  5
1D9E7
  8
0
 10
48.889256242584231
 20
57.233510895122322
 30
0.0
 11
48.519963504377927
 21
57.132369968077882
 31
0.0
  0
LINE
  5
1D9E8
  8
0
 10
48.519963504377927
 20
57.132369968077882
 30
0.0
 11
48.295192151878268
 21
57.080607907808542
 31
0.0
  0
LINE
  5
1D9E9
  8
0
 10
48.295192151878268
 20
57.080607907808542
 30
0.0
 11
48.071493579835298
 21
57.039125260889101
 31
0.0
  0
LINE
  5
1D9EA
  8
0
 10
48.071493579835298
 20
57.039125260889101
 30
0.0
 11
47.847123645182577
 21
57.01069348449149
 31
0.0
  0
LINE
  5
1D9EB
  8
0
 10
47.847123645182577
 20
57.01069348449149
 30
0.0
 11
47.62513158259241
 21
57.0
 31
0.0
  0
LINE
  5
1D9F3
  8
0
 10
49.5
 20
59.166666666666679
 30
0.0
 11
49.5
 21
53.5
 31
0.0
  0
LINE
  5
1D9F4
  8
0
 10
50.5
 20
53.5
 30
0.0
 11
50.5
 21
59.166666666666679
 31
0.0
  0
ARC
  5
1D9F5
  8
0
 10
50.0
 20
53.5
 30
0.0
 40
0.5
 50
180.0
 51
0.0
  0
LINE
  5
1D9FF
  8
2
 10
52.067000000000007
 20
59.5996666666667
 30
0.0
 11
52.067000000000007
 21
71.166666666666714
 31
0.0
  0
LINE
  5
1DA00
  8
2
 10
47.932999999999993
 20
71.166666666666714
 30
0.0
 11
47.932999999999993
 21
59.5996666666667
 31
0.0
  0
LINE
  5
1DA08
  8
2
 10
47.932999999999993
 20
59.5996666666667
 30
0.0
 11
52.067000000000007
 21
59.5996666666667
 31
0.0
  0
LINE
  5
1DA09
  8
2
 10
47.932999999999993
 20
59.5996666666667
 30
0.0
 11
47.500000000000071
 21
59.166666666666679
 31
0.0
  0
LINE
  5
1DA0A
  8
2
 10
52.499999999999943
 20
59.166666666666679
 30
0.0
 11
52.067000000000007
 21
59.5996666666667
 31
0.0
  0
LINE
  5
1DA22
  8
2
 10
47.5
 20
71.166666666666714
 30
0.0
 11
52.5
 21
71.166666666666714
 31
0.0
  0
LINE
  5
1DA88
  8
2
 10
52.5
 20
59.166666666666679
 30
0.0
 11
52.5
 21
71.166666666666714
 31
0.0
  0
LINE
  5
1DA89
  8
2
 10
47.5
 20
59.166666666666679
 30
0.0
 11
47.5
 21
71.166666666666714
 31
0.0
  0
LINE
  5
1DA8C
  8
1
 10
50.0
 20
50.0
 30
0.0
 11
50.0
 21
86.166666666666785
 31
0.0
  0
LINE
  5
1DA8F
  8
1
 10
44.189583333333303
 20
61.000000000000078
 30
0.0
 11
43.227083333333383
 21
61.000000000000078
 31
0.0
  0
LINE
  5
1DA91
  8
1
 10
58.24999999999995
 20
61.00000000000005
 30
0.0
 11
41.750000000000028
 21
61.00000000000005
 31
0.0
  0
ARC
  5
1DA97
  8
0
 10
50.0
 20
76.449677094034143
 30
0.0
 40
6.7169895726326123
 50
44.222845804198187
 51
60.25923236021481
  0
ARC
  5
1DA98
  8
0
 10
50.000000000000227
 20
76.449677094033802
 30
0.0
 40
6.7169895726329489
 50
119.7348522607025
 51
135.7771541957994
  0
ARC
  5
1DA99
  8
0
 10
56.581612318840598
 20
61.000000000000028
 30
0.0
 40
0.5982789855072606
 50
230.00373096165811
 51
248.944427760075
  0
ARC
  5
1DA9A
  8
0
 10
56.581612318840598
 20
61.000000000000028
 30
0.0
 40
0.5982789855072472
 50
111.055572239925
 51
129.99626903834181
  0
ARC
  5
1DA9B
  8
0
 10
43.418387681159402
 20
61.000000000000028
 30
0.0
 40
0.5982789855072375
 50
50.003730961658121
 51
68.944427760075015
  0
ARC
  5
1DA9C
  8
0
 10
43.418387681159402
 20
60.999999999999972
 30
0.0
 40
0.5982789855072054
 50
291.05557223992503
 51
309.99626903834178
  0
LINE
  5
1DA9D
  8
0
 10
43.25
 20
59.166666666666679
 30
0.0
 11
56.75
 21
59.166666666666679
 31
0.0
  0
LINE
  5
1DA9E
  8
0
 10
43.25
 20
60.441666666666691
 30
0.0
 11
56.75
 21
60.441666666666691
 31
0.0
  0
LINE
  5
1DA9F
  8
0
 10
56.75
 20
59.166666666666679
 30
0.0
 11
56.75
 21
60.441666666666691
 31
0.0
  0
LINE
  5
1DAA0
  8
0
 10
43.25
 20
60.441666666666691
 30
0.0
 11
43.25
 21
59.166666666666679
 31
0.0
  0
LINE
  5
1DAA1
  8
0
 10
56.291666666666622
 20
61.458333333333343
 30
0.0
 11
43.708333333333371
 21
61.458333333333343
 31
0.0
  0
LINE
  5
1DAA2
  8
0
 10
43.708333333333371
 20
60.541666666666679
 30
0.0
 11
56.291666666666622
 21
60.541666666666679
 31
0.0
  0
ARC
  5
1DAA3
  8
0
 10
56.291666666666622
 20
61.000000000000028
 30
0.0
 40
0.4583333333333333
 50
270.0
 51
90.0
  0
ARC
  5
1DAA4
  8
0
 10
43.708333333333371
 20
61.000000000000028
 30
0.0
 40
0.4583333333333333
 50
90.0
 51
270.0
  0
LINE
  5
1DAA5
  8
0
 10
43.25
 20
61.558333333333373
 30
0.0
 11
56.75
 21
61.558333333333373
 31
0.0
  0
LINE
  5
1DAA6
  8
0
 10
56.75
 20
61.558333333333373
 30
0.0
 11
56.75
 21
81.134447546455533
 31
0.0
  0
LINE
  5
1DAA7
  8
0
 10
43.25
 20
81.134447546455533
 30
0.0
 11
43.25
 21
61.558333333333373
 31
0.0
  0
LINE
  5
1DAA8
  8
0
 10
53.791280166712959
 20
81.134447546455533
 30
0.0
 11
53.791280166712959
 21
64.666666666666686
 31
0.0
  0
LINE
  5
1DAA9
  8
0
 10
52.563959346986557
 20
65.083558794261336
 30
0.0
 11
52.570192162104092
 21
65.134716202873221
 31
0.0
  0
LINE
  5
1DAAA
  8
0
 10
46.208719833287027
 20
81.134447546455533
 30
0.0
 11
46.208719833287027
 21
64.666666666666686
 31
0.0
  0
POLYLINE
  5
1DAAB
  8
0
 66
     1
 10
0.0
 20
0.0
 30
0.0
  0
VERTEX
  5
1E183
  8
0
 10
46.566585764534118
 20
81.141884114794664
 30
0.0
  0
VERTEX
  5
1E184
  8
0
 10
46.417006837506221
 20
81.136836456616209
 30
0.0
  0
VERTEX
  5
1E185
  8
0
 10
46.208719833285947
 20
81.134447546455405
 30
0.0
  0
SEQEND
  5
1E186
  8
0
  0
LINE
  5
1DAAC
  8
0
 10
47.436040652968352
 20
65.083561684031991
 30
0.0
 11
47.435656140295009
 21
65.071367032776834
 31
0.0
  0
LINE
  5
1DAAD
  8
0
 10
47.435656140295009
 20
65.071367032776834
 30
0.0
 11
47.422193085792387
 21
65.010747259353394
 31
0.0
  0
LINE
  5
1DAAE
  8
0
 10
47.422193085792387
 20
65.010747259353394
 30
0.0
 11
47.388044261690929
 21
64.951800594011274
 31
0.0
  0
LINE
  5
1DAAF
  8
0
 10
47.388044261690929
 20
64.951800594011274
 30
0.0
 11
47.333389551177959
 21
64.896832047787626
 31
0.0
  0
LINE
  5
1DAB0
  8
0
 10
47.333389551177959
 20
64.896832047787626
 30
0.0
 11
47.260577197458808
 21
64.847710509165609
 31
0.0
  0
LINE
  5
1DAB1
  8
0
 10
47.260577197458808
 20
64.847710509165609
 30
0.0
 11
47.168768704447189
 21
64.803437877168165
 31
0.0
  0
LINE
  5
1DAB2
  8
0
 10
47.168768704447189
 20
64.803437877168165
 30
0.0
 11
47.054565485056621
 21
64.763432018888935
 31
0.0
  0
LINE
  5
1DAB3
  8
0
 10
47.054565485056621
 20
64.763432018888935
 30
0.0
 11
46.921307911307387
 21
64.729701428313433
 31
0.0
  0
LINE
  5
1DAB4
  8
0
 10
46.921307911307387
 20
64.729701428313433
 30
0.0
 11
46.770828079459697
 21
64.702935566075411
 31
0.0
  0
LINE
  5
1DAB5
  8
0
 10
46.770828079459697
 20
64.702935566075411
 30
0.0
 11
46.603508747102907
 21
64.683295507996007
 31
0.0
  0
LINE
  5
1DAB6
  8
0
 10
46.603508747102907
 20
64.683295507996007
 30
0.0
 11
46.413611601199818
 21
64.670857321659639
 31
0.0
  0
LINE
  5
1DAB7
  8
0
 10
46.413611601199818
 20
64.670857321659639
 30
0.0
 11
46.2087198332855
 21
64.666666666666401
 31
0.0
  0
POLYLINE
  5
1DAB8
  8
0
 66
     1
 10
0.0
 20
0.0
 30
0.0
  0
VERTEX
  5
1E187
  8
0
 10
53.791280166712959
 20
81.134447546455533
 30
0.0
  0
VERTEX
  5
1E188
  8
0
 10
53.54508391495812
 20
81.137869551045284
 30
0.0
  0
VERTEX
  5
1E189
  8
0
 10
53.431676426745071
 20
81.141961714984674
 30
0.0
  0
SEQEND
  5
1E18A
  8
0
  0
LINE
  5
1DAB9
  8
0
 10
53.791280166712959
 20
81.134447546455533
 30
0.0
 11
56.75
 21
81.134447546455533
 31
0.0
  0
LINE
  5
1DABA
  8
0
 10
43.25
 20
81.134447546455533
 30
0.0
 11
46.208719833287027
 21
81.134447546455533
 31
0.0
  0
LINE
  5
1DABB
  8
0
 10
47.42980783789573
 20
65.13471620287325
 30
0.0
 11
47.337409454062652
 21
65.539872388567517
 31
0.0
  0
LINE
  5
1DABC
  8
0
 10
47.337409454062652
 20
65.539872388567517
 30
0.0
 11
47.245731061887447
 21
65.981089712284046
 31
0.0
  0
LINE
  5
1DABD
  8
0
 10
47.245731061887447
 20
65.981089712284046
 30
0.0
 11
47.154857602321151
 21
66.457565760271478
 31
0.0
  0
LINE
  5
1DABE
  8
0
 10
47.154857602321151
 20
66.457565760271478
 30
0.0
 11
47.064287827631681
 21
66.972014050463798
 31
0.0
  0
LINE
  5
1DABF
  8
0
 10
47.064287827631681
 20
66.972014050463798
 30
0.0
 11
46.974614827176367
 21
67.521289985005552
 31
0.0
  0
LINE
  5
1DAC0
  8
0
 10
46.974614827176367
 20
67.521289985005552
 30
0.0
 11
46.885924792324317
 21
68.104760149129589
 31
0.0
  0
LINE
  5
1DAC1
  8
0
 10
46.885924792324317
 20
68.104760149129589
 30
0.0
 11
46.807629672489043
 21
68.65413118648226
 31
0.0
  0
LINE
  5
1DAC2
  8
0
 10
46.807629672489043
 20
68.65413118648226
 30
0.0
 11
46.73015062766035
 21
69.230452828449273
 31
0.0
  0
LINE
  5
1DAC3
  8
0
 10
53.26984937233965
 20
69.230452828449273
 30
0.0
 11
53.186091011850351
 21
68.60886336169537
 31
0.0
  0
LINE
  5
1DAC4
  8
0
 10
53.186091011850351
 20
68.60886336169537
 30
0.0
 11
53.101335782314777
 21
68.018441542076658
 31
0.0
  0
LINE
  5
1DAC5
  8
0
 10
53.101335782314777
 20
68.018441542076658
 30
0.0
 11
53.015422685888041
 21
67.458264795600286
 31
0.0
  0
LINE
  5
1DAC6
  8
0
 10
53.015422685888041
 20
67.458264795600286
 30
0.0
 11
52.928609532266869
 21
66.930214131718259
 31
0.0
  0
LINE
  5
1DAC7
  8
0
 10
52.928609532266869
 20
66.930214131718259
 30
0.0
 11
52.840284002454602
 21
66.431094388412134
 31
0.0
  0
LINE
  5
1DAC8
  8
0
 10
52.840284002454602
 20
66.431094388412134
 30
0.0
 11
52.751149310114151
 21
65.965447720698677
 31
0.0
  0
LINE
  5
1DAC9
  8
0
 10
52.751149310114151
 20
65.965447720698677
 30
0.0
 11
52.661025536196291
 21
65.532696303900082
 31
0.0
  0
LINE
  5
1DACA
  8
0
 10
52.661025536196291
 20
65.532696303900082
 30
0.0
 11
52.57019216210432
 21
65.13471620287325
 31
0.0
  0
LINE
  5
1DACB
  8
0
 10
47.42980783789573
 20
65.13471620287325
 30
0.0
 11
47.436040652968352
 21
65.083561684031991
 31
0.0
  0
LINE
  5
1DACC
  8
0
 10
46.208719833287027
 20
64.666666666666686
 30
0.0
 11
53.791280166712959
 21
64.666666666666686
 31
0.0
  0
LINE
  5
1DACD
  8
0
 10
53.791280166712959
 20
64.666666666666686
 30
0.0
 11
53.551425545924872
 21
64.672563765669025
 31
0.0
  0
LINE
  5
1DACE
  8
0
 10
53.551425545924872
 20
64.672563765669025
 30
0.0
 11
53.332068194322339
 21
64.689883203946636
 31
0.0
  0
LINE
  5
1DACF
  8
0
 10
53.332068194322339
 20
64.689883203946636
 30
0.0
 11
53.137277222832502
 21
64.718067193405346
 31
0.0
  0
LINE
  5
1DAD0
  8
0
 10
53.137277222832502
 20
64.718067193405346
 30
0.0
 11
52.969219367420749
 21
64.756640990823172
 31
0.0
  0
LINE
  5
1DAD1
  8
0
 10
52.969219367420749
 20
64.756640990823172
 30
0.0
 11
52.828457285121658
 21
64.804709629125938
 31
0.0
  0
LINE
  5
1DAD2
  8
0
 10
52.828457285121658
 20
64.804709629125938
 30
0.0
 11
52.717068857466472
 21
64.861008419326311
 31
0.0
  0
LINE
  5
1DAD3
  8
0
 10
52.717068857466472
 20
64.861008419326311
 30
0.0
 11
52.634137953707523
 21
64.926601585857355
 31
0.0
  0
LINE
  5
1DAD4
  8
0
 10
52.634137953707523
 20
64.926601585857355
 30
0.0
 11
52.583004760187691
 21
64.99902691313784
 31
0.0
  0
LINE
  5
1DAD5
  8
0
 10
52.583004760187691
 20
64.99902691313784
 30
0.0
 11
52.564073635718607
 21
65.076765184442081
 31
0.0
  0
LINE
  5
1DAD6
  8
0
 10
52.564073635718607
 20
65.076765184442081
 30
0.0
 11
52.563959346986557
 21
65.083558794261336
 31
0.0
  0
LINE
  5
1DAD7
  8
0
 10
46.5
 20
79.981566760595172
 30
0.0
 11
46.5
 21
71.951766572727848
 31
0.0
  0
LINE
  5
1DAD8
  8
0
 10
53.5
 20
79.981566760595172
 30
0.0
 11
53.5
 21
71.951766572738464
 31
0.0
  0
POLYLINE
  5
1DAD9
  8
0
 66
     1
 10
0.0
 20
0.0
 30
0.0
  0
VERTEX
  5
1E18B
  8
0
 10
46.5
 20
79.981566760595172
 30
0.0
  0
VERTEX
  5
1E18C
  8
0
 10
46.51148520054943
 20
80.225782891650113
 30
0.0
  0
VERTEX
  5
1E18D
  8
0
 10
46.523636392278938
 20
80.462641024658808
 30
0.0
  0
VERTEX
  5
1E18E
  8
0
 10
46.536524433038707
 20
80.693300104208845
 30
0.0
  0
VERTEX
  5
1E18F
  8
0
 10
46.550043471057393
 20
80.915688805691886
 30
0.0
  0
VERTEX
  5
1E190
  8
0
 10
46.564485090748292
 20
81.133981395429075
 30
0.0
  0
VERTEX
  5
1E191
  8
0
 10
46.579533998079341
 20
81.342846201038412
 30
0.0
  0
VERTEX
  5
1E192
  8
0
 10
46.595280210015169
 20
81.543328657965105
 30
0.0
  0
VERTEX
  5
1E193
  8
0
 10
46.611585247537043
 20
81.733501386741224
 30
0.0
  0
VERTEX
  5
1E194
  8
0
 10
46.627819403656069
 20
81.906891211881032
 30
0.0
  0
VERTEX
  5
1E195
  8
0
 10
46.64451752869342
 20
82.070072758185631
 30
0.0
  0
VERTEX
  5
1E196
  8
0
 10
46.661771123483611
 20
82.223784110256418
 30
0.0
  0
VERTEX
  5
1E197
  8
0
 10
46.679435765790167
 20
82.366611675389152
 30
0.0
  0
VERTEX
  5
1E198
  8
0
 10
46.697874835021139
 20
82.501027828547706
 30
0.0
  0
VERTEX
  5
1E199
  8
0
 10
46.716677282866328
 20
82.62360313377593
 30
0.0
  0
VERTEX
  5
1E19A
  8
0
 10
46.735949748547341
 20
82.734875718653768
 30
0.0
  0
VERTEX
  5
1E19B
  8
0
 10
46.75552100537891
 20
82.83372829904971
 30
0.0
  0
VERTEX
  5
1E19C
  8
0
 10
46.774732964482887
 20
82.917481102278714
 30
0.0
  0
VERTEX
  5
1E19D
  8
0
 10
46.794158863976179
 20
82.989285112882797
 30
0.0
  0
VERTEX
  5
1E19E
  8
0
 10
46.813901140880709
 20
83.049387201888464
 30
0.0
  0
VERTEX
  5
1E19F
  8
0
 10
46.833792559966689
 20
83.097169480399714
 30
0.0
  0
VERTEX
  5
1E1A0
  8
0
 10
46.854229696123532
 20
83.133173496807387
 30
0.0
  0
VERTEX
  5
1E1A1
  8
0
 10
46.874750041086543
 20
83.156196022070773
 30
0.0
  0
VERTEX
  5
1E1A2
  8
0
 10
46.895465768744032
 20
83.166220855897734
 30
0.0
  0
VERTEX
  5
1E1A3
  8
0
 10
46.900332422677302
 20
83.166666666666799
 30
0.0
  0
SEQEND
  5
1E1A4
  8
0
  0
LINE
  5
1DADC
  8
0
 10
46.73015062766035
 20
69.230452828449273
 30
0.0
 11
46.705426770209669
 21
69.381397398235066
 31
0.0
  0
LINE
  5
1DADD
  8
0
 10
46.705426770209669
 20
69.381397398235066
 30
0.0
 11
46.681276957090972
 21
69.552680015779714
 31
0.0
  0
LINE
  5
1DADE
  8
0
 10
46.681276957090972
 20
69.552680015779714
 30
0.0
 11
46.657812195226477
 21
69.743537980178786
 31
0.0
  0
LINE
  5
1DADF
  8
0
 10
46.657812195226477
 20
69.743537980178786
 30
0.0
 11
46.63444376420329
 21
69.959980096453393
 31
0.0
  0
LINE
  5
1DAE0
  8
0
 10
46.63444376420329
 20
69.959980096453393
 30
0.0
 11
46.611915831229112
 21
70.19619520179495
 31
0.0
  0
LINE
  5
1DAE1
  8
0
 10
46.611915831229112
 20
70.19619520179495
 30
0.0
 11
46.590338812121551
 21
70.451050973813693
 31
0.0
  0
LINE
  5
1DAE2
  8
0
 10
46.590338812121551
 20
70.451050973813693
 30
0.0
 11
46.565409483133507
 21
70.786023704287246
 31
0.0
  0
LINE
  5
1DAE3
  8
0
 10
46.565409483133507
 20
70.786023704287246
 30
0.0
 11
46.542092712383919
 21
71.14616344629016
 31
0.0
  0
LINE
  5
1DAE4
  8
0
 10
46.542092712383919
 20
71.14616344629016
 30
0.0
 11
46.520091578662573
 21
71.537747425888512
 31
0.0
  0
LINE
  5
1DAE5
  8
0
 10
46.520091578662573
 20
71.537747425888512
 30
0.0
 11
46.5
 21
71.951766572727848
 31
0.0
  0
LINE
  5
1DAE7
  8
0
 10
53.5
 20
71.951766572738464
 30
0.0
 11
53.484483816772922
 21
71.626753985483361
 31
0.0
  0
LINE
  5
1DAE8
  8
0
 10
53.484483816772922
 20
71.626753985483361
 30
0.0
 11
53.467776712933592
 21
71.314902736112259
 31
0.0
  0
LINE
  5
1DAE9
  8
0
 10
53.467776712933592
 20
71.314902736112259
 30
0.0
 11
53.449956528942607
 21
71.01764452764175
 31
0.0
  0
LINE
  5
1DAEA
  8
0
 10
53.449956528942607
 20
71.01764452764175
 30
0.0
 11
53.430495184428757
 21
70.72773391394324
 31
0.0
  0
LINE
  5
1DAEB
  8
0
 10
53.430495184428757
 20
70.72773391394324
 30
0.0
 11
53.409947633633351
 21
70.454691030159807
 31
0.0
  0
LINE
  5
1DAEC
  8
0
 10
53.409947633633351
 20
70.454691030159807
 30
0.0
 11
53.38841475246295
 21
70.199831946592411
 31
0.0
  0
LINE
  5
1DAED
  8
0
 10
53.38841475246295
 20
70.199831946592411
 30
0.0
 11
53.360831756801701
 21
69.913962669565791
 31
0.0
  0
LINE
  5
1DAEE
  8
0
 10
53.360831756801701
 20
69.913962669565791
 30
0.0
 11
53.33199207325378
 21
69.657490930481487
 31
0.0
  0
LINE
  5
1DAEF
  8
0
 10
53.33199207325378
 20
69.657490930481487
 30
0.0
 11
53.301424138583293
 21
69.427500029671961
 31
0.0
  0
LINE
  5
1DAF0
  8
0
 10
53.301424138583293
 20
69.427500029671961
 30
0.0
 11
53.26984937233965
 21
69.230452828449273
 31
0.0
  0
LINE
  5
1DAF3
  8
0
 10
53.099636563179729
 20
83.166666666666799
 30
0.0
 11
46.900332422677302
 21
83.166666666666799
 31
0.0
  0
POLYLINE
  5
1DAF4
  8
0
 66
     1
 10
0.0
 20
0.0
 30
0.0
  0
VERTEX
  5
1E1A5
  8
0
 10
53.099636563179729
 20
83.166666666666799
 30
0.0
  0
VERTEX
  5
1E1A6
  8
0
 10
53.118223368559079
 20
83.161077318178926
 30
0.0
  0
VERTEX
  5
1E1A7
  8
0
 10
53.138619068403841
 20
83.142684215262136
 30
0.0
  0
VERTEX
  5
1E1A8
  8
0
 10
53.15939193611154
 20
83.110636291802805
 30
0.0
  0
VERTEX
  5
1E1A9
  8
0
 10
53.18005397067548
 20
83.065253107127035
 30
0.0
  0
VERTEX
  5
1E1AA
  8
0
 10
53.200719639596173
 20
83.00610521377024
 30
0.0
  0
VERTEX
  5
1E1AB
  8
0
 10
53.221195105912777
 20
82.933593246737871
 30
0.0
  0
VERTEX
  5
1E1AC
  8
0
 10
53.240604863682961
 20
82.851656871685861
 30
0.0
  0
VERTEX
  5
1E1AD
  8
0
 10
53.259770639687638
 20
82.757689451702319
 30
0.0
  0
VERTEX
  5
1E1AE
  8
0
 10
53.278790319823827
 20
82.651048717760489
 30
0.0
  0
VERTEX
  5
1E1AF
  8
0
 10
53.297495008400908
 20
82.532540357106257
 30
0.0
  0
VERTEX
  5
1E1B0
  8
0
 10
53.316251913410319
 20
82.399351622790789
 30
0.0
  0
VERTEX
  5
1E1B1
  8
0
 10
53.334610214983122
 20
82.25421066261157
 30
0.0
  0
VERTEX
  5
1E1B2
  8
0
 10
53.352667837710392
 20
82.096147399212256
 30
0.0
  0
VERTEX
  5
1E1B3
  8
0
 10
53.370251924729821
 20
81.926503237452664
 30
0.0
  0
VERTEX
  5
1E1B4
  8
0
 10
53.386618388723491
 20
81.753440245339604
 30
0.0
  0
VERTEX
  5
1E1B5
  8
0
 10
53.402491234032929
 20
81.570330267124348
 30
0.0
  0
VERTEX
  5
1E1B6
  8
0
 10
53.417947903103872
 20
81.376090410363361
 30
0.0
  0
VERTEX
  5
1E1B7
  8
0
 10
53.4328484255023
 20
81.172312306054152
 30
0.0
  0
VERTEX
  5
1E1B8
  8
0
 10
53.447473965676402
 20
80.954555228849173
 30
0.0
  0
VERTEX
  5
1E1B9
  8
0
 10
53.46146374766289
 20
80.727599341870416
 30
0.0
  0
VERTEX
  5
1E1BA
  8
0
 10
53.474887963416222
 20
80.490058591770477
 30
0.0
  0
VERTEX
  5
1E1BB
  8
0
 10
53.487615034843998
 20
80.244039960326219
 30
0.0
  0
VERTEX
  5
1E1BC
  8
0
 10
53.5
 20
79.981566760595172
 30
0.0
  0
SEQEND
  5
1E1BD
  8
0
  0
LINE
  5
1DC63
  8
2
 10
137.75000000000031
 20
71.166666666666686
 30
0.0
 11
142.75000000000031
 21
71.166666666666714
 31
0.0
  0
LINE
  5
1DD18
  8
0
 10
249.83333333333371
 20
146.7441112686941
 30
0.0
 11
249.83333333333371
 21
149.294111268694
 31
0.0
  0
LINE
  5
1DD19
  8
0
 10
249.83333333333371
 20
142.4941112686941
 30
0.0
 11
249.83333333333371
 21
145.04411126869411
 31
0.0
  0
LINE
  5
1DD1A
  8
0
 10
187.83333333333351
 20
146.39411126869419
 30
0.0
 11
187.83333333333351
 21
147.91256035769121
 31
0.0
  0
LINE
  5
1DD1B
  8
0
 10
187.83333333333351
 20
143.87566217969709
 30
0.0
 11
187.83333333333351
 21
145.39411126869419
 31
0.0
  0
ARC
  5
1DD1C
  8
0
 10
220.33333333333371
 20
145.8941112686941
 30
0.0
 40
2.249999999999984
 50
192.8395884069061
 51
347.16041159309549
  0
ARC
  5
1DD1D
  8
0
 10
214.33333333333371
 20
145.8941112686941
 30
0.0
 40
2.25
 50
12.83958840690619
 51
167.16041159309711
  0
ARC
  5
1DD1E
  8
0
 10
214.33333333333371
 20
145.8941112686941
 30
0.0
 40
2.249999999999984
 50
192.83958840690451
 51
347.16041159309549
  0
ARC
  5
1DD1F
  8
0
 10
226.33333333333371
 20
145.8941112686941
 30
0.0
 40
2.249999999999984
 50
192.8395884069061
 51
347.16041159309549
  0
ARC
  5
1DD20
  8
0
 10
190.33333333333351
 20
145.8941112686941
 30
0.0
 40
2.2500000000000062
 50
12.83958840690452
 51
167.16041159309549
  0
ARC
  5
1DD21
  8
0
 10
190.33333333333351
 20
145.8941112686941
 30
0.0
 40
2.2500000000000062
 50
192.83958840690281
 51
347.16041159309719
  0
ARC
  5
1DD22
  8
0
 10
202.3333333333336
 20
145.8941112686941
 30
0.0
 40
2.2500000000000062
 50
192.83958840690451
 51
347.16041159309719
  0
ARC
  5
1DD23
  8
0
 10
234.33333333333371
 20
145.8941112686941
 30
0.0
 40
2.2500000000000129
 50
245.23573932699639
 51
114.624318352176
  0
ARC
  5
1DD24
  8
0
 10
196.33333333333351
 20
145.8941112686941
 30
0.0
 40
2.2500000000000062
 50
192.83958840690281
 51
347.16041159309719
  0
ARC
  5
1DD25
  8
0
 10
208.33333333333351
 20
145.8941112686941
 30
0.0
 40
2.2500000000000342
 50
192.8395884069061
 51
286.16814915248051
  0
ARC
  5
1DD26
  8
0
 10
208.33333333333351
 20
145.8941112686941
 30
0.0
 40
2.25
 50
43.63520862698627
 51
167.16041159309381
  0
LINE
  5
1DD27
  8
0
 10
216.52707443018161
 20
145.39411126869419
 30
0.0
 11
218.1395922364857
 21
145.39411126869419
 31
0.0
  0
LINE
  5
1DD28
  8
0
 10
218.1395922364857
 20
146.39411126869419
 30
0.0
 11
216.52707443018161
 21
146.39411126869419
 31
0.0
  0
LINE
  5
1DD29
  8
0
 10
228.52707443018161
 20
145.39411126869419
 30
0.0
 11
230.86470636673329
 21
145.39411126869419
 31
0.0
  0
LINE
  5
1DD2A
  8
0
 10
230.86470636673329
 20
146.39411126869419
 30
0.0
 11
228.52707443018161
 21
146.39411126869419
 31
0.0
  0
LINE
  5
1DD2B
  8
0
 10
204.52707443018161
 20
145.39411126869419
 30
0.0
 11
206.1395922364855
 21
145.39411126869419
 31
0.0
  0
LINE
  5
1DD2C
  8
0
 10
206.1395922364855
 20
146.39411126869419
 30
0.0
 11
204.52707443018161
 21
146.39411126869419
 31
0.0
  0
LINE
  5
1DD2D
  8
0
 10
222.52707443018161
 20
145.39411126869419
 30
0.0
 11
224.1395922364857
 21
145.39411126869419
 31
0.0
  0
LINE
  5
1DD2E
  8
0
 10
224.1395922364857
 20
146.39411126869419
 30
0.0
 11
222.52707443018161
 21
146.39411126869419
 31
0.0
  0
LINE
  5
1DD2F
  8
0
 10
198.52707443018161
 20
145.39411126869419
 30
0.0
 11
200.1395922364855
 21
145.39411126869419
 31
0.0
  0
LINE
  5
1DD30
  8
0
 10
200.1395922364855
 20
146.39411126869419
 30
0.0
 11
198.52707443018161
 21
146.39411126869419
 31
0.0
  0
LINE
  5
1DD31
  8
0
 10
192.52707443018161
 20
145.39411126869419
 30
0.0
 11
194.1395922364855
 21
145.39411126869419
 31
0.0
  0
LINE
  5
1DD32
  8
0
 10
194.1395922364855
 20
146.39411126869419
 30
0.0
 11
192.52707443018161
 21
146.39411126869419
 31
0.0
  0
LINE
  5
1DD33
  8
0
 10
187.83333333333351
 20
145.39411126869419
 30
0.0
 11
188.1395922364855
 21
145.39411126869419
 31
0.0
  0
LINE
  5
1DD34
  8
0
 10
188.1395922364855
 20
146.39411126869419
 30
0.0
 11
187.83333333333351
 21
146.39411126869419
 31
0.0
  0
LINE
  5
1DD35
  8
0
 10
210.9547489544843
 20
145.39411126869419
 30
0.0
 11
212.1395922364857
 21
145.39411126869419
 31
0.0
  0
LINE
  5
1DD36
  8
0
 10
212.1395922364857
 20
146.39411126869419
 30
0.0
 11
211.7279071155252
 21
146.39411126869419
 31
0.0
  0
POLYLINE
  5
1DD37
  8
0
 66
     1
 10
0.0
 20
0.0
 30
0.0
 70
   128
  0
VERTEX
  5
1E1BE
  8
0
 10
249.83333333333371
 20
146.7441112686941
 30
0.0
  0
VERTEX
  5
1E1BF
  8
0
 10
249.83331410249309
 20
146.7413378291333
 30
0.0
  0
VERTEX
  5
1E1C0
  8
0
 10
249.72994867837471
 20
146.56899566371609
 30
0.0
  0
VERTEX
  5
1E1C1
  8
0
 10
249.6333333333337
 20
146.54411126869411
 30
0.0
  0
SEQEND
  5
1E1C2
  8
0
  0
LINE
  5
1DD38
  8
0
 10
234.83333333333371
 20
149.89411126869419
 30
0.0
 11
249.2333333333336
 21
149.89411126869419
 31
0.0
  0
POLYLINE
  5
1DD39
  8
0
 66
     1
 10
0.0
 20
0.0
 30
0.0
 70
   128
  0
VERTEX
  5
1E1C3
  8
0
 10
249.2333333333336
 20
149.89411126869419
 30
0.0
  0
VERTEX
  5
1E1C4
  8
0
 10
249.60926172178611
 20
149.76174130061631
 30
0.0
  0
VERTEX
  5
1E1C5
  8
0
 10
249.8333154761346
 20
149.29874034291109
 30
0.0
  0
VERTEX
  5
1E1C6
  8
0
 10
249.83333333333371
 20
149.294111268694
 30
0.0
  0
SEQEND
  5
1E1C7
  8
0
  0
LINE
  5
1DD3A
  8
0
 10
244.3333333333336
 20
146.54411126869411
 30
0.0
 11
249.6333333333337
 21
146.54411126869411
 31
0.0
  0
ARC
  5
1DD3B
  8
0
 10
244.3333333333336
 20
147.044111268694
 30
0.0
 40
0.5
 50
179.99999999999349
 51
270.0
  0
POLYLINE
  5
1DD3C
  8
0
 66
     1
 10
0.0
 20
0.0
 30
0.0
 70
   128
  0
VERTEX
  5
1E1C8
  8
0
 10
249.83333333333371
 20
142.4941112686941
 30
0.0
  0
VERTEX
  5
1E1C9
  8
0
 10
249.8333154761346
 20
142.48948219447729
 30
0.0
  0
VERTEX
  5
1E1CA
  8
0
 10
249.60926172178611
 20
142.02648123677201
 30
0.0
  0
VERTEX
  5
1E1CB
  8
0
 10
249.2333333333336
 20
141.89411126869419
 30
0.0
  0
SEQEND
  5
1E1CC
  8
0
  0
LINE
  5
1DD3D
  8
0
 10
249.2333333333336
 20
141.89411126869419
 30
0.0
 11
234.83333333333371
 21
141.89411126869419
 31
0.0
  0
POLYLINE
  5
1DD3E
  8
0
 66
     1
 10
0.0
 20
0.0
 30
0.0
 70
   128
  0
VERTEX
  5
1E1CD
  8
0
 10
249.6333333333337
 20
145.2441112686941
 30
0.0
  0
VERTEX
  5
1E1CE
  8
0
 10
249.72994867837471
 20
145.21922687367211
 30
0.0
  0
VERTEX
  5
1E1CF
  8
0
 10
249.83331410249309
 20
145.04688470825579
 30
0.0
  0
VERTEX
  5
1E1D0
  8
0
 10
249.83333333333371
 20
145.04411126869411
 30
0.0
  0
SEQEND
  5
1E1D1
  8
0
  0
LINE
  5
1DD3F
  8
0
 10
243.83333333333371
 20
145.04411126869411
 30
0.0
 11
243.83333333333371
 21
144.7441112686941
 31
0.0
  0
ARC
  5
1DD40
  8
0
 10
244.03333333333359
 20
145.04411126869411
 30
0.0
 40
0.1999999999999815
 50
90.0
 51
180.0
  0
LINE
  5
1DD41
  8
0
 10
249.6333333333337
 20
145.2441112686941
 30
0.0
 11
244.03333333333359
 21
145.2441112686941
 31
0.0
  0
ARC
  5
1DD42
  8
0
 10
234.83333333333371
 20
145.8941112686941
 30
0.0
 40
4.0000000000001226
 50
90.0
 51
180.0
  0
ARC
  5
1DD43
  8
0
 10
237.6194205274852
 20
149.42790783139861
 30
0.0
 40
1.9999999999997899
 50
231.74733416214849
 51
266.50000000000711
  0
ARC
  5
1DD44
  8
0
 10
234.83333333333371
 20
145.8941112686941
 30
0.0
 40
2.500000000000099
 50
51.747334162153322
 51
308.25266938692192
  0
ARC
  5
1DD45
  8
0
 10
237.6194205274856
 20
142.36031470598931
 30
0.0
 40
2.000000000000151
 50
93.500000000006224
 51
128.25266140151109
  0
ARC
  5
1DD46
  8
0
 10
234.83333333333371
 20
145.8941112686941
 30
0.0
 40
4.0000000000001226
 50
180.0
 51
270.0
  0
LINE
  5
1DD47
  8
0
 10
243.83333333333371
 20
144.7441112686941
 30
0.0
 11
237.4973234484157
 21
144.35658430283311
 31
0.0
  0
LINE
  5
1DD48
  8
0
 10
237.4973234484157
 20
147.43163823455509
 30
0.0
 11
243.83333333333371
 21
147.04411126869411
 31
0.0
  0
ARC
  5
1DD49
  8
0
 10
175.6804195807124
 20
142.89411126869399
 30
0.0
 40
8.0000000000001137
 50
77.50000000000226
 51
90.0
  0
LINE
  5
1DD4A
  8
0
 10
187.3631971016963
 20
148.4983379619633
 30
0.0
 11
177.41193649221731
 21
150.70447932565361
 31
0.0
  0
LINE
  5
1DD4B
  8
0
 10
177.41193649221731
 20
141.0837432117346
 30
0.0
 11
187.36319710169661
 21
143.28988457542519
 31
0.0
  0
ARC
  5
1DD4C
  8
0
 10
175.6804195807124
 20
148.89411126869439
 30
0.0
 40
8.0000000000002931
 50
270.0
 51
282.50000000000068
  0
LINE
  5
1DD4D
  8
0
 10
175.6804195807124
 20
140.89411126869419
 30
0.0
 11
173.83333333333351
 21
140.89411126869419
 31
0.0
  0
ARC
  5
1DD4E
  8
0
 10
173.83333333333351
 20
145.8941112686941
 30
0.0
 40
5.0000000000000302
 50
208.35763657632839
 51
270.0
  0
ARC
  5
1DD4F
  8
0
 10
173.83333333333351
 20
145.8941112686941
 30
0.0
 40
5.0000000000000302
 50
90.0
 51
151.64236342367161
  0
LINE
  5
1DD50
  8
0
 10
175.6804195807124
 20
150.89411126869419
 30
0.0
 11
173.83333333333351
 21
150.89411126869419
 31
0.0
  0
ARC
  5
1DD51
  8
0
 10
173.83333333333351
 20
145.8941112686941
 30
0.0
 40
4.0000000000000142
 50
187.18075578145829
 51
172.81924421854171
  0
ARC
  5
1DD52
  8
0
 10
173.83333333333351
 20
145.8941112686941
 30
0.0
 40
2.5000000000000351
 50
191.5369590328165
 51
168.46304096718339
  0
POLYLINE
  5
1DD53
  8
0
 66
     1
 10
0.0
 20
0.0
 30
0.0
 70
   128
  0
VERTEX
  5
1E1D2
  8
0
 10
187.36319710169639
 20
143.28988457542511
 30
0.0
  0
VERTEX
  5
1E1D3
  8
0
 10
187.7045451895977
 20
143.50423333521121
 30
0.0
  0
VERTEX
  5
1E1D4
  8
0
 10
187.83331594196389
 20
143.87109388182901
 30
0.0
  0
VERTEX
  5
1E1D5
  8
0
 10
187.83333333333351
 20
143.87566217969709
 30
0.0
  0
SEQEND
  5
1E1D6
  8
0
  0
POLYLINE
  5
1DD54
  8
0
 66
     1
 10
0.0
 20
0.0
 30
0.0
 70
   128
  0
VERTEX
  5
1E1D7
  8
0
 10
187.83333333333351
 20
147.91256035769121
 30
0.0
  0
VERTEX
  5
1E1D8
  8
0
 10
187.83331594196389
 20
147.91712865555911
 30
0.0
  0
VERTEX
  5
1E1D9
  8
0
 10
187.7045451895977
 20
148.28398920217711
 30
0.0
  0
VERTEX
  5
1E1DA
  8
0
 10
187.36319710169639
 20
148.4983379619631
 30
0.0
  0
SEQEND
  5
1E1DB
  8
0
  0
POLYLINE
  5
1DD55
  8
0
 66
     1
 10
0.0
 20
0.0
 30
0.0
 70
   128
  0
VERTEX
  5
1E1DC
  8
0
 10
187.83333333333351
 20
145.39411126869419
 30
0.0
  0
VERTEX
  5
1E1DD
  8
0
 10
187.82993805159791
 20
145.42204212751579
 30
0.0
  0
VERTEX
  5
1E1DE
  8
0
 10
187.82122779213961
 20
145.50257300162991
 30
0.0
  0
VERTEX
  5
1E1DF
  8
0
 10
187.81091586520591
 20
145.62734770698461
 30
0.0
  0
VERTEX
  5
1E1E0
  8
0
 10
187.8035208571396
 20
145.78280549981619
 30
0.0
  0
VERTEX
  5
1E1E1
  8
0
 10
187.8023558291533
 20
145.95014315535931
 30
0.0
  0
VERTEX
  5
1E1E2
  8
0
 10
187.80784104420201
 20
146.1102398039535
 30
0.0
  0
VERTEX
  5
1E1E3
  8
0
 10
187.81757898179691
 20
146.2465504652925
 30
0.0
  0
VERTEX
  5
1E1E4
  8
0
 10
187.827393143672
 20
146.344126566836
 30
0.0
  0
VERTEX
  5
1E1E5
  8
0
 10
187.8329367935012
 20
146.39092898032021
 30
0.0
  0
VERTEX
  5
1E1E6
  8
0
 10
187.83333333333351
 20
146.39411126869419
 30
0.0
  0
SEQEND
  5
1E1E7
  8
0
  0
POLYLINE
  5
1DD56
  8
0
 66
     1
 10
0.0
 20
0.0
 30
0.0
 70
   128
  0
VERTEX
  5
1E1E8
  8
0
 10
169.43333333333351
 20
148.26897968610169
 30
0.0
  0
VERTEX
  5
1E1E9
  8
0
 10
169.057404944881
 20
147.37414776431621
 30
0.0
  0
VERTEX
  5
1E1EA
  8
0
 10
168.90769141452211
 20
146.39411126869419
 30
0.0
  0
SEQEND
  5
1E1EB
  8
0
  0
POLYLINE
  5
1DD57
  8
0
 66
     1
 10
0.0
 20
0.0
 30
0.0
 70
   128
  0
VERTEX
  5
1E1EC
  8
0
 10
168.90769141452211
 20
145.39411126869419
 30
0.0
  0
VERTEX
  5
1E1ED
  8
0
 10
169.057404944881
 20
144.414074773072
 30
0.0
  0
VERTEX
  5
1E1EE
  8
0
 10
169.43333333333351
 20
143.51924285128661
 30
0.0
  0
SEQEND
  5
1E1EF
  8
0
  0
LINE
  5
1DD58
  8
0
 10
222.52707443018161
 20
145.39411126869419
 30
0.0
 11
222.52707443018161
 21
146.39411126869419
 31
0.0
  0
LINE
  5
1DD59
  8
0
 10
218.1395922364857
 20
146.39411126869419
 30
0.0
 11
218.1395922364857
 21
145.39411126869419
 31
0.0
  0
LINE
  5
1DD5A
  8
0
 10
216.52707443018161
 20
145.39411126869419
 30
0.0
 11
216.52707443018161
 21
146.39411126869419
 31
0.0
  0
LINE
  5
1DD5B
  8
0
 10
212.1395922364857
 20
146.39411126869419
 30
0.0
 11
212.1395922364857
 21
145.39411126869419
 31
0.0
  0
LINE
  5
1DD5C
  8
0
 10
228.52707443018161
 20
145.39411126869419
 30
0.0
 11
228.52707443018161
 21
146.39411126869419
 31
0.0
  0
LINE
  5
1DD5D
  8
0
 10
224.1395922364857
 20
146.39411126869419
 30
0.0
 11
224.1395922364857
 21
145.39411126869419
 31
0.0
  0
LINE
  5
1DD5E
  8
0
 10
192.52707443018161
 20
145.39411126869419
 30
0.0
 11
192.52707443018161
 21
146.39411126869419
 31
0.0
  0
LINE
  5
1DD5F
  8
0
 10
188.1395922364855
 20
146.39411126869419
 30
0.0
 11
188.1395922364855
 21
145.39411126869419
 31
0.0
  0
LINE
  5
1DD60
  8
0
 10
204.52707443018161
 20
145.39411126869419
 30
0.0
 11
204.52707443018161
 21
146.39411126869419
 31
0.0
  0
LINE
  5
1DD61
  8
0
 10
200.1395922364855
 20
146.39411126869419
 30
0.0
 11
200.1395922364855
 21
145.39411126869419
 31
0.0
  0
LINE
  5
1DD62
  8
0
 10
198.52707443018161
 20
145.39411126869419
 30
0.0
 11
198.52707443018161
 21
146.39411126869419
 31
0.0
  0
LINE
  5
1DD63
  8
0
 10
194.1395922364855
 20
146.39411126869419
 30
0.0
 11
194.1395922364855
 21
145.39411126869419
 31
0.0
  0
LINE
  5
1DD64
  8
0
 10
206.1395922364855
 20
146.39411126869419
 30
0.0
 11
206.1395922364855
 21
145.39411126869419
 31
0.0
  0
POLYLINE
  5
1DD65
  8
4
 66
     1
 10
0.0
 20
0.0
 30
0.0
  0
VERTEX
  5
1DD66
  8
4
 10
211.5880536912905
 20
142.82222329037251
 30
0.0
 42
-0.0744127175610667
  0
VERTEX
  5
1DD67
  8
4
 10
211.06355853410119
 20
143.51618928434209
 30
0.0
 42
-0.1536795722212451
  0
VERTEX
  5
1DD68
  8
4
 10
210.79982575833509
 20
144.86085630467619
 30
0.0
 42
-0.1847247553159499
  0
VERTEX
  5
1DD69
  8
4
 10
211.3333319940084
 20
145.8941112686941
 30
0.0
 42
0.1729818233278114
  0
VERTEX
  5
1DD6A
  8
4
 10
211.92560097813481
 20
146.97983085087509
 30
0.0
 42
0.1305645647028073
  0
VERTEX
  5
1DD6B
  8
4
 10
211.77018682237431
 20
148.4856372820862
 30
0.0
 42
0.0267269543158863
  0
VERTEX
  5
1DD6C
  8
4
 10
211.62150994377279
 20
148.82222329037251
 30
0.0
  0
SEQEND
  5
1DD6D
  8
4
  0
POLYLINE
  5
1DD6E
  8
4
 66
     1
 10
0.0
 20
0.0
 30
0.0
  0
VERTEX
  5
1DD6F
  8
4
 10
209.58805369132381
 20
142.82222329037251
 30
0.0
 42
-0.0744127175610667
  0
VERTEX
  5
1DD70
  8
4
 10
209.06355853413459
 20
143.51618928434209
 30
0.0
 42
-0.1536795722212451
  0
VERTEX
  5
1DD71
  8
4
 10
208.79982575836851
 20
144.86085630467619
 30
0.0
 42
-0.1847247553159499
  0
VERTEX
  5
1DD72
  8
4
 10
209.33333199404191
 20
145.8941112686941
 30
0.0
 42
0.1729818233278114
  0
VERTEX
  5
1DD73
  8
4
 10
209.92560097816829
 20
146.97983085087509
 30
0.0
 42
0.1305645647028073
  0
VERTEX
  5
1DD74
  8
4
 10
209.77018682240779
 20
148.4856372820862
 30
0.0
 42
0.0267269543158863
  0
VERTEX
  5
1DD75
  8
4
 10
209.62150994380619
 20
148.82222329037251
 30
0.0
  0
SEQEND
  5
1DD76
  8
4
  0
ARC
  5
1DD77
  8
0
 10
202.3333333333336
 20
145.8941112686941
 30
0.0
 40
2.2500000000000062
 50
12.839588406901189
 51
167.16041159309879
  0
ARC
  5
1DD78
  8
0
 10
196.33333333333351
 20
145.8941112686941
 30
0.0
 40
2.2500000000000062
 50
12.839588406901189
 51
167.16041159309879
  0
ARC
  5
1DD79
  8
0
 10
220.33333333333371
 20
145.8941112686941
 30
0.0
 40
2.249999999999984
 50
12.839588406907851
 51
167.16041159309211
  0
ARC
  5
1DD7A
  8
0
 10
226.33333333333371
 20
145.8941112686941
 30
0.0
 40
2.249999999999984
 50
12.839588406907851
 51
167.16041159309211
  0
LINE
  5
1DD7B
  8
2
 10
247.33333333333371
 20
148.39411126869419
 30
0.0
 11
242.3333333333336
 21
148.39411126869419
 31
0.0
  0
LINE
  5
1DD7C
  8
2
 10
247.33333333333371
 20
143.39411126869419
 30
0.0
 11
242.3333333333336
 21
143.39411126869419
 31
0.0
  0
LINE
  5
1DD7D
  8
2
 10
240.83333333333371
 20
149.89411126869419
 30
0.0
 11
242.3333333333336
 21
148.39411126869419
 31
0.0
  0
LINE
  5
1DD7E
  8
2
 10
247.33333333333371
 20
148.39411126869419
 30
0.0
 11
248.8333333333336
 21
149.89411126869419
 31
0.0
  0
LINE
  5
1DD7F
  8
2
 10
248.8333333333336
 20
141.89411126869419
 30
0.0
 11
247.33333333333371
 21
143.39411126869419
 31
0.0
  0
LINE
  5
1DD80
  8
2
 10
242.3333333333336
 20
143.39411126869419
 30
0.0
 11
240.83333333333371
 21
141.89411126869419
 31
0.0
  0
LINE
  5
1DD81
  8
2
 10
247.33333333333371
 20
146.54411126869411
 30
0.0
 11
247.33333333333371
 21
148.39411126869419
 31
0.0
  0
LINE
  5
1DD82
  8
2
 10
242.3333333333336
 20
148.39411126869419
 30
0.0
 11
242.3333333333336
 21
147.1358551989199
 31
0.0
  0
LINE
  5
1DD83
  8
2
 10
247.33333333333371
 20
143.39411126869419
 30
0.0
 11
247.33333333333371
 21
145.24411126869421
 31
0.0
  0
LINE
  5
1DD84
  8
2
 10
242.3333333333336
 20
144.65236733846839
 30
0.0
 11
242.3333333333336
 21
143.39411126869419
 31
0.0
  0
LINE
  5
1DD85
  8
1
 10
173.83333333333351
 20
152.39411126869419
 30
0.0
 11
173.83333333333351
 21
139.39411126869419
 31
0.0
  0
LINE
  5
1DD86
  8
1
 10
184.3333333333336
 20
150.70646185941629
 30
0.0
 11
184.3333333333336
 21
141.08176067797211
 31
0.0
  0
LINE
  5
1DD87
  8
1
 10
234.33333333333371
 20
149.64411126869419
 30
0.0
 11
234.33333333333371
 21
142.14411126869419
 31
0.0
  0
LINE
  5
1DD88
  8
1
 10
244.83333333333371
 20
151.39411126869419
 30
0.0
 11
244.83333333333371
 21
140.39411126869419
 31
0.0
  0
LINE
  5
1DD89
  8
0
 10
168.8333333333336
 20
64.400000000042454
 30
0.0
 11
168.8333333333336
 21
61.850000000042513
 31
0.0
  0
LINE
  5
1DD8A
  8
0
 10
168.8333333333336
 20
60.150000000042461
 30
0.0
 11
168.8333333333336
 21
57.600000000042513
 31
0.0
  0
LINE
  5
1DD8B
  8
0
 10
230.83333333333371
 20
60.50000395220124
 30
0.0
 11
230.83333333333371
 21
58.98155091100292
 31
0.0
  0
LINE
  5
1DD8C
  8
0
 10
230.83333333333371
 20
63.01844908899713
 30
0.0
 11
230.83333333333371
 21
61.499956262894749
 31
0.0
  0
ARC
  5
1DD8D
  8
0
 10
184.33333333333371
 20
61.00000000004249
 30
0.0
 40
2.2500000000000431
 50
65.375681647842455
 51
294.64854223596609
  0
ARC
  5
1DD8E
  8
0
 10
202.33333333333371
 20
61.00000000004249
 30
0.0
 40
2.2499999999999969
 50
192.83958840690451
 51
347.16041159309719
  0
ARC
  5
1DD8F
  8
0
 10
226.33333333333371
 20
61.000000000000078
 30
0.0
 40
2.249999999999984
 50
192.83958840690789
 51
347.16041159309549
  0
ARC
  5
1DD90
  8
0
 10
220.33333333333371
 20
61.000000000000078
 30
0.0
 40
2.249999999999984
 50
192.83958840690789
 51
347.16041159309549
  0
ARC
  5
1DD91
  8
0
 10
196.33333333333371
 20
61.00000000004249
 30
0.0
 40
2.25000000000004
 50
192.83958840690281
 51
347.16041159309719
  0
ARC
  5
1DD92
  8
0
 10
208.33333333333371
 20
61.00000000004249
 30
0.0
 40
2.250000000000012
 50
192.8395884069061
 51
286.16814915248051
  0
ARC
  5
1DD93
  8
0
 10
214.33333333333371
 20
61.000000000000078
 30
0.0
 40
2.249999999999984
 50
192.83958840690451
 51
347.16041159309549
  0
ARC
  5
1DD94
  8
0
 10
190.33333333333371
 20
61.00000000004249
 30
0.0
 40
2.2500000000000342
 50
192.83958840690281
 51
347.16041159309719
  0
LINE
  5
1DD95
  8
0
 10
222.5270744301817
 20
60.500000000000078
 30
0.0
 11
224.13959223648561
 21
60.500000000000078
 31
0.0
  0
LINE
  5
1DD96
  8
0
 10
224.13959223648561
 20
61.500000000000092
 30
0.0
 11
222.5270744301817
 21
61.500000000000092
 31
0.0
  0
LINE
  5
1DD97
  8
0
 10
187.80196029993061
 20
60.50000000004249
 30
0.0
 11
188.13959223648561
 21
60.50000000004249
 31
0.0
  0
LINE
  5
1DD98
  8
0
 10
188.13959223648561
 20
61.50000000004249
 30
0.0
 11
187.80196029993041
 21
61.50000000004249
 31
0.0
  0
LINE
  5
1DD99
  8
0
 10
210.9547489544843
 20
60.500000000000078
 30
0.0
 11
212.1395922364857
 21
60.500000000000078
 31
0.0
  0
LINE
  5
1DD9A
  8
0
 10
212.1395922364857
 20
61.500000000000092
 30
0.0
 11
211.72790711552511
 21
61.500000000000092
 31
0.0
  0
LINE
  5
1DD9B
  8
0
 10
216.5270744301817
 20
60.500000000000078
 30
0.0
 11
218.13959223648561
 21
60.500000000000078
 31
0.0
  0
LINE
  5
1DD9C
  8
0
 10
218.13959223648561
 20
61.500000000000092
 30
0.0
 11
216.5270744301817
 21
61.500000000000092
 31
0.0
  0
LINE
  5
1DD9D
  8
0
 10
198.5270744301817
 20
60.50000000004249
 30
0.0
 11
200.13959223648561
 21
60.50000000004249
 31
0.0
  0
LINE
  5
1DD9E
  8
0
 10
200.13959223648561
 20
61.50000000004249
 30
0.0
 11
198.5270744301817
 21
61.50000000004249
 31
0.0
  0
LINE
  5
1DD9F
  8
0
 10
192.5270744301817
 20
60.50000000004249
 30
0.0
 11
194.13959223648561
 21
60.50000000004249
 31
0.0
  0
LINE
  5
1DDA0
  8
0
 10
194.13959223648561
 20
61.50000000004249
 30
0.0
 11
192.5270744301817
 21
61.50000000004249
 31
0.0
  0
LINE
  5
1DDA1
  8
0
 10
228.5270744301817
 20
60.500000000000078
 30
0.0
 11
230.83333333333371
 21
60.500000000000078
 31
0.0
  0
LINE
  5
1DDA2
  8
0
 10
230.83333333333371
 20
61.500000000000092
 30
0.0
 11
228.5270744301817
 21
61.500000000000092
 31
0.0
  0
LINE
  5
1DDA3
  8
0
 10
204.5270744301817
 20
60.50000000004249
 30
0.0
 11
206.1395922364857
 21
60.50000000004249
 31
0.0
  0
LINE
  5
1DDA4
  8
0
 10
206.1395922364857
 20
61.50000000004249
 30
0.0
 11
204.5270744301817
 21
61.50000000004249
 31
0.0
  0
POLYLINE
  5
1DDA5
  8
0
 66
     1
 10
0.0
 20
0.0
 30
0.0
 70
   128
  0
VERTEX
  5
1E1F0
  8
0
 10
168.8333333333336
 20
64.400000000042454
 30
0.0
  0
VERTEX
  5
1E1F1
  8
0
 10
168.83335119053291
 20
64.404629074258963
 30
0.0
  0
VERTEX
  5
1E1F2
  8
0
 10
169.05740494488111
 20
64.86763003196458
 30
0.0
  0
VERTEX
  5
1E1F3
  8
0
 10
169.43333333333359
 20
65.00000000004249
 30
0.0
  0
SEQEND
  5
1E1F4
  8
0
  0
LINE
  5
1DDA6
  8
0
 10
174.33333333333371
 20
61.650000000042468
 30
0.0
 11
169.03333333035351
 21
61.650000000042468
 31
0.0
  0
POLYLINE
  5
1DDA7
  8
0
 66
     1
 10
0.0
 20
0.0
 30
0.0
 70
   128
  0
VERTEX
  5
1E1F5
  8
0
 10
169.03333333035351
 20
61.650000000042468
 30
0.0
  0
VERTEX
  5
1E1F6
  8
0
 10
168.9367179861606
 20
61.674884396240913
 30
0.0
  0
VERTEX
  5
1E1F7
  8
0
 10
168.83335256417391
 20
61.847226560481062
 30
0.0
  0
VERTEX
  5
1E1F8
  8
0
 10
168.8333333333336
 20
61.850000000042513
 30
0.0
  0
SEQEND
  5
1E1F9
  8
0
  0
LINE
  5
1DDA8
  8
0
 10
169.43333333333359
 20
65.00000000004249
 30
0.0
 11
183.83333333333371
 21
65.00000000004249
 31
0.0
  0
POLYLINE
  5
1DDA9
  8
0
 66
     1
 10
0.0
 20
0.0
 30
0.0
 70
   128
  0
VERTEX
  5
1E1FA
  8
0
 10
168.8333333333336
 20
60.150000000042461
 30
0.0
  0
VERTEX
  5
1E1FB
  8
0
 10
168.83335256417391
 20
60.152773439603912
 30
0.0
  0
VERTEX
  5
1E1FC
  8
0
 10
168.9367179882928
 20
60.325115605020379
 30
0.0
  0
VERTEX
  5
1E1FD
  8
0
 10
169.03333333333359
 20
60.350000000042513
 30
0.0
  0
SEQEND
  5
1E1FE
  8
0
  0
POLYLINE
  5
1DDAA
  8
0
 66
     1
 10
0.0
 20
0.0
 30
0.0
 70
   128
  0
VERTEX
  5
1E1FF
  8
0
 10
169.43333333333359
 20
57.00000000004237
 30
0.0
  0
VERTEX
  5
1E200
  8
0
 10
169.05740494488111
 20
57.13236996812028
 30
0.0
  0
VERTEX
  5
1E201
  8
0
 10
168.83335119053291
 20
57.59537092582601
 30
0.0
  0
VERTEX
  5
1E202
  8
0
 10
168.8333333333336
 20
57.600000000042513
 30
0.0
  0
SEQEND
  5
1E203
  8
0
  0
LINE
  5
1DDAB
  8
0
 10
169.03333333333359
 20
60.350000000042513
 30
0.0
 11
174.63333333333361
 21
60.350000000042513
 31
0.0
  0
LINE
  5
1DDAC
  8
0
 10
183.83333333333371
 20
57.00000000004237
 30
0.0
 11
169.43333333333359
 21
57.00000000004237
 31
0.0
  0
LINE
  5
1DDAD
  8
0
 10
174.83333333333371
 20
59.85000000004252
 30
0.0
 11
174.83333333333371
 21
60.150000000042461
 31
0.0
  0
ARC
  5
1DDAE
  8
0
 10
174.63333333333361
 20
60.150000000042461
 30
0.0
 40
0.1999999999999886
 50
0.0
 51
90.0
  0
ARC
  5
1DDAF
  8
0
 10
174.33333333333371
 20
62.150000000042468
 30
0.0
 40
0.5
 50
270.0
 51
0.0
  0
ARC
  5
1DDB0
  8
0
 10
181.04724613918179
 20
57.466203437337839
 30
0.0
 40
1.999999999999994
 50
51.747334162148412
 51
86.500000000000256
  0
ARC
  5
1DDB1
  8
0
 10
183.83333333333371
 20
61.00000000004249
 30
0.0
 40
2.499999999999996
 50
231.74733416215309
 51
128.25266583785151
  0
ARC
  5
1DDB2
  8
0
 10
181.04724613918179
 20
64.533796562747142
 30
0.0
 40
2.0000000000000169
 50
273.49999999999972
 51
308.25266583785162
  0
ARC
  5
1DDB3
  8
0
 10
183.83333333333371
 20
61.00000000004249
 30
0.0
 40
4.0
 50
0.0
 51
90.0
  0
ARC
  5
1DDB4
  8
0
 10
183.83333333333371
 20
61.00000000004249
 30
0.0
 40
4.0000000000000284
 50
270.0
 51
0.0
  0
LINE
  5
1DDB5
  8
0
 10
174.83333333333371
 20
59.85000000004252
 30
0.0
 11
181.16934321825161
 21
59.462473034181549
 31
0.0
  0
LINE
  5
1DDB6
  8
0
 10
181.16934321825161
 20
62.537526965903432
 30
0.0
 11
174.83333333333371
 21
62.150000000042468
 31
0.0
  0
POLYLINE
  5
1DDB7
  8
0
 66
     1
 10
0.0
 20
0.0
 30
0.0
 70
   128
  0
VERTEX
  5
1E204
  8
0
 10
230.83333333333371
 20
58.98155091100292
 30
0.0
  0
VERTEX
  5
1E205
  8
0
 10
230.83335072470319
 20
58.976982613136528
 30
0.0
  0
VERTEX
  5
1E206
  8
0
 10
230.96212147706979
 20
58.610122066517157
 30
0.0
  0
VERTEX
  5
1E207
  8
0
 10
231.30346956497081
 20
58.395773306731002
 30
0.0
  0
SEQEND
  5
1E208
  8
0
  0
POLYLINE
  5
1DDB8
  8
0
 66
     1
 10
0.0
 20
0.0
 30
0.0
 70
   128
  0
VERTEX
  5
1E209
  8
0
 10
231.30346956497081
 20
63.604226693269048
 30
0.0
  0
VERTEX
  5
1E20A
  8
0
 10
230.96212147706979
 20
63.389877933483007
 30
0.0
  0
VERTEX
  5
1E20B
  8
0
 10
230.83335072470319
 20
63.023017386865341
 30
0.0
  0
VERTEX
  5
1E20C
  8
0
 10
230.83333333333371
 20
63.01844908899713
 30
0.0
  0
SEQEND
  5
1E20D
  8
0
  0
ARC
  5
1DDB9
  8
0
 10
226.8338653028342
 20
60.998020936235633
 30
0.0
 40
4.0308415497430179
 50
0.0281310997347572
 51
7.1532512242516351
  0
ARC
  5
1DDBA
  8
0
 10
226.83428294483929
 20
61.001912917368337
 30
0.0
 40
4.0304238758512341
 50
352.8463812965631
 51
359.97280631039308
  0
ARC
  5
1DDBB
  8
0
 10
242.98624708595469
 20
58.000000000000647
 30
0.0
 40
7.9999999999994031
 50
90.0
 51
102.4999999999977
  0
LINE
  5
1DDBC
  8
0
 10
231.3034695649705
 20
63.604226693269048
 30
0.0
 11
241.2547301744502
 21
65.810368056959504
 31
0.0
  0
CIRCLE
  5
1DDBD
  8
0
 10
244.83333333333371
 20
61.000000000000078
 30
0.0
 40
4.0
  0
LINE
  5
1DDBE
  8
0
 10
241.2547301744502
 20
56.189631943040553
 30
0.0
 11
231.30346956497081
 21
58.395773306731002
 31
0.0
  0
LINE
  5
1DDBF
  8
0
 10
242.98624708595469
 20
55.999999999999972
 30
0.0
 11
244.83333333333371
 21
55.999999999999972
 31
0.0
  0
LINE
  5
1DDC0
  8
0
 10
194.13959223648561
 20
61.50000000004249
 30
0.0
 11
194.13959223648561
 21
60.50000000004249
 31
0.0
  0
ARC
  5
1DDC1
  8
0
 10
242.98624708595469
 20
63.999999999998153
 30
0.0
 40
7.9999999999981242
 50
257.49999999999909
 51
270.0
  0
LINE
  5
1DDC2
  8
0
 10
242.98624708595469
 20
66.000000000000085
 30
0.0
 11
244.83333333333371
 21
66.000000000000085
 31
0.0
  0
LINE
  5
1DDC3
  8
0
 10
206.1395922364857
 20
61.50000000004249
 30
0.0
 11
206.1395922364857
 21
60.50000000004249
 31
0.0
  0
ARC
  5
1DDC4
  8
0
 10
244.83333333333371
 20
61.000000000000078
 30
0.0
 40
5.0000000000000284
 50
270.0
 51
0.0000000004852763
  0
ARC
  5
1DDC5
  8
0
 10
244.83333333333371
 20
61.000000000000078
 30
0.0
 40
5.0
 50
0.0000000004852763
 51
90.0
  0
CIRCLE
  5
1DDC6
  8
0
 10
244.83333333333371
 20
61.000000000000078
 30
0.0
 40
2.5
  0
LINE
  5
1DDC7
  8
0
 10
204.5270744301817
 20
60.50000000004249
 30
0.0
 11
204.5270744301817
 21
61.50000000004249
 31
0.0
  0
LINE
  5
1DDC8
  8
0
 10
200.13959223648561
 20
61.50000000004249
 30
0.0
 11
200.13959223648561
 21
60.50000000004249
 31
0.0
  0
LINE
  5
1DDC9
  8
0
 10
228.5270744301817
 20
60.500000000000078
 30
0.0
 11
228.5270744301817
 21
61.500000000000092
 31
0.0
  0
POLYLINE
  5
1DDCA
  8
4
 66
     1
 10
0.0
 20
0.0
 30
0.0
  0
VERTEX
  5
1DDCB
  8
4
 10
209.58805369132389
 20
57.928112021635997
 30
0.0
 42
-0.0744127175610667
  0
VERTEX
  5
1DDCC
  8
4
 10
209.0635585341347
 20
58.622078015605638
 30
0.0
 42
-0.1536795722212451
  0
VERTEX
  5
1DDCD
  8
4
 10
208.79982575836851
 20
59.966745035939738
 30
0.0
 42
-0.1847247553159499
  0
VERTEX
  5
1DDCE
  8
4
 10
209.333331994042
 20
60.99999999995768
 30
0.0
 42
0.1729818233278114
  0
VERTEX
  5
1DDCF
  8
4
 10
209.9256009781684
 20
62.08571958213858
 30
0.0
 42
0.1305645647028073
  0
VERTEX
  5
1DDD0
  8
4
 10
209.77018682240779
 20
63.591526013349693
 30
0.0
 42
0.0267269543158863
  0
VERTEX
  5
1DDD1
  8
4
 10
209.6215099438063
 20
63.928112021635989
 30
0.0
  0
SEQEND
  5
1DDD2
  8
4
  0
LINE
  5
1DDD3
  8
0
 10
224.13959223648561
 20
61.500000000000092
 30
0.0
 11
224.13959223648561
 21
60.500000000000078
 31
0.0
  0
ARC
  5
1DDD4
  8
0
 10
196.33333333333371
 20
61.00000000004249
 30
0.0
 40
2.25000000000004
 50
12.839588406901189
 51
167.16041159309879
  0
ARC
  5
1DDD5
  8
0
 10
190.33333333333371
 20
61.00000000004249
 30
0.0
 40
2.2500000000000342
 50
12.839588406901189
 51
167.16041159309879
  0
LINE
  5
1DDD6
  8
0
 10
222.5270744301817
 20
60.500000000000078
 30
0.0
 11
222.5270744301817
 21
61.500000000000092
 31
0.0
  0
LINE
  5
1DDD7
  8
0
 10
218.13959223648561
 20
61.500000000000092
 30
0.0
 11
218.13959223648561
 21
60.500000000000078
 31
0.0
  0
ARC
  5
1DDD8
  8
0
 10
202.33333333333371
 20
61.00000000004249
 30
0.0
 40
2.25000000000004
 50
12.839588406901189
 51
167.16041159309879
  0
LINE
  5
1DDD9
  8
0
 10
198.5270744301817
 20
60.50000000004249
 30
0.0
 11
198.5270744301817
 21
61.50000000004249
 31
0.0
  0
ARC
  5
1DDDA
  8
0
 10
226.33333333333371
 20
61.000000000000078
 30
0.0
 40
2.249999999999984
 50
12.839588406907851
 51
167.16041159309211
  0
ARC
  5
1DDDB
  8
0
 10
220.33333333333371
 20
61.000000000000078
 30
0.0
 40
2.249999999999984
 50
12.839588406907851
 51
167.16041159309211
  0
LINE
  5
1DDDC
  8
0
 10
216.5270744301817
 20
60.500000000000078
 30
0.0
 11
216.5270744301817
 21
61.500000000000092
 31
0.0
  0
LINE
  5
1DDDD
  8
0
 10
212.1395922364857
 20
61.500000000000092
 30
0.0
 11
212.1395922364857
 21
60.500000000000078
 31
0.0
  0
LINE
  5
1DDDE
  8
0
 10
192.5270744301817
 20
60.50000000004249
 30
0.0
 11
192.5270744301817
 21
61.50000000004249
 31
0.0
  0
LINE
  5
1DDDF
  8
0
 10
188.13959223648561
 20
61.50000000004249
 30
0.0
 11
188.13959223648561
 21
60.50000000004249
 31
0.0
  0
POLYLINE
  5
1DDE0
  8
4
 66
     1
 10
0.0
 20
0.0
 30
0.0
  0
VERTEX
  5
1DDE1
  8
4
 10
211.5880536912905
 20
57.928112021635997
 30
0.0
 42
-0.0744127175610667
  0
VERTEX
  5
1DDE2
  8
4
 10
211.06355853410119
 20
58.622078015605638
 30
0.0
 42
-0.1536795722212451
  0
VERTEX
  5
1DDE3
  8
4
 10
210.79982575833509
 20
59.966745035939738
 30
0.0
 42
-0.1847247553159499
  0
VERTEX
  5
1DDE4
  8
4
 10
211.3333319940086
 20
60.99999999995768
 30
0.0
 42
0.1729818233278114
  0
VERTEX
  5
1DDE5
  8
4
 10
211.9256009781349
 20
62.08571958213858
 30
0.0
 42
0.1305645647028073
  0
VERTEX
  5
1DDE6
  8
4
 10
211.7701868223744
 20
63.591526013349693
 30
0.0
 42
0.0267269543158863
  0
VERTEX
  5
1DDE7
  8
4
 10
211.62150994377291
 20
63.928112021635989
 30
0.0
  0
SEQEND
  5
1DDE8
  8
4
  0
LINE
  5
1DDE9
  8
2
 10
171.3333333333336
 20
63.500000000042263
 30
0.0
 11
171.3333333333336
 21
61.650000000042468
 31
0.0
  0
LINE
  5
1DDEA
  8
2
 10
176.33333333333371
 20
62.241743930268143
 30
0.0
 11
176.33333333333371
 21
63.50000000004249
 31
0.0
  0
LINE
  5
1DDEB
  8
2
 10
171.3333333333336
 20
60.350000000042513
 30
0.0
 11
171.3333333333336
 21
58.500000000042611
 31
0.0
  0
LINE
  5
1DDEC
  8
2
 10
176.33333333333371
 20
58.50000000004249
 30
0.0
 11
176.33333333333371
 21
59.758256069816717
 31
0.0
  0
ARC
  5
1DDED
  8
0
 10
208.33333333333371
 20
61.00000000004249
 30
0.0
 40
2.25000000000004
 50
43.635208626997638
 51
167.16041159309879
  0
LINE
  5
1DDEE
  8
2
 10
171.3333333333334
 20
63.50000000004249
 30
0.0
 11
169.8333333333334
 21
65.00000000004249
 31
0.0
  0
LINE
  5
1DDEF
  8
1
 10
173.83333333333371
 20
66.50000000004249
 30
0.0
 11
173.83333333333371
 21
55.500000000042377
 31
0.0
  0
ARC
  5
1DDF0
  8
0
 10
214.33333333333371
 20
61.000000000000078
 30
0.0
 40
2.249999999999984
 50
12.839588406907851
 51
167.16041159309879
  0
LINE
  5
1DDF1
  8
2
 10
171.33333333333221
 20
58.50000000004124
 30
0.0
 11
176.33333333333371
 21
58.500000000043627
 31
0.0
  0
LINE
  5
1DDF2
  8
2
 10
171.33333333333459
 20
63.50000000004124
 30
0.0
 11
176.33333333333249
 21
63.500000000043627
 31
0.0
  0
LINE
  5
1DDF3
  8
2
 10
177.83333333333371
 20
57.00000000004237
 30
0.0
 11
176.33333333333371
 21
58.50000000004249
 31
0.0
  0
LINE
  5
1DDF4
  8
2
 10
176.33333333333371
 20
63.50000000004249
 30
0.0
 11
177.83333333333371
 21
65.00000000004249
 31
0.0
  0
LINE
  5
1DDF5
  8
2
 10
169.8333333333334
 20
57.00000000004237
 30
0.0
 11
171.3333333333334
 21
58.50000000004249
 31
0.0
  0
LINE
  5
1DDF6
  8
1
 10
244.83333333333371
 20
66.500000000000085
 30
0.0
 11
244.83333333333371
 21
55.499999999999972
 31
0.0
  0
LINE
  5
1DDF7
  8
1
 10
184.33333333333371
 20
64.75000000004249
 30
0.0
 11
184.33333333333371
 21
57.250000000042377
 31
0.0
  0
LINE
  5
1DDF8
  8
1
 10
234.33333333333371
 20
65.812350590722048
 30
0.0
 11
234.33333333333371
 21
56.187649409277888
 31
0.0
  0
LINE
  5
1DDFC
  8
1
 10
252.8333333333336
 20
61.000000000000028
 30
0.0
 11
132.0000000000002
 21
61.000000000000028
 31
0.0
  0
ARC
  5
1DF3D
  8
2
 10
158.0010324068686
 20
145.89411126869399
 30
0.0
 40
1.9075709697213421
 50
282.88257391891472
 51
77.117426081086222
  0
ENDSEC
  0
EOF
