  0
SECTION
  2
HEADER
  9
$ACADVER
  1
AC1009
  9
$INSBASE
 10
0.0
 20
0.0
 30
0.0
  9
$EXTMIN
 10
0.0
 20
-2.9604365620736979
 30
0.0
  9
$EXTMAX
 10
252.8333333333336
 20
174.47744460202739
 30
0.0
  9
$LIMMIN
 10
0.0
 20
0.0
  9
$LIMMAX
 10
385.0
 20
270.0
  9
$ORTHOMODE
 70
     1
  9
$REGENMODE
 70
     1
  9
$FILLMODE
 70
     1
  9
$QTEXTMODE
 70
     0
  9
$MIRRTEXT
 70
     0
  9
$DRAGMODE
 70
     2
  9
$LTSCALE
 40
5.0
  9
$OSMODE
 70
    37
  9
$ATTMODE
 70
     1
  9
$TEXTSIZE
 40
4.0
  9
$TRACEWID
 40
0.05
  9
$TEXTSTYLE
  7
STANDARD
  9
$CLAYER
  8
0
  9
$CELTYPE
  6
BYLAYER
  9
$CECOLOR
 62
   256
  9
$DIMSCALE
 40
1.0
  9
$DIMASZ
 40
3.0
  9
$DIMEXO
 40
1.0
  9
$DIMDLI
 40
6.0
  9
$DIMRND
 40
0.0
  9
$DIMDLE
 40
0.0
  9
$DIMEXE
 40
1.0
  9
$DIMTP
 40
495.0
  9
$DIMTM
 40
0.0
  9
$DIMTXT
 40
3.0
  9
$DIMCEN
 40
0.0
  9
$DIMTSZ
 40
0.0
  9
$DIMTOL
 70
     0
  9
$DIMLIM
 70
     0
  9
$DIMTIH
 70
     0
  9
$DIMTOH
 70
     0
  9
$DIMSE1
 70
     0
  9
$DIMSE2
 70
     0
  9
$DIMTAD
 70
     1
  9
$DIMZIN
 70
     8
  9
$DIMBLK
  1

  9
$DIMASO
 70
     1
  9
$DIMSHO
 70
     0
  9
$DIMPOST
  1

  9
$DIMAPOST
  1

  9
$DIMALT
 70
     0
  9
$DIMALTD
 70
     2
  9
$DIMALTF
 40
25.399999999999999
  9
$DIMLFAC
 40
1.0
  9
$DIMTOFL
 70
     1
  9
$DIMTVP
 40
0.0
  9
$DIMTIX
 70
     0
  9
$DIMSOXD
 70
     0
  9
$DIMSAH
 70
     0
  9
$DIMBLK1
  1

  9
$DIMBLK2
  1

  9
$DIMSTYLE
  2
STANDARD
  9
$DIMCLRD
 70
     0
  9
$DIMCLRE
 70
     0
  9
$DIMCLRT
 70
     0
  9
$DIMTFAC
 40
1.0
  9
$DIMGAP
 40
1.0
  9
$LUNITS
 70
     2
  9
$LUPREC
 70
     1
  9
$SKETCHINC
 40
0.1
  9
$FILLETRAD
 40
2.0
  9
$AUNITS
 70
     0
  9
$AUPREC
 70
     1
  9
$MENU
  1
E:\r13\win\SUPPORT\ACAD
  9
$ELEVATION
 40
0.0
  9
$PELEVATION
 40
0.0
  9
$THICKNESS
 40
0.0
  9
$LIMCHECK
 70
     0
  9
$BLIPMODE
 70
     0
  9
$CHAMFERA
 40
0.0
  9
$CHAMFERB
 40
0.0
  9
$SKPOLY
 70
     0
  9
$TDCREATE
 40
2450541.3939600689
  9
$TDUPDATE
 40
2459429.574201053
  9
$TDINDWG
 40
1.9386377082999999
  9
$TDUSRTIMER
 40
1.9386377082999999
  9
$USRTIMER
 70
     1
  9
$ANGBASE
 50
0.0
  9
$ANGDIR
 70
     0
  9
$PDMODE
 70
     0
  9
$PDSIZE
 40
0.0
  9
$PLINEWID
 40
0.0
  9
$COORDS
 70
     1
  9
$SPLFRAME
 70
     0
  9
$SPLINETYPE
 70
     6
  9
$SPLINESEGS
 70
     8
  9
$ATTDIA
 70
     0
  9
$ATTREQ
 70
     1
  9
$HANDLING
 70
     1
  9
$HANDSEED
  5
1E7F1
  9
$SURFTAB1
 70
     6
  9
$SURFTAB2
 70
     6
  9
$SURFTYPE
 70
     6
  9
$SURFU
 70
     6
  9
$SURFV
 70
     6
  9
$UCSNAME
  2

  9
$UCSORG
 10
0.0
 20
0.0
 30
0.0
  9
$UCSXDIR
 10
1.0
 20
0.0
 30
0.0
  9
$UCSYDIR
 10
0.0
 20
1.0
 30
0.0
  9
$PUCSNAME
  2

  9
$PUCSORG
 10
0.0
 20
0.0
 30
0.0
  9
$PUCSXDIR
 10
1.0
 20
0.0
 30
0.0
  9
$PUCSYDIR
 10
0.0
 20
1.0
 30
0.0
  9
$USERI1
 70
     3
  9
$USERI2
 70
     1
  9
$USERI3
 70
     1
  9
$USERI4
 70
     0
  9
$USERI5
 70
     0
  9
$USERR1
 40
1.0
  9
$USERR2
 40
3.0
  9
$USERR3
 40
3.0
  9
$USERR4
 40
3.0
  9
$USERR5
 40
10.0
  9
$WORLDVIEW
 70
     1
  9
$SHADEDGE
 70
     3
  9
$SHADEDIF
 70
    70
  9
$TILEMODE
 70
     1
  9
$MAXACTVP
 70
    16
  9
$PLIMCHECK
 70
     0
  9
$PEXTMIN
 10
1.0000000000000000E+020
 20
1.0000000000000000E+020
 30
1.0000000000000000E+020
  9
$PEXTMAX
 10
-1.0000000000000000E+020
 20
-1.0000000000000000E+020
 30
-1.0000000000000000E+020
  9
$PLIMMIN
 10
0.0
 20
0.0
  9
$PLIMMAX
 10
12.0
 20
9.0
  9
$UNITMODE
 70
     0
  9
$VISRETAIN
 70
     0
  9
$PLINEGEN
 70
     0
  9
$PSLTSCALE
 70
     0
  0
ENDSEC
  0
SECTION
  2
TABLES
  0
TABLE
  2
VPORT
 70
     1
  0
VPORT
  2
*ACTIVE
 70
     0
 10
0.0
 20
0.0
 11
1.0
 21
1.0
 12
214.85399885683
 22
85.766108945374924
 13
0.0
 23
0.0
 14
5.0
 24
5.0
 15
10.0
 25
10.0
 16
0.0
 26
0.0
 36
1.0
 17
0.0
 27
0.0
 37
0.0
 40
181.1709132836736
 41
2.3805970149253728
 42
50.0
 43
0.0
 44
0.0
 50
0.0
 51
0.0
 71
     0
 72
   100
 73
     1
 74
     0
 75
     0
 76
     0
 77
     0
 78
     0
  0
ENDTAB
  0
TABLE
  2
LTYPE
 70
     4
  0
LTYPE
  2
CONTINUOUS
 70
     0
  3
Solid Line
 72
    65
 73
     0
 40
0.0
  0
LTYPE
  2
CENTER
 70
     0
  3
____ _ ____ _ ____ _ ____ _ ____ _ ____ _ ____
 72
    65
 73
     4
 40
2.0
 49
1.25
 49
-0.25
 49
0.25
 49
-0.25
  0
LTYPE
  2
HIDDEN
 70
     0
  3
_ _ _ _ _ _ _ _ _ _ _ _ _ _ _ _ _ _ _ _ _ _ _
 72
    65
 73
     2
 40
0.375
 49
0.25
 49
-0.125
  0
LTYPE
  2
PHANTOM2
 70
     0
  3
___ _ _ ___ _ _ ___ _ _ ___ _ _
 72
    65
 73
     6
 40
1.25
 49
0.625
 49
-0.125
 49
0.125
 49
-0.125
 49
0.125
 49
-0.125
  0
ENDTAB
  0
TABLE
  2
LAYER
 70
     6
  0
LAYER
  2
0
 70
     0
 62
     7
  6
CONTINUOUS
  0
LAYER
  2
1
 70
     0
 62
     1
  6
CENTER
  0
LAYER
  2
2
 70
     0
 62
     2
  6
HIDDEN
  0
LAYER
  2
DEFPOINTS
 70
     0
 62
     7
  6
CONTINUOUS
  0
LAYER
  2
4
 70
     0
 62
     4
  6
CONTINUOUS
  0
LAYER
  2
3
 70
     0
 62
     3
  6
CONTINUOUS
  0
ENDTAB
  0
TABLE
  2
STYLE
 70
     2
  0
STYLE
  2
STANDARD
 70
     0
 40
0.0
 41
1.0
 50
0.0
 71
     0
 42
4.0
  3
SIMPLEX
  4
BIGFONT
  0
STYLE
  2
STANDARD1
 70
     0
 40
0.0
 41
1.0
 50
0.0
 71
     0
 42
3.0
  3
txt
  4

  0
ENDTAB
  0
TABLE
  2
VIEW
 70
     0
  0
ENDTAB
  0
TABLE
  2
UCS
 70
     0
  0
ENDTAB
  0
TABLE
  2
APPID
 70
    43
  0
APPID
  2
ACAD
 70
     0
  0
APPID
  2
ASM_BASE
 70
     0
  0
APPID
  2
ASM_EXPLO_VER_2_00
 70
     0
  0
APPID
  2
ASM_CADM_VER_12_00
 70
     0
  0
APPID
  2
ASM_BASEFORO
 70
     0
  0
APPID
  2
ASM_BASETRAVI
 70
     0
  0
APPID
  2
ASM_BASETRAVI1
 70
     0
  0
APPID
  2
ASM_GRUPPI
 70
     0
  0
APPID
  2
ASM_CADM_ALBERO
 70
     0
  0
APPID
  2
ASM_GOLE
 70
     0
  0
APPID
  2
ACAD_EXEMPT_FROM_CAD_STANDARDS
 70
     0
  0
APPID
  2
ACAD_DSTYLE_DIMJAG
 70
     0
  0
APPID
  2
ACAD_DSTYLE_DIMTALN
 70
     0
  0
APPID
  2
ACAD_MLEADERVER
 70
     0
  0
APPID
  2
ACAD_NAV_VCDISPLAY
 70
     0
  0
APPID
  2
ACAD_DSTYLE_DIMRADIAL_EXTENSION
 70
     0
  0
APPID
  2
DCO15
 70
     0
  0
APPID
  2
ACADANNOTATIVE
 70
     0
  0
APPID
  2
GENIUS_GENODEF_13
 70
     0
  0
APPID
  2
GENIUS_GENFIL_13
 70
     0
  0
APPID
  2
GENIUS_GENOBJ-N-CHA_13
 70
     0
  0
APPID
  2
GENIUS_GENOREF_13
 70
     0
  0
APPID
  2
GENIUS_GENOENT_13
 70
     0
  0
APPID
  2
GENIUS_GENBH_13
 70
     0
  0
APPID
  2
GENIUS_GENOBJ_13
 70
     0
  0
APPID
  2
GENIUS_GENOLIS_13
 70
     0
  0
APPID
  2
GENIUS_GENOBJ-NBEHI-BHF_13
 70
     0
  0
APPID
  2
GENIUS_GENOBJ-NBEHI-BHB_13
 70
     0
  0
APPID
  2
GENIUS_GENOBJ-F-PART_13
 70
     0
  0
APPID
  2
GENIUS_GEFSTDP_13
 70
     0
  0
APPID
  2
GENIUS_GENOBJ-N-RSSYM_13
 70
     0
  0
APPID
  2
GENIUS_GENSYMENT_13
 70
     0
  0
APPID
  2
GENIUS_GENOBJ-N-TIT_13
 70
     0
  0
APPID
  2
GENIUS_GENTITLE_13
 70
     0
  0
APPID
  2
GENIUS_GENZVEED_13
 70
     0
  0
APPID
  2
GENIUS_GENOBJ-N-LEADER_13
 70
     0
  0
APPID
  2
GENIUS_GENOBJ-N-FIL_13
 70
     0
  0
APPID
  2
GENIUS_GENOBJ-N-SEC_13
 70
     0
  0
APPID
  2
GENIUS_GENOBJ-N-CRS_13
 70
     0
  0
APPID
  2
GENIUS_GENOBJ-N-ZOO_13
 70
     0
  0
APPID
  2
GENIUS_GENZOO_13
 70
     0
  0
APPID
  2
GENIUS_GENOBJ-F-TOL_13
 70
     0
  0
APPID
  2
_CALL_MAC$
 70
     0
  0
ENDTAB
  0
TABLE
  2
DIMSTYLE
 70
     1
  0
DIMSTYLE
  2
STANDARD
 70
     0
  3

  4

  5

  6

  7

 40
1.0
 41
0.18
 42
0.0625
 43
0.38
 44
0.18
 45
0.0
 46
0.0
 47
0.0
 48
0.0
140
0.18
141
0.09
142
0.0
143
25.399999999999999
144
1.0
145
0.0
146
1.0
147
0.09
 71
     0
 72
     0
 73
     1
 74
     1
 75
     0
 76
     0
 77
     0
 78
     0
170
     0
171
     2
172
     0
173
     0
174
     0
175
     0
176
     0
177
     0
178
     0
  0
ENDTAB
  0
ENDSEC
  0
SECTION
  2
BLOCKS
  0
BLOCK
  8
0
  2
$MODEL_SPACE
 70
     0
 10
0.0
 20
0.0
 30
0.0
  3
$MODEL_SPACE
  1

  0
ENDBLK
  5
1CD3
  8
0
  0
BLOCK
 67
     1
  8
0
  2
$PAPER_SPACE
 70
     0
 10
0.0
 20
0.0
 30
0.0
  3
$PAPER_SPACE
  1

  0
ENDBLK
  5
1CD1
 67
     1
  8
0
  0
ENDSEC
  0
SECTION
  2
ENTITIES
  0
TEXT
  5
12011
  8
0
 62
     3
 10
0.0
 20
-0.0000000000000284
 30
0.0
 40
10.0
  1
EWN48AX25-LP
  7
STANDARD1
  0
LINE
  5
1D3EC
  8
1
 10
166.3333333333313
 20
70.333333333333314
 30
0.0
 11
166.3333333333313
 21
89.333333333333314
 31
0.0
  0
ARC
  5
1D3EE
  8
0
 10
166.33333333333371
 20
79.833333333333314
 30
0.0
 40
7.9999999999999387
 50
355.33958061588447
 51
4.660419384115448
  0
ARC
  5
1D3EF
  8
0
 10
166.3333333333336
 20
79.833333333333314
 30
0.0
 40
8.0
 50
183.28436910836561
 51
329.99999999999989
  0
ARC
  5
1D3F0
  8
0
 10
166.3333333333336
 20
79.833333333333314
 30
0.0
 40
7.9999999999999991
 50
30.000000000000121
 51
176.71563089163419
  0
ARC
  5
1D3F1
  8
0
 10
166.3333333333336
 20
79.833333333333314
 30
0.0
 40
7.0
 50
183.75419509310899
 51
325.15009542095282
  0
ARC
  5
1D3F2
  8
0
 10
166.33333333333431
 20
79.833333333333314
 30
0.0
 40
6.9999999999992681
 50
354.67200209599798
 51
5.3279979040019549
  0
ARC
  5
1D3F3
  8
0
 10
166.3333333333336
 20
79.833333333333314
 30
0.0
 40
6.9999999999999973
 50
34.849904579047092
 51
176.24580490689081
  0
LINE
  5
1D42C
  8
1
 10
140.25000000000031
 20
50.0
 30
0.0
 11
140.25000000000031
 21
104.9774446020274
 31
0.0
  0
ARC
  5
1D438
  8
0
 10
160.36706341702879
 20
79.833333333333314
 30
0.0
 40
0.4583333333333333
 50
270.0
 51
90.0
  0
POLYLINE
  5
1D439
  8
0
 10
124.2366439675891
 20
90.116251501201219
 30
0.0
 66
     1
 70
     8
  0
VERTEX
  8
0
  5
1E5E9
 10
124.237
 20
90.1163
 30
0.000000
  70
    32
  0
VERTEX
  8
0
  5
1E5EA
 10
124.466
 20
90.1219
 30
0.000000
  70
    32
  0
VERTEX
  8
0
  5
1E5EB
 10
124.695
 20
90.1388
 30
0.000000
  70
    32
  0
VERTEX
  8
0
  5
1E5EC
 10
124.922
 20
90.1669
 30
0.000000
  70
    32
  0
VERTEX
  8
0
  5
1E5ED
 10
125.148
 20
90.2062
 30
0.000000
  70
    32
  0
VERTEX
  8
0
  5
1E5EE
 10
125.372
 20
90.2566
 30
0.000000
  70
    32
  0
VERTEX
  8
0
  5
1E5EF
 10
125.593
 20
90.3179
 30
0.000000
  70
    32
  0
VERTEX
  8
0
  5
1E5F0
 10
125.811
 20
90.3900
 30
0.000000
  70
    32
  0
VERTEX
  8
0
  5
1E5F1
 10
126.025
 20
90.4728
 30
0.000000
  70
    32
  0
VERTEX
  8
0
  5
1E5F2
 10
126.235
 20
90.5659
 30
0.000000
  70
    32
  0
VERTEX
  8
0
  5
1E5F3
 10
126.440
 20
90.6693
 30
0.000000
  70
    32
  0
VERTEX
  8
0
  5
1E5F4
 10
126.639
 20
90.7826
 30
0.000000
  70
    32
  0
VERTEX
  8
0
  5
1E5F5
 10
126.833
 20
90.9056
 30
0.000000
  70
    32
  0
VERTEX
  8
0
  5
1E5F6
 10
127.021
 20
91.0380
 30
0.000000
  70
    32
  0
VERTEX
  8
0
  5
1E5F7
 10
127.201
 20
91.1794
 30
0.000000
  70
    32
  0
VERTEX
  8
0
  5
1E5F8
 10
127.375
 20
91.3296
 30
0.000000
  70
    32
  0
VERTEX
  8
0
  5
1E5F9
 10
127.541
 20
91.4881
 30
0.000000
  70
    32
  0
VERTEX
  8
0
  5
1E5FA
 10
127.699
 20
91.6546
 30
0.000000
  70
    32
  0
VERTEX
  8
0
  5
1E5FB
 10
127.849
 20
91.8287
 30
0.000000
  70
    32
  0
VERTEX
  8
0
  5
1E5FC
 10
127.990
 20
92.0099
 30
0.000000
  70
    32
  0
VERTEX
  8
0
  5
1E5FD
 10
128.122
 20
92.1978
 30
0.000000
  70
    32
  0
VERTEX
  8
0
  5
1E5FE
 10
128.245
 20
92.3921
 30
0.000000
  70
    32
  0
VERTEX
  8
0
  5
1E5FF
 10
128.358
 20
92.5921
 30
0.000000
  70
    32
  0
VERTEX
  8
0
  5
1E600
 10
128.461
 20
92.7974
 30
0.000000
  70
    32
  0
VERTEX
  8
0
  5
1E601
 10
128.554
 20
93.0076
 30
0.000000
  70
    32
  0
VERTEX
  8
0
  5
1E602
 10
128.637
 20
93.2221
 30
0.000000
  70
    32
  0
VERTEX
  8
0
  5
1E603
 10
128.709
 20
93.4404
 30
0.000000
  70
    32
  0
VERTEX
  8
0
  5
1E604
 10
128.770
 20
93.6619
 30
0.000000
  70
    32
  0
VERTEX
  8
0
  5
1E605
 10
128.820
 20
93.8862
 30
0.000000
  70
    32
  0
VERTEX
  8
0
  5
1E606
 10
128.859
 20
94.1128
 30
0.000000
  70
    32
  0
VERTEX
  8
0
  5
1E607
 10
128.887
 20
94.3409
 30
0.000000
  70
    32
  0
VERTEX
  8
0
  5
1E608
 10
128.904
 20
94.5702
 30
0.000000
  70
    32
  0
VERTEX
  8
0
  5
1E609
 10
128.910
 20
94.8000
 30
0.000000
  70
    32
  0
VERTEX
  8
0
  5
1E60A
 10
128.904
 20
95.0298
 30
0.000000
  70
    32
  0
VERTEX
  8
0
  5
1E60B
 10
128.887
 20
95.2591
 30
0.000000
  70
    32
  0
VERTEX
  8
0
  5
1E60C
 10
128.859
 20
95.4872
 30
0.000000
  70
    32
  0
VERTEX
  8
0
  5
1E60D
 10
128.820
 20
95.7138
 30
0.000000
  70
    32
  0
VERTEX
  8
0
  5
1E60E
 10
128.770
 20
95.9381
 30
0.000000
  70
    32
  0
VERTEX
  8
0
  5
1E60F
 10
128.709
 20
96.1596
 30
0.000000
  70
    32
  0
VERTEX
  8
0
  5
1E610
 10
128.637
 20
96.3779
 30
0.000000
  70
    32
  0
VERTEX
  8
0
  5
1E611
 10
128.554
 20
96.5924
 30
0.000000
  70
    32
  0
VERTEX
  8
0
  5
1E612
 10
128.461
 20
96.8026
 30
0.000000
  70
    32
  0
VERTEX
  8
0
  5
1E613
 10
128.358
 20
97.0079
 30
0.000000
  70
    32
  0
VERTEX
  8
0
  5
1E614
 10
128.245
 20
97.2079
 30
0.000000
  70
    32
  0
VERTEX
  8
0
  5
1E615
 10
128.122
 20
97.4022
 30
0.000000
  70
    32
  0
VERTEX
  8
0
  5
1E616
 10
127.990
 20
97.5901
 30
0.000000
  70
    32
  0
VERTEX
  8
0
  5
1E617
 10
127.849
 20
97.7713
 30
0.000000
  70
    32
  0
VERTEX
  8
0
  5
1E618
 10
127.699
 20
97.9454
 30
0.000000
  70
    32
  0
VERTEX
  8
0
  5
1E619
 10
127.541
 20
98.1119
 30
0.000000
  70
    32
  0
VERTEX
  8
0
  5
1E61A
 10
127.375
 20
98.2704
 30
0.000000
  70
    32
  0
VERTEX
  8
0
  5
1E61B
 10
127.201
 20
98.4206
 30
0.000000
  70
    32
  0
VERTEX
  8
0
  5
1E61C
 10
127.021
 20
98.5620
 30
0.000000
  70
    32
  0
VERTEX
  8
0
  5
1E61D
 10
126.833
 20
98.6944
 30
0.000000
  70
    32
  0
VERTEX
  8
0
  5
1E61E
 10
126.639
 20
98.8174
 30
0.000000
  70
    32
  0
VERTEX
  8
0
  5
1E61F
 10
126.440
 20
98.9307
 30
0.000000
  70
    32
  0
VERTEX
  8
0
  5
1E620
 10
126.235
 20
99.0341
 30
0.000000
  70
    32
  0
VERTEX
  8
0
  5
1E621
 10
126.025
 20
99.1272
 30
0.000000
  70
    32
  0
VERTEX
  8
0
  5
1E622
 10
125.811
 20
99.2100
 30
0.000000
  70
    32
  0
VERTEX
  8
0
  5
1E623
 10
125.593
 20
99.2821
 30
0.000000
  70
    32
  0
VERTEX
  8
0
  5
1E624
 10
125.372
 20
99.3434
 30
0.000000
  70
    32
  0
VERTEX
  8
0
  5
1E625
 10
125.148
 20
99.3938
 30
0.000000
  70
    32
  0
VERTEX
  8
0
  5
1E626
 10
124.922
 20
99.4331
 30
0.000000
  70
    32
  0
VERTEX
  8
0
  5
1E627
 10
124.695
 20
99.4612
 30
0.000000
  70
    32
  0
VERTEX
  8
0
  5
1E628
 10
124.466
 20
99.4781
 30
0.000000
  70
    32
  0
VERTEX
  8
0
  5
1E629
 10
124.237
 20
99.4837
 30
0.000000
  70
    32
  0
VERTEX
  8
0
  5
1E62A
 10
124.007
 20
99.4781
 30
0.000000
  70
    32
  0
VERTEX
  8
0
  5
1E62B
 10
123.779
 20
99.4612
 30
0.000000
  70
    32
  0
VERTEX
  8
0
  5
1E62C
 10
123.551
 20
99.4331
 30
0.000000
  70
    32
  0
VERTEX
  8
0
  5
1E62D
 10
123.325
 20
99.3938
 30
0.000000
  70
    32
  0
VERTEX
  8
0
  5
1E62E
 10
123.101
 20
99.3434
 30
0.000000
  70
    32
  0
VERTEX
  8
0
  5
1E62F
 10
122.880
 20
99.2821
 30
0.000000
  70
    32
  0
VERTEX
  8
0
  5
1E630
 10
122.662
 20
99.2100
 30
0.000000
  70
    32
  0
VERTEX
  8
0
  5
1E631
 10
122.448
 20
99.1272
 30
0.000000
  70
    32
  0
VERTEX
  8
0
  5
1E632
 10
122.239
 20
99.0341
 30
0.000000
  70
    32
  0
VERTEX
  8
0
  5
1E633
 10
122.034
 20
98.9307
 30
0.000000
  70
    32
  0
VERTEX
  8
0
  5
1E634
 10
121.834
 20
98.8174
 30
0.000000
  70
    32
  0
VERTEX
  8
0
  5
1E635
 10
121.640
 20
98.6944
 30
0.000000
  70
    32
  0
VERTEX
  8
0
  5
1E636
 10
121.453
 20
98.5620
 30
0.000000
  70
    32
  0
VERTEX
  8
0
  5
1E637
 10
121.272
 20
98.4206
 30
0.000000
  70
    32
  0
VERTEX
  8
0
  5
1E638
 10
121.098
 20
98.2704
 30
0.000000
  70
    32
  0
VERTEX
  8
0
  5
1E639
 10
120.932
 20
98.1119
 30
0.000000
  70
    32
  0
VERTEX
  8
0
  5
1E63A
 10
120.774
 20
97.9454
 30
0.000000
  70
    32
  0
VERTEX
  8
0
  5
1E63B
 10
120.624
 20
97.7713
 30
0.000000
  70
    32
  0
VERTEX
  8
0
  5
1E63C
 10
120.483
 20
97.5901
 30
0.000000
  70
    32
  0
VERTEX
  8
0
  5
1E63D
 10
120.351
 20
97.4022
 30
0.000000
  70
    32
  0
VERTEX
  8
0
  5
1E63E
 10
120.228
 20
97.2079
 30
0.000000
  70
    32
  0
VERTEX
  8
0
  5
1E63F
 10
120.115
 20
97.0079
 30
0.000000
  70
    32
  0
VERTEX
  8
0
  5
1E640
 10
120.012
 20
96.8026
 30
0.000000
  70
    32
  0
VERTEX
  8
0
  5
1E641
 10
119.919
 20
96.5924
 30
0.000000
  70
    32
  0
VERTEX
  8
0
  5
1E642
 10
119.837
 20
96.3779
 30
0.000000
  70
    32
  0
VERTEX
  8
0
  5
1E643
 10
119.765
 20
96.1596
 30
0.000000
  70
    32
  0
VERTEX
  8
0
  5
1E644
 10
119.703
 20
95.9381
 30
0.000000
  70
    32
  0
VERTEX
  8
0
  5
1E645
 10
119.653
 20
95.7138
 30
0.000000
  70
    32
  0
VERTEX
  8
0
  5
1E646
 10
119.614
 20
95.4872
 30
0.000000
  70
    32
  0
VERTEX
  8
0
  5
1E647
 10
119.586
 20
95.2591
 30
0.000000
  70
    32
  0
VERTEX
  8
0
  5
1E648
 10
119.569
 20
95.0298
 30
0.000000
  70
    32
  0
VERTEX
  8
0
  5
1E649
 10
119.563
 20
94.8000
 30
0.000000
  70
    32
  0
VERTEX
  8
0
  5
1E64A
 10
119.569
 20
94.5702
 30
0.000000
  70
    32
  0
VERTEX
  8
0
  5
1E64B
 10
119.586
 20
94.3409
 30
0.000000
  70
    32
  0
VERTEX
  8
0
  5
1E64C
 10
119.614
 20
94.1128
 30
0.000000
  70
    32
  0
VERTEX
  8
0
  5
1E64D
 10
119.653
 20
93.8862
 30
0.000000
  70
    32
  0
VERTEX
  8
0
  5
1E64E
 10
119.703
 20
93.6619
 30
0.000000
  70
    32
  0
VERTEX
  8
0
  5
1E64F
 10
119.765
 20
93.4404
 30
0.000000
  70
    32
  0
VERTEX
  8
0
  5
1E650
 10
119.837
 20
93.2221
 30
0.000000
  70
    32
  0
VERTEX
  8
0
  5
1E651
 10
119.919
 20
93.0076
 30
0.000000
  70
    32
  0
VERTEX
  8
0
  5
1E652
 10
120.012
 20
92.7974
 30
0.000000
  70
    32
  0
VERTEX
  8
0
  5
1E653
 10
120.115
 20
92.5921
 30
0.000000
  70
    32
  0
VERTEX
  8
0
  5
1E654
 10
120.228
 20
92.3921
 30
0.000000
  70
    32
  0
VERTEX
  8
0
  5
1E655
 10
120.351
 20
92.1978
 30
0.000000
  70
    32
  0
VERTEX
  8
0
  5
1E656
 10
120.483
 20
92.0099
 30
0.000000
  70
    32
  0
VERTEX
  8
0
  5
1E657
 10
120.624
 20
91.8287
 30
0.000000
  70
    32
  0
VERTEX
  8
0
  5
1E658
 10
120.774
 20
91.6546
 30
0.000000
  70
    32
  0
VERTEX
  8
0
  5
1E659
 10
120.932
 20
91.4881
 30
0.000000
  70
    32
  0
VERTEX
  8
0
  5
1E65A
 10
121.098
 20
91.3296
 30
0.000000
  70
    32
  0
VERTEX
  8
0
  5
1E65B
 10
121.272
 20
91.1794
 30
0.000000
  70
    32
  0
VERTEX
  8
0
  5
1E65C
 10
121.453
 20
91.0380
 30
0.000000
  70
    32
  0
VERTEX
  8
0
  5
1E65D
 10
121.640
 20
90.9056
 30
0.000000
  70
    32
  0
VERTEX
  8
0
  5
1E65E
 10
121.834
 20
90.7826
 30
0.000000
  70
    32
  0
VERTEX
  8
0
  5
1E65F
 10
122.034
 20
90.6693
 30
0.000000
  70
    32
  0
VERTEX
  8
0
  5
1E660
 10
122.239
 20
90.5659
 30
0.000000
  70
    32
  0
VERTEX
  8
0
  5
1E661
 10
122.448
 20
90.4728
 30
0.000000
  70
    32
  0
VERTEX
  8
0
  5
1E662
 10
122.662
 20
90.3900
 30
0.000000
  70
    32
  0
VERTEX
  8
0
  5
1E663
 10
122.880
 20
90.3179
 30
0.000000
  70
    32
  0
VERTEX
  8
0
  5
1E664
 10
123.101
 20
90.2566
 30
0.000000
  70
    32
  0
VERTEX
  8
0
  5
1E665
 10
123.325
 20
90.2062
 30
0.000000
  70
    32
  0
VERTEX
  8
0
  5
1E666
 10
123.551
 20
90.1669
 30
0.000000
  70
    32
  0
VERTEX
  8
0
  5
1E667
 10
123.779
 20
90.1388
 30
0.000000
  70
    32
  0
VERTEX
  8
0
  5
1E668
 10
124.007
 20
90.1219
 30
0.000000
  70
    32
  0
VERTEX
  8
0
  5
1E669
 10
124.237
 20
90.1163
 30
0.000000
  70
    32
  0
SEQEND
  8
0
  5
1E66A
  0
POLYLINE
  5
1D43B
  8
0
 10
156.26335603241139
 20
90.116251501201219
 30
0.0
 66
     1
 70
     8
  0
VERTEX
  8
0
  5
1E66B
 10
156.263
 20
90.1163
 30
0.000000
  70
    32
  0
VERTEX
  8
0
  5
1E66C
 10
156.493
 20
90.1219
 30
0.000000
  70
    32
  0
VERTEX
  8
0
  5
1E66D
 10
156.721
 20
90.1388
 30
0.000000
  70
    32
  0
VERTEX
  8
0
  5
1E66E
 10
156.949
 20
90.1669
 30
0.000000
  70
    32
  0
VERTEX
  8
0
  5
1E66F
 10
157.175
 20
90.2062
 30
0.000000
  70
    32
  0
VERTEX
  8
0
  5
1E670
 10
157.399
 20
90.2566
 30
0.000000
  70
    32
  0
VERTEX
  8
0
  5
1E671
 10
157.620
 20
90.3179
 30
0.000000
  70
    32
  0
VERTEX
  8
0
  5
1E672
 10
157.838
 20
90.3900
 30
0.000000
  70
    32
  0
VERTEX
  8
0
  5
1E673
 10
158.052
 20
90.4728
 30
0.000000
  70
    32
  0
VERTEX
  8
0
  5
1E674
 10
158.261
 20
90.5659
 30
0.000000
  70
    32
  0
VERTEX
  8
0
  5
1E675
 10
158.466
 20
90.6693
 30
0.000000
  70
    32
  0
VERTEX
  8
0
  5
1E676
 10
158.666
 20
90.7826
 30
0.000000
  70
    32
  0
VERTEX
  8
0
  5
1E677
 10
158.860
 20
90.9056
 30
0.000000
  70
    32
  0
VERTEX
  8
0
  5
1E678
 10
159.047
 20
91.0380
 30
0.000000
  70
    32
  0
VERTEX
  8
0
  5
1E679
 10
159.228
 20
91.1794
 30
0.000000
  70
    32
  0
VERTEX
  8
0
  5
1E67A
 10
159.402
 20
91.3296
 30
0.000000
  70
    32
  0
VERTEX
  8
0
  5
1E67B
 10
159.568
 20
91.4881
 30
0.000000
  70
    32
  0
VERTEX
  8
0
  5
1E67C
 10
159.726
 20
91.6546
 30
0.000000
  70
    32
  0
VERTEX
  8
0
  5
1E67D
 10
159.876
 20
91.8287
 30
0.000000
  70
    32
  0
VERTEX
  8
0
  5
1E67E
 10
160.017
 20
92.0099
 30
0.000000
  70
    32
  0
VERTEX
  8
0
  5
1E67F
 10
160.149
 20
92.1978
 30
0.000000
  70
    32
  0
VERTEX
  8
0
  5
1E680
 10
160.272
 20
92.3921
 30
0.000000
  70
    32
  0
VERTEX
  8
0
  5
1E681
 10
160.385
 20
92.5921
 30
0.000000
  70
    32
  0
VERTEX
  8
0
  5
1E682
 10
160.488
 20
92.7974
 30
0.000000
  70
    32
  0
VERTEX
  8
0
  5
1E683
 10
160.581
 20
93.0076
 30
0.000000
  70
    32
  0
VERTEX
  8
0
  5
1E684
 10
160.663
 20
93.2221
 30
0.000000
  70
    32
  0
VERTEX
  8
0
  5
1E685
 10
160.735
 20
93.4404
 30
0.000000
  70
    32
  0
VERTEX
  8
0
  5
1E686
 10
160.797
 20
93.6619
 30
0.000000
  70
    32
  0
VERTEX
  8
0
  5
1E687
 10
160.847
 20
93.8862
 30
0.000000
  70
    32
  0
VERTEX
  8
0
  5
1E688
 10
160.886
 20
94.1128
 30
0.000000
  70
    32
  0
VERTEX
  8
0
  5
1E689
 10
160.914
 20
94.3409
 30
0.000000
  70
    32
  0
VERTEX
  8
0
  5
1E68A
 10
160.931
 20
94.5702
 30
0.000000
  70
    32
  0
VERTEX
  8
0
  5
1E68B
 10
160.937
 20
94.8000
 30
0.000000
  70
    32
  0
VERTEX
  8
0
  5
1E68C
 10
160.931
 20
95.0298
 30
0.000000
  70
    32
  0
VERTEX
  8
0
  5
1E68D
 10
160.914
 20
95.2591
 30
0.000000
  70
    32
  0
VERTEX
  8
0
  5
1E68E
 10
160.886
 20
95.4872
 30
0.000000
  70
    32
  0
VERTEX
  8
0
  5
1E68F
 10
160.847
 20
95.7138
 30
0.000000
  70
    32
  0
VERTEX
  8
0
  5
1E690
 10
160.797
 20
95.9381
 30
0.000000
  70
    32
  0
VERTEX
  8
0
  5
1E691
 10
160.735
 20
96.1596
 30
0.000000
  70
    32
  0
VERTEX
  8
0
  5
1E692
 10
160.663
 20
96.3779
 30
0.000000
  70
    32
  0
VERTEX
  8
0
  5
1E693
 10
160.581
 20
96.5924
 30
0.000000
  70
    32
  0
VERTEX
  8
0
  5
1E694
 10
160.488
 20
96.8026
 30
0.000000
  70
    32
  0
VERTEX
  8
0
  5
1E695
 10
160.385
 20
97.0079
 30
0.000000
  70
    32
  0
VERTEX
  8
0
  5
1E696
 10
160.272
 20
97.2079
 30
0.000000
  70
    32
  0
VERTEX
  8
0
  5
1E697
 10
160.149
 20
97.4022
 30
0.000000
  70
    32
  0
VERTEX
  8
0
  5
1E698
 10
160.017
 20
97.5901
 30
0.000000
  70
    32
  0
VERTEX
  8
0
  5
1E699
 10
159.876
 20
97.7713
 30
0.000000
  70
    32
  0
VERTEX
  8
0
  5
1E69A
 10
159.726
 20
97.9454
 30
0.000000
  70
    32
  0
VERTEX
  8
0
  5
1E69B
 10
159.568
 20
98.1119
 30
0.000000
  70
    32
  0
VERTEX
  8
0
  5
1E69C
 10
159.402
 20
98.2704
 30
0.000000
  70
    32
  0
VERTEX
  8
0
  5
1E69D
 10
159.228
 20
98.4206
 30
0.000000
  70
    32
  0
VERTEX
  8
0
  5
1E69E
 10
159.047
 20
98.5620
 30
0.000000
  70
    32
  0
VERTEX
  8
0
  5
1E69F
 10
158.860
 20
98.6944
 30
0.000000
  70
    32
  0
VERTEX
  8
0
  5
1E6A0
 10
158.666
 20
98.8174
 30
0.000000
  70
    32
  0
VERTEX
  8
0
  5
1E6A1
 10
158.466
 20
98.9307
 30
0.000000
  70
    32
  0
VERTEX
  8
0
  5
1E6A2
 10
158.261
 20
99.0341
 30
0.000000
  70
    32
  0
VERTEX
  8
0
  5
1E6A3
 10
158.052
 20
99.1272
 30
0.000000
  70
    32
  0
VERTEX
  8
0
  5
1E6A4
 10
157.838
 20
99.2100
 30
0.000000
  70
    32
  0
VERTEX
  8
0
  5
1E6A5
 10
157.620
 20
99.2821
 30
0.000000
  70
    32
  0
VERTEX
  8
0
  5
1E6A6
 10
157.399
 20
99.3434
 30
0.000000
  70
    32
  0
VERTEX
  8
0
  5
1E6A7
 10
157.175
 20
99.3938
 30
0.000000
  70
    32
  0
VERTEX
  8
0
  5
1E6A8
 10
156.949
 20
99.4331
 30
0.000000
  70
    32
  0
VERTEX
  8
0
  5
1E6A9
 10
156.721
 20
99.4612
 30
0.000000
  70
    32
  0
VERTEX
  8
0
  5
1E6AA
 10
156.493
 20
99.4781
 30
0.000000
  70
    32
  0
VERTEX
  8
0
  5
1E6AB
 10
156.263
 20
99.4837
 30
0.000000
  70
    32
  0
VERTEX
  8
0
  5
1E6AC
 10
156.034
 20
99.4781
 30
0.000000
  70
    32
  0
VERTEX
  8
0
  5
1E6AD
 10
155.805
 20
99.4612
 30
0.000000
  70
    32
  0
VERTEX
  8
0
  5
1E6AE
 10
155.578
 20
99.4331
 30
0.000000
  70
    32
  0
VERTEX
  8
0
  5
1E6AF
 10
155.352
 20
99.3938
 30
0.000000
  70
    32
  0
VERTEX
  8
0
  5
1E6B0
 10
155.128
 20
99.3434
 30
0.000000
  70
    32
  0
VERTEX
  8
0
  5
1E6B1
 10
154.907
 20
99.2821
 30
0.000000
  70
    32
  0
VERTEX
  8
0
  5
1E6B2
 10
154.689
 20
99.2100
 30
0.000000
  70
    32
  0
VERTEX
  8
0
  5
1E6B3
 10
154.475
 20
99.1272
 30
0.000000
  70
    32
  0
VERTEX
  8
0
  5
1E6B4
 10
154.265
 20
99.0341
 30
0.000000
  70
    32
  0
VERTEX
  8
0
  5
1E6B5
 10
154.060
 20
98.9307
 30
0.000000
  70
    32
  0
VERTEX
  8
0
  5
1E6B6
 10
153.861
 20
98.8174
 30
0.000000
  70
    32
  0
VERTEX
  8
0
  5
1E6B7
 10
153.667
 20
98.6944
 30
0.000000
  70
    32
  0
VERTEX
  8
0
  5
1E6B8
 10
153.479
 20
98.5620
 30
0.000000
  70
    32
  0
VERTEX
  8
0
  5
1E6B9
 10
153.299
 20
98.4206
 30
0.000000
  70
    32
  0
VERTEX
  8
0
  5
1E6BA
 10
153.125
 20
98.2704
 30
0.000000
  70
    32
  0
VERTEX
  8
0
  5
1E6BB
 10
152.959
 20
98.1119
 30
0.000000
  70
    32
  0
VERTEX
  8
0
  5
1E6BC
 10
152.801
 20
97.9454
 30
0.000000
  70
    32
  0
VERTEX
  8
0
  5
1E6BD
 10
152.651
 20
97.7713
 30
0.000000
  70
    32
  0
VERTEX
  8
0
  5
1E6BE
 10
152.510
 20
97.5901
 30
0.000000
  70
    32
  0
VERTEX
  8
0
  5
1E6BF
 10
152.378
 20
97.4022
 30
0.000000
  70
    32
  0
VERTEX
  8
0
  5
1E6C0
 10
152.255
 20
97.2079
 30
0.000000
  70
    32
  0
VERTEX
  8
0
  5
1E6C1
 10
152.142
 20
97.0079
 30
0.000000
  70
    32
  0
VERTEX
  8
0
  5
1E6C2
 10
152.039
 20
96.8026
 30
0.000000
  70
    32
  0
VERTEX
  8
0
  5
1E6C3
 10
151.946
 20
96.5924
 30
0.000000
  70
    32
  0
VERTEX
  8
0
  5
1E6C4
 10
151.863
 20
96.3779
 30
0.000000
  70
    32
  0
VERTEX
  8
0
  5
1E6C5
 10
151.791
 20
96.1596
 30
0.000000
  70
    32
  0
VERTEX
  8
0
  5
1E6C6
 10
151.730
 20
95.9381
 30
0.000000
  70
    32
  0
VERTEX
  8
0
  5
1E6C7
 10
151.680
 20
95.7138
 30
0.000000
  70
    32
  0
VERTEX
  8
0
  5
1E6C8
 10
151.641
 20
95.4872
 30
0.000000
  70
    32
  0
VERTEX
  8
0
  5
1E6C9
 10
151.613
 20
95.2591
 30
0.000000
  70
    32
  0
VERTEX
  8
0
  5
1E6CA
 10
151.596
 20
95.0298
 30
0.000000
  70
    32
  0
VERTEX
  8
0
  5
1E6CB
 10
151.590
 20
94.8000
 30
0.000000
  70
    32
  0
VERTEX
  8
0
  5
1E6CC
 10
151.596
 20
94.5702
 30
0.000000
  70
    32
  0
VERTEX
  8
0
  5
1E6CD
 10
151.613
 20
94.3409
 30
0.000000
  70
    32
  0
VERTEX
  8
0
  5
1E6CE
 10
151.641
 20
94.1128
 30
0.000000
  70
    32
  0
VERTEX
  8
0
  5
1E6CF
 10
151.680
 20
93.8862
 30
0.000000
  70
    32
  0
VERTEX
  8
0
  5
1E6D0
 10
151.730
 20
93.6619
 30
0.000000
  70
    32
  0
VERTEX
  8
0
  5
1E6D1
 10
151.791
 20
93.4404
 30
0.000000
  70
    32
  0
VERTEX
  8
0
  5
1E6D2
 10
151.863
 20
93.2221
 30
0.000000
  70
    32
  0
VERTEX
  8
0
  5
1E6D3
 10
151.946
 20
93.0076
 30
0.000000
  70
    32
  0
VERTEX
  8
0
  5
1E6D4
 10
152.039
 20
92.7974
 30
0.000000
  70
    32
  0
VERTEX
  8
0
  5
1E6D5
 10
152.142
 20
92.5921
 30
0.000000
  70
    32
  0
VERTEX
  8
0
  5
1E6D6
 10
152.255
 20
92.3921
 30
0.000000
  70
    32
  0
VERTEX
  8
0
  5
1E6D7
 10
152.378
 20
92.1978
 30
0.000000
  70
    32
  0
VERTEX
  8
0
  5
1E6D8
 10
152.510
 20
92.0099
 30
0.000000
  70
    32
  0
VERTEX
  8
0
  5
1E6D9
 10
152.651
 20
91.8287
 30
0.000000
  70
    32
  0
VERTEX
  8
0
  5
1E6DA
 10
152.801
 20
91.6546
 30
0.000000
  70
    32
  0
VERTEX
  8
0
  5
1E6DB
 10
152.959
 20
91.4881
 30
0.000000
  70
    32
  0
VERTEX
  8
0
  5
1E6DC
 10
153.125
 20
91.3296
 30
0.000000
  70
    32
  0
VERTEX
  8
0
  5
1E6DD
 10
153.299
 20
91.1794
 30
0.000000
  70
    32
  0
VERTEX
  8
0
  5
1E6DE
 10
153.479
 20
91.0380
 30
0.000000
  70
    32
  0
VERTEX
  8
0
  5
1E6DF
 10
153.667
 20
90.9056
 30
0.000000
  70
    32
  0
VERTEX
  8
0
  5
1E6E0
 10
153.861
 20
90.7826
 30
0.000000
  70
    32
  0
VERTEX
  8
0
  5
1E6E1
 10
154.060
 20
90.6693
 30
0.000000
  70
    32
  0
VERTEX
  8
0
  5
1E6E2
 10
154.265
 20
90.5659
 30
0.000000
  70
    32
  0
VERTEX
  8
0
  5
1E6E3
 10
154.475
 20
90.4728
 30
0.000000
  70
    32
  0
VERTEX
  8
0
  5
1E6E4
 10
154.689
 20
90.3900
 30
0.000000
  70
    32
  0
VERTEX
  8
0
  5
1E6E5
 10
154.907
 20
90.3179
 30
0.000000
  70
    32
  0
VERTEX
  8
0
  5
1E6E6
 10
155.128
 20
90.2566
 30
0.000000
  70
    32
  0
VERTEX
  8
0
  5
1E6E7
 10
155.352
 20
90.2062
 30
0.000000
  70
    32
  0
VERTEX
  8
0
  5
1E6E8
 10
155.578
 20
90.1669
 30
0.000000
  70
    32
  0
VERTEX
  8
0
  5
1E6E9
 10
155.805
 20
90.1388
 30
0.000000
  70
    32
  0
VERTEX
  8
0
  5
1E6EA
 10
156.034
 20
90.1219
 30
0.000000
  70
    32
  0
VERTEX
  8
0
  5
1E6EB
 10
156.263
 20
90.1163
 30
0.000000
  70
    32
  0
SEQEND
  8
0
  5
1E6EC
  0
LINE
  5
1D443
  8
0
 10
156.55000000000061
 20
102.0000000000001
 30
0.0
 11
156.25236630445281
 21
102.0000000000001
 31
0.0
  0
ARC
  5
1D444
  8
0
 10
156.55000000000061
 20
94.800000000000125
 30
0.0
 40
7.1999999999999957
 50
290.67709639263569
 51
90.0
  0
POLYLINE
  5
1D445
  8
0
 66
     1
 10
0.0
 20
0.0
 30
0.0
  0
VERTEX
  5
1E3EA
  8
0
 10
156.25236630445281
 20
102.0000000000001
 30
0.0
  0
VERTEX
  5
1E3EB
  8
0
 10
156.02285762658991
 20
101.9963730404141
 30
0.0
  0
VERTEX
  5
1E3EC
  8
0
 10
155.4198376053003
 20
101.95220420004669
 30
0.0
  0
VERTEX
  5
1E3ED
  8
0
 10
154.8225036191169
 20
101.8583465394824
 30
0.0
  0
VERTEX
  5
1E3EE
  8
0
 10
154.2182802551994
 20
101.7105275919139
 30
0.0
  0
VERTEX
  5
1E3EF
  8
0
 10
153.6286966102081
 20
101.5120142805895
 30
0.0
  0
VERTEX
  5
1E3F0
  8
0
 10
153.21276536584489
 20
101.33709568585959
 30
0.0
  0
SEQEND
  5
1E3F1
  8
0
  0
POLYLINE
  5
1D446
  8
0
 66
     1
 10
0.0
 20
0.0
 30
0.0
  0
VERTEX
  5
1E3F2
  8
0
 10
127.2872346341554
 20
101.3370956858595
 30
0.0
  0
VERTEX
  5
1E3F3
  8
0
 10
127.2568954639422
 20
101.3508848549059
 30
0.0
  0
VERTEX
  5
1E3F4
  8
0
 10
126.6913855618151
 20
101.5785079041212
 30
0.0
  0
VERTEX
  5
1E3F5
  8
0
 10
126.1090070143801
 20
101.7583998042191
 30
0.0
  0
VERTEX
  5
1E3F6
  8
0
 10
125.49625278544261
 20
101.8921591516707
 30
0.0
  0
VERTEX
  5
1E3F7
  8
0
 10
124.8743395726615
 20
101.97296674144749
 30
0.0
  0
VERTEX
  5
1E3F8
  8
0
 10
124.26576165959069
 20
101.9999324395208
 30
0.0
  0
VERTEX
  5
1E3F9
  8
0
 10
124.2474459349083
 20
102.0000000000001
 30
0.0
  0
SEQEND
  5
1E3FA
  8
0
  0
LINE
  5
1D44A
  8
0
 10
124.2474459349083
 20
102.0000000000001
 30
0.0
 11
123.95
 21
102.0000000000001
 31
0.0
  0
ARC
  5
1D44B
  8
0
 10
123.95
 20
94.800000000000125
 30
0.0
 40
7.1999999999999948
 50
90.0
 51
249.32290360736431
  0
ARC
  5
1D450
  8
0
 10
133.0019036319697
 20
138.8916836159427
 30
0.0
 40
57.133049242425081
 50
284.18235019523388
 51
297.1718425900379
  0
ARC
  5
1D453
  8
0
 10
147.4980963680307
 20
138.8916836159423
 30
0.0
 40
57.13304924242464
 50
242.8281574099619
 51
255.81764980476601
  0
LINE
  5
1D455
  8
0
 10
140.8000000000003
 20
101.9774446020274
 30
0.0
 11
139.7000000000003
 21
101.9774446020274
 31
0.0
  0
ARC
  5
1D456
  8
0
 10
140.2500000000008
 20
95.28301042736291
 30
0.0
 40
6.7169895726371172
 50
94.696746754375724
 51
98.746697778422828
  0
ARC
  5
1D457
  8
0
 10
140.24999992602361
 20
95.283010626550166
 30
0.0
 40
6.7169893601574993
 50
108.4109431001682
 51
112.70675251360259
  0
ARC
  5
1D458
  8
0
 10
140.24999999491359
 20
95.283010432887053
 30
0.0
 40
6.7169895651375988
 50
123.3518254280763
 51
135.77715419928089
  0
ARC
  5
1D459
  8
0
 10
140.2500000000891
 20
95.283010427463466
 30
0.0
 40
6.7169895725019719
 50
44.222845804141407
 51
56.648174551474789
  0
ARC
  5
1D45A
  8
0
 10
140.25000007420209
 20
95.283010614250387
 30
0.0
 40
6.7169893715946341
 50
67.293247549338361
 51
71.589056952116493
  0
ARC
  5
1D45B
  8
0
 10
140.25
 20
95.283010427365127
 30
0.0
 40
6.7169895726348896
 50
81.253302221709887
 51
85.303253245624276
  0
POLYLINE
  5
1D45C
  8
0
 66
     1
 10
0.0
 20
0.0
 30
0.0
  0
VERTEX
  5
1E3FB
  8
0
 10
136.5571428660727
 20
100.89378177416771
 30
0.0
  0
VERTEX
  5
1E3FC
  8
0
 10
136.55737597302121
 20
100.8939123468228
 30
0.0
  0
VERTEX
  5
1E3FD
  8
0
 10
136.58602641145379
 20
100.9099375478698
 30
0.0
  0
VERTEX
  5
1E3FE
  8
0
 10
136.65799890063451
 20
100.94999439785261
 30
0.0
  0
VERTEX
  5
1E3FF
  8
0
 10
136.7727061521785
 20
101.0132568731705
 30
0.0
  0
VERTEX
  5
1E400
  8
0
 10
136.9306202025343
 20
101.0992228486424
 30
0.0
  0
VERTEX
  5
1E401
  8
0
 10
137.1241364057077
 20
101.202868068321
 30
0.0
  0
VERTEX
  5
1E402
  8
0
 10
137.32845809016061
 20
101.3103665821663
 30
0.0
  0
VERTEX
  5
1E403
  8
0
 10
137.50313021364011
 20
101.4007682908268
 30
0.0
  0
VERTEX
  5
1E404
  8
0
 10
137.61429681855299
 20
101.45761347458971
 30
0.0
  0
VERTEX
  5
1E405
  8
0
 10
137.65608080210399
 20
101.4788449129256
 30
0.0
  0
VERTEX
  5
1E406
  8
0
 10
137.65714286287101
 20
101.4793836232741
 30
0.0
  0
SEQEND
  5
1E407
  8
0
  0
LINE
  5
1D45D
  8
0
 10
139.2285714285529
 20
101.9218832678642
 30
0.0
 11
138.12857143007739
 21
101.6561956388541
 31
0.0
  0
POLYLINE
  5
1D45E
  8
0
 66
     1
 10
0.0
 20
0.0
 30
0.0
  0
VERTEX
  5
1E408
  8
0
 10
142.84285713529621
 20
101.479383624204
 30
0.0
  0
VERTEX
  5
1E409
  8
0
 10
142.8567592105058
 20
101.4723283479421
 30
0.0
  0
VERTEX
  5
1E40A
  8
0
 10
142.91607863301539
 20
101.4421330419441
 30
0.0
  0
VERTEX
  5
1E40B
  8
0
 10
143.0186408587227
 20
101.3895736617652
 30
0.0
  0
VERTEX
  5
1E40C
  8
0
 10
143.16296328605409
 20
101.3148380935678
 30
0.0
  0
VERTEX
  5
1E40D
  8
0
 10
143.3439141668423
 20
101.2198058138702
 30
0.0
  0
VERTEX
  5
1E40E
  8
0
 10
143.5452262516005
 20
101.1122598831132
 30
0.0
  0
VERTEX
  5
1E40F
  8
0
 10
143.73434725827059
 20
101.00938699610001
 30
0.0
  0
VERTEX
  5
1E410
  8
0
 10
143.8711840499399
 20
100.9337866247472
 30
0.0
  0
VERTEX
  5
1E411
  8
0
 10
143.93540474956461
 20
100.8979546536989
 30
0.0
  0
VERTEX
  5
1E412
  8
0
 10
143.94285713498121
 20
100.8937817735777
 30
0.0
  0
SEQEND
  5
1E413
  8
0
  0
LINE
  5
1D45F
  8
0
 10
142.3714285679448
 20
101.656195639342
 30
0.0
 11
141.2714285714853
 21
101.9218832678537
 31
0.0
  0
ARC
  5
1D460
  8
0
 10
146.8316123188408
 20
79.833333333333343
 30
0.0
 40
0.598278985507225
 50
111.0555722399251
 51
129.99626903834189
  0
ARC
  5
1D461
  8
0
 10
146.8316123188408
 20
79.833333333333343
 30
0.0
 40
0.5982789855072606
 50
230.00373096165811
 51
248.94442776007219
  0
ARC
  5
1D462
  8
0
 10
133.66838768115969
 20
79.833333333333343
 30
0.0
 40
0.5982789855072375
 50
50.0037309616581
 51
68.944427760072159
  0
ARC
  5
1D463
  8
0
 10
133.66838768115969
 20
79.833333333333314
 30
0.0
 40
0.5982789855072054
 50
291.0555722399252
 51
309.99626903834172
  0
POLYLINE
  5
1D465
  8
0
 10
127.2872346341555
 20
101.33709568585937
 30
0.0
 66
     1
 70
     8
  0
VERTEX
  8
0
  5
1E6ED
 10
127.287
 20
101.337
 30
0.000000
  70
    32
  0
VERTEX
  8
0
  5
1E6EE
 10
127.325
 20
101.327
 30
0.000000
  70
    32
  0
VERTEX
  8
0
  5
1E6EF
 10
127.362
 20
101.316
 30
0.000000
  70
    32
  0
VERTEX
  8
0
  5
1E6F0
 10
127.400
 20
101.306
 30
0.000000
  70
    32
  0
VERTEX
  8
0
  5
1E6F1
 10
127.438
 20
101.295
 30
0.000000
  70
    32
  0
VERTEX
  8
0
  5
1E6F2
 10
127.475
 20
101.285
 30
0.000000
  70
    32
  0
VERTEX
  8
0
  5
1E6F3
 10
127.513
 20
101.275
 30
0.000000
  70
    32
  0
VERTEX
  8
0
  5
1E6F4
 10
127.551
 20
101.264
 30
0.000000
  70
    32
  0
VERTEX
  8
0
  5
1E6F5
 10
127.588
 20
101.254
 30
0.000000
  70
    32
  0
VERTEX
  8
0
  5
1E6F6
 10
127.626
 20
101.244
 30
0.000000
  70
    32
  0
VERTEX
  8
0
  5
1E6F7
 10
127.664
 20
101.234
 30
0.000000
  70
    32
  0
VERTEX
  8
0
  5
1E6F8
 10
127.701
 20
101.223
 30
0.000000
  70
    32
  0
VERTEX
  8
0
  5
1E6F9
 10
127.739
 20
101.213
 30
0.000000
  70
    32
  0
VERTEX
  8
0
  5
1E6FA
 10
127.777
 20
101.203
 30
0.000000
  70
    32
  0
VERTEX
  8
0
  5
1E6FB
 10
127.815
 20
101.193
 30
0.000000
  70
    32
  0
VERTEX
  8
0
  5
1E6FC
 10
127.852
 20
101.183
 30
0.000000
  70
    32
  0
VERTEX
  8
0
  5
1E6FD
 10
127.890
 20
101.173
 30
0.000000
  70
    32
  0
VERTEX
  8
0
  5
1E6FE
 10
127.928
 20
101.163
 30
0.000000
  70
    32
  0
VERTEX
  8
0
  5
1E6FF
 10
127.966
 20
101.153
 30
0.000000
  70
    32
  0
VERTEX
  8
0
  5
1E700
 10
128.003
 20
101.143
 30
0.000000
  70
    32
  0
VERTEX
  8
0
  5
1E701
 10
128.041
 20
101.133
 30
0.000000
  70
    32
  0
VERTEX
  8
0
  5
1E702
 10
128.079
 20
101.123
 30
0.000000
  70
    32
  0
VERTEX
  8
0
  5
1E703
 10
128.117
 20
101.113
 30
0.000000
  70
    32
  0
VERTEX
  8
0
  5
1E704
 10
128.155
 20
101.103
 30
0.000000
  70
    32
  0
VERTEX
  8
0
  5
1E705
 10
128.192
 20
101.094
 30
0.000000
  70
    32
  0
VERTEX
  8
0
  5
1E706
 10
128.230
 20
101.084
 30
0.000000
  70
    32
  0
VERTEX
  8
0
  5
1E707
 10
128.268
 20
101.074
 30
0.000000
  70
    32
  0
VERTEX
  8
0
  5
1E708
 10
128.306
 20
101.064
 30
0.000000
  70
    32
  0
VERTEX
  8
0
  5
1E709
 10
128.344
 20
101.055
 30
0.000000
  70
    32
  0
VERTEX
  8
0
  5
1E70A
 10
128.381
 20
101.045
 30
0.000000
  70
    32
  0
VERTEX
  8
0
  5
1E70B
 10
128.419
 20
101.035
 30
0.000000
  70
    32
  0
VERTEX
  8
0
  5
1E70C
 10
128.457
 20
101.026
 30
0.000000
  70
    32
  0
VERTEX
  8
0
  5
1E70D
 10
128.495
 20
101.016
 30
0.000000
  70
    32
  0
VERTEX
  8
0
  5
1E70E
 10
128.533
 20
101.007
 30
0.000000
  70
    32
  0
VERTEX
  8
0
  5
1E70F
 10
128.571
 20
100.997
 30
0.000000
  70
    32
  0
VERTEX
  8
0
  5
1E710
 10
128.609
 20
100.988
 30
0.000000
  70
    32
  0
VERTEX
  8
0
  5
1E711
 10
128.647
 20
100.978
 30
0.000000
  70
    32
  0
VERTEX
  8
0
  5
1E712
 10
128.684
 20
100.969
 30
0.000000
  70
    32
  0
VERTEX
  8
0
  5
1E713
 10
128.722
 20
100.960
 30
0.000000
  70
    32
  0
VERTEX
  8
0
  5
1E714
 10
128.760
 20
100.950
 30
0.000000
  70
    32
  0
VERTEX
  8
0
  5
1E715
 10
128.798
 20
100.941
 30
0.000000
  70
    32
  0
VERTEX
  8
0
  5
1E716
 10
128.836
 20
100.932
 30
0.000000
  70
    32
  0
VERTEX
  8
0
  5
1E717
 10
128.874
 20
100.922
 30
0.000000
  70
    32
  0
VERTEX
  8
0
  5
1E718
 10
128.912
 20
100.913
 30
0.000000
  70
    32
  0
VERTEX
  8
0
  5
1E719
 10
128.950
 20
100.904
 30
0.000000
  70
    32
  0
VERTEX
  8
0
  5
1E71A
 10
128.988
 20
100.895
 30
0.000000
  70
    32
  0
VERTEX
  8
0
  5
1E71B
 10
129.026
 20
100.886
 30
0.000000
  70
    32
  0
VERTEX
  8
0
  5
1E71C
 10
129.064
 20
100.877
 30
0.000000
  70
    32
  0
VERTEX
  8
0
  5
1E71D
 10
129.102
 20
100.868
 30
0.000000
  70
    32
  0
VERTEX
  8
0
  5
1E71E
 10
129.140
 20
100.859
 30
0.000000
  70
    32
  0
VERTEX
  8
0
  5
1E71F
 10
129.178
 20
100.850
 30
0.000000
  70
    32
  0
VERTEX
  8
0
  5
1E720
 10
129.216
 20
100.841
 30
0.000000
  70
    32
  0
VERTEX
  8
0
  5
1E721
 10
129.254
 20
100.832
 30
0.000000
  70
    32
  0
VERTEX
  8
0
  5
1E722
 10
129.292
 20
100.823
 30
0.000000
  70
    32
  0
VERTEX
  8
0
  5
1E723
 10
129.330
 20
100.814
 30
0.000000
  70
    32
  0
VERTEX
  8
0
  5
1E724
 10
129.368
 20
100.805
 30
0.000000
  70
    32
  0
VERTEX
  8
0
  5
1E725
 10
129.406
 20
100.796
 30
0.000000
  70
    32
  0
VERTEX
  8
0
  5
1E726
 10
129.444
 20
100.787
 30
0.000000
  70
    32
  0
VERTEX
  8
0
  5
1E727
 10
129.482
 20
100.779
 30
0.000000
  70
    32
  0
VERTEX
  8
0
  5
1E728
 10
129.520
 20
100.770
 30
0.000000
  70
    32
  0
VERTEX
  8
0
  5
1E729
 10
129.558
 20
100.761
 30
0.000000
  70
    32
  0
VERTEX
  8
0
  5
1E72A
 10
129.596
 20
100.753
 30
0.000000
  70
    32
  0
VERTEX
  8
0
  5
1E72B
 10
129.634
 20
100.744
 30
0.000000
  70
    32
  0
VERTEX
  8
0
  5
1E72C
 10
129.673
 20
100.735
 30
0.000000
  70
    32
  0
VERTEX
  8
0
  5
1E72D
 10
129.711
 20
100.727
 30
0.000000
  70
    32
  0
VERTEX
  8
0
  5
1E72E
 10
129.749
 20
100.718
 30
0.000000
  70
    32
  0
VERTEX
  8
0
  5
1E72F
 10
129.787
 20
100.710
 30
0.000000
  70
    32
  0
VERTEX
  8
0
  5
1E730
 10
129.825
 20
100.701
 30
0.000000
  70
    32
  0
VERTEX
  8
0
  5
1E731
 10
129.863
 20
100.693
 30
0.000000
  70
    32
  0
VERTEX
  8
0
  5
1E732
 10
129.901
 20
100.684
 30
0.000000
  70
    32
  0
VERTEX
  8
0
  5
1E733
 10
129.939
 20
100.676
 30
0.000000
  70
    32
  0
VERTEX
  8
0
  5
1E734
 10
129.977
 20
100.668
 30
0.000000
  70
    32
  0
VERTEX
  8
0
  5
1E735
 10
130.016
 20
100.659
 30
0.000000
  70
    32
  0
VERTEX
  8
0
  5
1E736
 10
130.054
 20
100.651
 30
0.000000
  70
    32
  0
VERTEX
  8
0
  5
1E737
 10
130.092
 20
100.643
 30
0.000000
  70
    32
  0
VERTEX
  8
0
  5
1E738
 10
130.130
 20
100.634
 30
0.000000
  70
    32
  0
VERTEX
  8
0
  5
1E739
 10
130.168
 20
100.626
 30
0.000000
  70
    32
  0
VERTEX
  8
0
  5
1E73A
 10
130.206
 20
100.618
 30
0.000000
  70
    32
  0
VERTEX
  8
0
  5
1E73B
 10
130.245
 20
100.610
 30
0.000000
  70
    32
  0
VERTEX
  8
0
  5
1E73C
 10
130.283
 20
100.602
 30
0.000000
  70
    32
  0
VERTEX
  8
0
  5
1E73D
 10
130.321
 20
100.594
 30
0.000000
  70
    32
  0
VERTEX
  8
0
  5
1E73E
 10
130.359
 20
100.586
 30
0.000000
  70
    32
  0
VERTEX
  8
0
  5
1E73F
 10
130.398
 20
100.578
 30
0.000000
  70
    32
  0
VERTEX
  8
0
  5
1E740
 10
130.436
 20
100.570
 30
0.000000
  70
    32
  0
VERTEX
  8
0
  5
1E741
 10
130.474
 20
100.562
 30
0.000000
  70
    32
  0
VERTEX
  8
0
  5
1E742
 10
130.512
 20
100.554
 30
0.000000
  70
    32
  0
VERTEX
  8
0
  5
1E743
 10
130.550
 20
100.546
 30
0.000000
  70
    32
  0
VERTEX
  8
0
  5
1E744
 10
130.589
 20
100.538
 30
0.000000
  70
    32
  0
VERTEX
  8
0
  5
1E745
 10
130.627
 20
100.530
 30
0.000000
  70
    32
  0
VERTEX
  8
0
  5
1E746
 10
130.665
 20
100.522
 30
0.000000
  70
    32
  0
VERTEX
  8
0
  5
1E747
 10
130.703
 20
100.514
 30
0.000000
  70
    32
  0
VERTEX
  8
0
  5
1E748
 10
130.742
 20
100.507
 30
0.000000
  70
    32
  0
VERTEX
  8
0
  5
1E749
 10
130.780
 20
100.499
 30
0.000000
  70
    32
  0
VERTEX
  8
0
  5
1E74A
 10
130.818
 20
100.491
 30
0.000000
  70
    32
  0
VERTEX
  8
0
  5
1E74B
 10
130.857
 20
100.484
 30
0.000000
  70
    32
  0
VERTEX
  8
0
  5
1E74C
 10
130.895
 20
100.476
 30
0.000000
  70
    32
  0
VERTEX
  8
0
  5
1E74D
 10
130.933
 20
100.468
 30
0.000000
  70
    32
  0
VERTEX
  8
0
  5
1E74E
 10
130.972
 20
100.461
 30
0.000000
  70
    32
  0
VERTEX
  8
0
  5
1E74F
 10
131.010
 20
100.453
 30
0.000000
  70
    32
  0
VERTEX
  8
0
  5
1E750
 10
131.048
 20
100.446
 30
0.000000
  70
    32
  0
VERTEX
  8
0
  5
1E751
 10
131.086
 20
100.438
 30
0.000000
  70
    32
  0
VERTEX
  8
0
  5
1E752
 10
131.125
 20
100.431
 30
0.000000
  70
    32
  0
VERTEX
  8
0
  5
1E753
 10
131.163
 20
100.423
 30
0.000000
  70
    32
  0
VERTEX
  8
0
  5
1E754
 10
131.201
 20
100.416
 30
0.000000
  70
    32
  0
VERTEX
  8
0
  5
1E755
 10
131.240
 20
100.409
 30
0.000000
  70
    32
  0
VERTEX
  8
0
  5
1E756
 10
131.278
 20
100.401
 30
0.000000
  70
    32
  0
VERTEX
  8
0
  5
1E757
 10
131.317
 20
100.394
 30
0.000000
  70
    32
  0
VERTEX
  8
0
  5
1E758
 10
131.355
 20
100.387
 30
0.000000
  70
    32
  0
VERTEX
  8
0
  5
1E759
 10
131.393
 20
100.380
 30
0.000000
  70
    32
  0
VERTEX
  8
0
  5
1E75A
 10
131.432
 20
100.372
 30
0.000000
  70
    32
  0
VERTEX
  8
0
  5
1E75B
 10
131.470
 20
100.365
 30
0.000000
  70
    32
  0
VERTEX
  8
0
  5
1E75C
 10
131.508
 20
100.358
 30
0.000000
  70
    32
  0
VERTEX
  8
0
  5
1E75D
 10
131.547
 20
100.351
 30
0.000000
  70
    32
  0
VERTEX
  8
0
  5
1E75E
 10
131.585
 20
100.344
 30
0.000000
  70
    32
  0
VERTEX
  8
0
  5
1E75F
 10
131.624
 20
100.337
 30
0.000000
  70
    32
  0
VERTEX
  8
0
  5
1E760
 10
131.662
 20
100.330
 30
0.000000
  70
    32
  0
VERTEX
  8
0
  5
1E761
 10
131.701
 20
100.323
 30
0.000000
  70
    32
  0
VERTEX
  8
0
  5
1E762
 10
131.739
 20
100.316
 30
0.000000
  70
    32
  0
VERTEX
  8
0
  5
1E763
 10
131.777
 20
100.309
 30
0.000000
  70
    32
  0
VERTEX
  8
0
  5
1E764
 10
131.816
 20
100.302
 30
0.000000
  70
    32
  0
VERTEX
  8
0
  5
1E765
 10
131.854
 20
100.295
 30
0.000000
  70
    32
  0
VERTEX
  8
0
  5
1E766
 10
131.893
 20
100.288
 30
0.000000
  70
    32
  0
VERTEX
  8
0
  5
1E767
 10
131.931
 20
100.282
 30
0.000000
  70
    32
  0
VERTEX
  8
0
  5
1E768
 10
131.970
 20
100.275
 30
0.000000
  70
    32
  0
VERTEX
  8
0
  5
1E769
 10
132.008
 20
100.268
 30
0.000000
  70
    32
  0
VERTEX
  8
0
  5
1E76A
 10
132.047
 20
100.261
 30
0.000000
  70
    32
  0
VERTEX
  8
0
  5
1E76B
 10
132.085
 20
100.255
 30
0.000000
  70
    32
  0
VERTEX
  8
0
  5
1E76C
 10
132.123
 20
100.248
 30
0.000000
  70
    32
  0
VERTEX
  8
0
  5
1E76D
 10
132.162
 20
100.242
 30
0.000000
  70
    32
  0
SEQEND
  8
0
  5
1E76E
  0
POLYLINE
  5
1D466
  8
0
 66
     1
 10
0.0
 20
0.0
 30
0.0
  0
VERTEX
  5
1E414
  8
0
 10
134.66531606109299
 20
99.967780879788847
 30
0.0
  0
VERTEX
  5
1E415
  8
0
 10
134.3729251252791
 20
99.975442704180523
 30
0.0
  0
VERTEX
  5
1E416
  8
0
 10
134.025502669346
 20
99.997975946132726
 30
0.0
  0
VERTEX
  5
1E417
  8
0
 10
133.6324985695727
 20
100.0348962644521
 30
0.0
  0
VERTEX
  5
1E418
  8
0
 10
133.20570775885591
 20
100.08491560813169
 30
0.0
  0
VERTEX
  5
1E419
  8
0
 10
132.7530834243361
 20
100.14730207923159
 30
0.0
  0
VERTEX
  5
1E41A
  8
0
 10
132.2908296411733
 20
100.2197714129925
 30
0.0
  0
VERTEX
  5
1E41B
  8
0
 10
132.16198493211769
 20
100.24151784556
 30
0.0
  0
SEQEND
  5
1E41C
  8
0
  0
POLYLINE
  5
1D467
  8
0
 66
     1
 10
0.0
 20
0.0
 30
0.0
  0
VERTEX
  5
1E41D
  8
0
 10
148.33801506788279
 20
100.24151784556
 30
0.0
  0
VERTEX
  5
1E41E
  8
0
 10
147.87462824059679
 20
100.16643500039071
 30
0.0
  0
VERTEX
  5
1E41F
  8
0
 10
147.40452003186061
 20
100.0992750197093
 30
0.0
  0
VERTEX
  5
1E420
  8
0
 10
146.9667727470806
 20
100.04566614080041
 30
0.0
  0
VERTEX
  5
1E421
  8
0
 10
146.54932544647281
 20
100.00419673912
 30
0.0
  0
VERTEX
  5
1E422
  8
0
 10
146.1653545934069
 20
99.977291681047063
 30
0.0
  0
VERTEX
  5
1E423
  8
0
 10
145.99073759351921
 20
99.970169789949423
 30
0.0
  0
VERTEX
  5
1E424
  8
0
 10
145.83468393890749
 20
99.967780879788805
 30
0.0
  0
SEQEND
  5
1E425
  8
0
  0
POLYLINE
  5
1D468
  8
0
 10
148.33801506788285
 20
100.24151784556
 30
0.0
 66
     1
 70
     8
  0
VERTEX
  8
0
  5
1E76F
 10
148.338
 20
100.242
 30
0.000000
  70
    32
  0
VERTEX
  8
0
  5
1E770
 10
148.377
 20
100.248
 30
0.000000
  70
    32
  0
VERTEX
  8
0
  5
1E771
 10
148.415
 20
100.255
 30
0.000000
  70
    32
  0
VERTEX
  8
0
  5
1E772
 10
148.453
 20
100.261
 30
0.000000
  70
    32
  0
VERTEX
  8
0
  5
1E773
 10
148.492
 20
100.268
 30
0.000000
  70
    32
  0
VERTEX
  8
0
  5
1E774
 10
148.530
 20
100.275
 30
0.000000
  70
    32
  0
VERTEX
  8
0
  5
1E775
 10
148.569
 20
100.282
 30
0.000000
  70
    32
  0
VERTEX
  8
0
  5
1E776
 10
148.607
 20
100.288
 30
0.000000
  70
    32
  0
VERTEX
  8
0
  5
1E777
 10
148.646
 20
100.295
 30
0.000000
  70
    32
  0
VERTEX
  8
0
  5
1E778
 10
148.684
 20
100.302
 30
0.000000
  70
    32
  0
VERTEX
  8
0
  5
1E779
 10
148.723
 20
100.309
 30
0.000000
  70
    32
  0
VERTEX
  8
0
  5
1E77A
 10
148.761
 20
100.316
 30
0.000000
  70
    32
  0
VERTEX
  8
0
  5
1E77B
 10
148.799
 20
100.323
 30
0.000000
  70
    32
  0
VERTEX
  8
0
  5
1E77C
 10
148.838
 20
100.330
 30
0.000000
  70
    32
  0
VERTEX
  8
0
  5
1E77D
 10
148.876
 20
100.337
 30
0.000000
  70
    32
  0
VERTEX
  8
0
  5
1E77E
 10
148.915
 20
100.344
 30
0.000000
  70
    32
  0
VERTEX
  8
0
  5
1E77F
 10
148.953
 20
100.351
 30
0.000000
  70
    32
  0
VERTEX
  8
0
  5
1E780
 10
148.992
 20
100.358
 30
0.000000
  70
    32
  0
VERTEX
  8
0
  5
1E781
 10
149.030
 20
100.365
 30
0.000000
  70
    32
  0
VERTEX
  8
0
  5
1E782
 10
149.068
 20
100.372
 30
0.000000
  70
    32
  0
VERTEX
  8
0
  5
1E783
 10
149.107
 20
100.380
 30
0.000000
  70
    32
  0
VERTEX
  8
0
  5
1E784
 10
149.145
 20
100.387
 30
0.000000
  70
    32
  0
VERTEX
  8
0
  5
1E785
 10
149.183
 20
100.394
 30
0.000000
  70
    32
  0
VERTEX
  8
0
  5
1E786
 10
149.222
 20
100.401
 30
0.000000
  70
    32
  0
VERTEX
  8
0
  5
1E787
 10
149.260
 20
100.409
 30
0.000000
  70
    32
  0
VERTEX
  8
0
  5
1E788
 10
149.299
 20
100.416
 30
0.000000
  70
    32
  0
VERTEX
  8
0
  5
1E789
 10
149.337
 20
100.423
 30
0.000000
  70
    32
  0
VERTEX
  8
0
  5
1E78A
 10
149.375
 20
100.431
 30
0.000000
  70
    32
  0
VERTEX
  8
0
  5
1E78B
 10
149.414
 20
100.438
 30
0.000000
  70
    32
  0
VERTEX
  8
0
  5
1E78C
 10
149.452
 20
100.446
 30
0.000000
  70
    32
  0
VERTEX
  8
0
  5
1E78D
 10
149.490
 20
100.453
 30
0.000000
  70
    32
  0
VERTEX
  8
0
  5
1E78E
 10
149.528
 20
100.461
 30
0.000000
  70
    32
  0
VERTEX
  8
0
  5
1E78F
 10
149.567
 20
100.468
 30
0.000000
  70
    32
  0
VERTEX
  8
0
  5
1E790
 10
149.605
 20
100.476
 30
0.000000
  70
    32
  0
VERTEX
  8
0
  5
1E791
 10
149.643
 20
100.484
 30
0.000000
  70
    32
  0
VERTEX
  8
0
  5
1E792
 10
149.682
 20
100.491
 30
0.000000
  70
    32
  0
VERTEX
  8
0
  5
1E793
 10
149.720
 20
100.499
 30
0.000000
  70
    32
  0
VERTEX
  8
0
  5
1E794
 10
149.758
 20
100.507
 30
0.000000
  70
    32
  0
VERTEX
  8
0
  5
1E795
 10
149.797
 20
100.514
 30
0.000000
  70
    32
  0
VERTEX
  8
0
  5
1E796
 10
149.835
 20
100.522
 30
0.000000
  70
    32
  0
VERTEX
  8
0
  5
1E797
 10
149.873
 20
100.530
 30
0.000000
  70
    32
  0
VERTEX
  8
0
  5
1E798
 10
149.911
 20
100.538
 30
0.000000
  70
    32
  0
VERTEX
  8
0
  5
1E799
 10
149.950
 20
100.546
 30
0.000000
  70
    32
  0
VERTEX
  8
0
  5
1E79A
 10
149.988
 20
100.554
 30
0.000000
  70
    32
  0
VERTEX
  8
0
  5
1E79B
 10
150.026
 20
100.562
 30
0.000000
  70
    32
  0
VERTEX
  8
0
  5
1E79C
 10
150.064
 20
100.570
 30
0.000000
  70
    32
  0
VERTEX
  8
0
  5
1E79D
 10
150.102
 20
100.578
 30
0.000000
  70
    32
  0
VERTEX
  8
0
  5
1E79E
 10
150.141
 20
100.586
 30
0.000000
  70
    32
  0
VERTEX
  8
0
  5
1E79F
 10
150.179
 20
100.594
 30
0.000000
  70
    32
  0
VERTEX
  8
0
  5
1E7A0
 10
150.217
 20
100.602
 30
0.000000
  70
    32
  0
VERTEX
  8
0
  5
1E7A1
 10
150.255
 20
100.610
 30
0.000000
  70
    32
  0
VERTEX
  8
0
  5
1E7A2
 10
150.294
 20
100.618
 30
0.000000
  70
    32
  0
VERTEX
  8
0
  5
1E7A3
 10
150.332
 20
100.626
 30
0.000000
  70
    32
  0
VERTEX
  8
0
  5
1E7A4
 10
150.370
 20
100.634
 30
0.000000
  70
    32
  0
VERTEX
  8
0
  5
1E7A5
 10
150.408
 20
100.643
 30
0.000000
  70
    32
  0
VERTEX
  8
0
  5
1E7A6
 10
150.446
 20
100.651
 30
0.000000
  70
    32
  0
VERTEX
  8
0
  5
1E7A7
 10
150.484
 20
100.659
 30
0.000000
  70
    32
  0
VERTEX
  8
0
  5
1E7A8
 10
150.523
 20
100.668
 30
0.000000
  70
    32
  0
VERTEX
  8
0
  5
1E7A9
 10
150.561
 20
100.676
 30
0.000000
  70
    32
  0
VERTEX
  8
0
  5
1E7AA
 10
150.599
 20
100.684
 30
0.000000
  70
    32
  0
VERTEX
  8
0
  5
1E7AB
 10
150.637
 20
100.693
 30
0.000000
  70
    32
  0
VERTEX
  8
0
  5
1E7AC
 10
150.675
 20
100.701
 30
0.000000
  70
    32
  0
VERTEX
  8
0
  5
1E7AD
 10
150.713
 20
100.710
 30
0.000000
  70
    32
  0
VERTEX
  8
0
  5
1E7AE
 10
150.751
 20
100.718
 30
0.000000
  70
    32
  0
VERTEX
  8
0
  5
1E7AF
 10
150.789
 20
100.727
 30
0.000000
  70
    32
  0
VERTEX
  8
0
  5
1E7B0
 10
150.827
 20
100.735
 30
0.000000
  70
    32
  0
VERTEX
  8
0
  5
1E7B1
 10
150.866
 20
100.744
 30
0.000000
  70
    32
  0
VERTEX
  8
0
  5
1E7B2
 10
150.904
 20
100.753
 30
0.000000
  70
    32
  0
VERTEX
  8
0
  5
1E7B3
 10
150.942
 20
100.761
 30
0.000000
  70
    32
  0
VERTEX
  8
0
  5
1E7B4
 10
150.980
 20
100.770
 30
0.000000
  70
    32
  0
VERTEX
  8
0
  5
1E7B5
 10
151.018
 20
100.779
 30
0.000000
  70
    32
  0
VERTEX
  8
0
  5
1E7B6
 10
151.056
 20
100.787
 30
0.000000
  70
    32
  0
VERTEX
  8
0
  5
1E7B7
 10
151.094
 20
100.796
 30
0.000000
  70
    32
  0
VERTEX
  8
0
  5
1E7B8
 10
151.132
 20
100.805
 30
0.000000
  70
    32
  0
VERTEX
  8
0
  5
1E7B9
 10
151.170
 20
100.814
 30
0.000000
  70
    32
  0
VERTEX
  8
0
  5
1E7BA
 10
151.208
 20
100.823
 30
0.000000
  70
    32
  0
VERTEX
  8
0
  5
1E7BB
 10
151.246
 20
100.832
 30
0.000000
  70
    32
  0
VERTEX
  8
0
  5
1E7BC
 10
151.284
 20
100.841
 30
0.000000
  70
    32
  0
VERTEX
  8
0
  5
1E7BD
 10
151.322
 20
100.850
 30
0.000000
  70
    32
  0
VERTEX
  8
0
  5
1E7BE
 10
151.360
 20
100.859
 30
0.000000
  70
    32
  0
VERTEX
  8
0
  5
1E7BF
 10
151.398
 20
100.868
 30
0.000000
  70
    32
  0
VERTEX
  8
0
  5
1E7C0
 10
151.436
 20
100.877
 30
0.000000
  70
    32
  0
VERTEX
  8
0
  5
1E7C1
 10
151.474
 20
100.886
 30
0.000000
  70
    32
  0
VERTEX
  8
0
  5
1E7C2
 10
151.512
 20
100.895
 30
0.000000
  70
    32
  0
VERTEX
  8
0
  5
1E7C3
 10
151.550
 20
100.904
 30
0.000000
  70
    32
  0
VERTEX
  8
0
  5
1E7C4
 10
151.588
 20
100.913
 30
0.000000
  70
    32
  0
VERTEX
  8
0
  5
1E7C5
 10
151.626
 20
100.922
 30
0.000000
  70
    32
  0
VERTEX
  8
0
  5
1E7C6
 10
151.664
 20
100.932
 30
0.000000
  70
    32
  0
VERTEX
  8
0
  5
1E7C7
 10
151.702
 20
100.941
 30
0.000000
  70
    32
  0
VERTEX
  8
0
  5
1E7C8
 10
151.740
 20
100.950
 30
0.000000
  70
    32
  0
VERTEX
  8
0
  5
1E7C9
 10
151.778
 20
100.960
 30
0.000000
  70
    32
  0
VERTEX
  8
0
  5
1E7CA
 10
151.816
 20
100.969
 30
0.000000
  70
    32
  0
VERTEX
  8
0
  5
1E7CB
 10
151.853
 20
100.978
 30
0.000000
  70
    32
  0
VERTEX
  8
0
  5
1E7CC
 10
151.891
 20
100.988
 30
0.000000
  70
    32
  0
VERTEX
  8
0
  5
1E7CD
 10
151.929
 20
100.997
 30
0.000000
  70
    32
  0
VERTEX
  8
0
  5
1E7CE
 10
151.967
 20
101.007
 30
0.000000
  70
    32
  0
VERTEX
  8
0
  5
1E7CF
 10
152.005
 20
101.016
 30
0.000000
  70
    32
  0
VERTEX
  8
0
  5
1E7D0
 10
152.043
 20
101.026
 30
0.000000
  70
    32
  0
VERTEX
  8
0
  5
1E7D1
 10
152.081
 20
101.035
 30
0.000000
  70
    32
  0
VERTEX
  8
0
  5
1E7D2
 10
152.119
 20
101.045
 30
0.000000
  70
    32
  0
VERTEX
  8
0
  5
1E7D3
 10
152.156
 20
101.055
 30
0.000000
  70
    32
  0
VERTEX
  8
0
  5
1E7D4
 10
152.194
 20
101.064
 30
0.000000
  70
    32
  0
VERTEX
  8
0
  5
1E7D5
 10
152.232
 20
101.074
 30
0.000000
  70
    32
  0
VERTEX
  8
0
  5
1E7D6
 10
152.270
 20
101.084
 30
0.000000
  70
    32
  0
VERTEX
  8
0
  5
1E7D7
 10
152.308
 20
101.094
 30
0.000000
  70
    32
  0
VERTEX
  8
0
  5
1E7D8
 10
152.345
 20
101.103
 30
0.000000
  70
    32
  0
VERTEX
  8
0
  5
1E7D9
 10
152.383
 20
101.113
 30
0.000000
  70
    32
  0
VERTEX
  8
0
  5
1E7DA
 10
152.421
 20
101.123
 30
0.000000
  70
    32
  0
VERTEX
  8
0
  5
1E7DB
 10
152.459
 20
101.133
 30
0.000000
  70
    32
  0
VERTEX
  8
0
  5
1E7DC
 10
152.497
 20
101.143
 30
0.000000
  70
    32
  0
VERTEX
  8
0
  5
1E7DD
 10
152.534
 20
101.153
 30
0.000000
  70
    32
  0
VERTEX
  8
0
  5
1E7DE
 10
152.572
 20
101.163
 30
0.000000
  70
    32
  0
VERTEX
  8
0
  5
1E7DF
 10
152.610
 20
101.173
 30
0.000000
  70
    32
  0
VERTEX
  8
0
  5
1E7E0
 10
152.648
 20
101.183
 30
0.000000
  70
    32
  0
VERTEX
  8
0
  5
1E7E1
 10
152.685
 20
101.193
 30
0.000000
  70
    32
  0
VERTEX
  8
0
  5
1E7E2
 10
152.723
 20
101.203
 30
0.000000
  70
    32
  0
VERTEX
  8
0
  5
1E7E3
 10
152.761
 20
101.213
 30
0.000000
  70
    32
  0
VERTEX
  8
0
  5
1E7E4
 10
152.799
 20
101.223
 30
0.000000
  70
    32
  0
VERTEX
  8
0
  5
1E7E5
 10
152.836
 20
101.234
 30
0.000000
  70
    32
  0
VERTEX
  8
0
  5
1E7E6
 10
152.874
 20
101.244
 30
0.000000
  70
    32
  0
VERTEX
  8
0
  5
1E7E7
 10
152.912
 20
101.254
 30
0.000000
  70
    32
  0
VERTEX
  8
0
  5
1E7E8
 10
152.949
 20
101.264
 30
0.000000
  70
    32
  0
VERTEX
  8
0
  5
1E7E9
 10
152.987
 20
101.275
 30
0.000000
  70
    32
  0
VERTEX
  8
0
  5
1E7EA
 10
153.025
 20
101.285
 30
0.000000
  70
    32
  0
VERTEX
  8
0
  5
1E7EB
 10
153.062
 20
101.295
 30
0.000000
  70
    32
  0
VERTEX
  8
0
  5
1E7EC
 10
153.100
 20
101.306
 30
0.000000
  70
    32
  0
VERTEX
  8
0
  5
1E7ED
 10
153.138
 20
101.316
 30
0.000000
  70
    32
  0
VERTEX
  8
0
  5
1E7EE
 10
153.175
 20
101.327
 30
0.000000
  70
    32
  0
VERTEX
  8
0
  5
1E7EF
 10
153.213
 20
101.337
 30
0.000000
  70
    32
  0
SEQEND
  8
0
  5
1E7F0
  0
LINE
  5
1D46B
  8
0
 10
134.66531606109299
 20
99.967780879788847
 30
0.0
 11
145.83468393890749
 21
99.967780879788805
 31
0.0
  0
LINE
  5
1D46D
  8
0
 10
147.00000000000031
 20
80.391666666666637
 30
0.0
 11
147.00000000000031
 21
83.499999999999986
 31
0.0
  0
LINE
  5
1D46E
  8
0
 10
133.50000000000031
 20
83.499999999999986
 30
0.0
 11
133.50000000000031
 21
80.391666666666637
 31
0.0
  0
LINE
  5
1D46F
  8
0
 10
133.50000000000031
 20
80.391666666666637
 30
0.0
 11
147.00000000000031
 21
80.391666666666637
 31
0.0
  0
LINE
  5
1D471
  8
0
 10
147.00000000000031
 20
78.0
 30
0.0
 11
147.00000000000031
 21
79.275000000000006
 31
0.0
  0
LINE
  5
1D472
  8
0
 10
133.50000000000031
 20
79.275000000000006
 30
0.0
 11
133.50000000000031
 21
78.0
 31
0.0
  0
LINE
  5
1D473
  8
0
 10
133.50000000000031
 20
78.0
 30
0.0
 11
147.00000000000031
 21
78.0
 31
0.0
  0
LINE
  5
1D474
  8
0
 10
133.50000000000031
 20
79.275000000000006
 30
0.0
 11
147.00000000000031
 21
79.275000000000006
 31
0.0
  0
LINE
  5
1D475
  8
0
 10
160.36706341702879
 20
80.291666666666657
 30
0.0
 11
133.9583333333336
 21
80.291666666666657
 31
0.0
  0
LINE
  5
1D476
  8
0
 10
133.9583333333336
 20
79.375
 30
0.0
 11
160.36706341702879
 21
79.375
 31
0.0
  0
ARC
  5
1D477
  8
0
 10
133.9583333333336
 20
79.833333333333343
 30
0.0
 40
0.4583333333333333
 50
90.0
 51
270.0
  0
LINE
  5
1D595
  8
2
 10
163.74468024894199
 20
165.22744460202739
 30
0.0
 11
158.8333333333336
 21
165.22744460202739
 31
0.0
  0
LINE
  5
1D596
  8
2
 10
158.8333333333336
 20
164.22744460202739
 30
0.0
 11
163.74468024894199
 21
164.22744460202739
 31
0.0
  0
ARC
  5
1D598
  8
2
 10
158.8333333333336
 20
164.72744460202739
 30
0.0
 40
0.5
 50
90.0
 51
270.0
  0
LINE
  5
1D59C
  8
0
 10
173.8333333333336
 20
165.22744460202739
 30
0.0
 11
163.74468024894199
 21
165.22744460202739
 31
0.0
  0
LINE
  5
1D59D
  8
0
 10
163.74468024894199
 20
164.22744460202739
 30
0.0
 11
173.8333333333336
 21
164.22744460202739
 31
0.0
  0
ARC
  5
1D59E
  8
0
 10
173.8333333333336
 20
164.72744460202739
 30
0.0
 40
0.5
 50
270.0
 51
90.0
  0
LINE
  5
1D5A1
  8
2
 10
158.62905957422919
 20
167.48096855633449
 30
0.0
 11
156.9108790771981
 21
167.87060433044019
 31
0.0
  0
LINE
  5
1D5A2
  8
2
 10
153.7095241988319
 20
167.65664170236701
 30
0.0
 11
158.42633229696739
 21
166.58700019625019
 31
0.0
  0
ARC
  5
1D5A4
  8
2
 10
158.00119940128619
 20
164.72744460202739
 30
0.0
 40
2.8241994553698571
 50
282.84500458833821
 51
77.154995411662853
  0
LINE
  5
1D5AC
  8
2
 10
158.42633229696739
 20
162.86788900780451
 30
0.0
 11
153.7095241988319
 21
161.7982475016878
 31
0.0
  0
LINE
  5
1D5AD
  8
2
 10
156.9108790771981
 20
161.58428487361459
 30
0.0
 11
158.62905957422919
 21
161.97392064772021
 31
0.0
  0
LINE
  5
1D5C5
  8
1
 10
140.25000000000031
 20
154.97744460202739
 30
0.0
 11
140.25000000000031
 21
174.47744460202739
 31
0.0
  0
LINE
  5
1D5C6
  8
1
 10
252.8333333333336
 20
164.72744460202739
 30
0.0
 11
113.7500000000005
 21
164.72744460202739
 31
0.0
  0
LINE
  5
1D5CD
  8
0
 10
156.9108790771981
 20
167.87060433044019
 30
0.0
 11
141.74280995074599
 21
171.31030252628449
 31
0.0
  0
LINE
  5
1D5CE
  8
0
 10
144.8522653341478
 20
169.6652228265028
 30
0.0
 11
153.7095241988319
 21
167.65664170236701
 31
0.0
  0
LINE
  5
1D5CF
  8
0
 10
153.7095241988319
 20
161.7982475016878
 30
0.0
 11
144.8522653341478
 21
159.7896663775519
 31
0.0
  0
LINE
  5
1D5D0
  8
0
 10
141.74280995074599
 20
158.14458667777029
 30
0.0
 11
156.9108790771981
 21
161.58428487361459
 31
0.0
  0
LINE
  5
1D5D1
  8
0
 10
132.16198493211769
 20
167.29763676413171
 30
0.0
 11
118.2500000000002
 21
168.22744460202739
 31
0.0
  0
LINE
  5
1D5D2
  8
0
 10
148.33801506788279
 20
162.15725243992301
 30
0.0
 11
162.25000000000031
 21
161.22744460202739
 31
0.0
  0
LINE
  5
1D5D3
  8
0
 10
118.2500000000002
 20
161.22744460202739
 30
0.0
 11
132.16198493211769
 21
162.15725243992301
 31
0.0
  0
LINE
  5
1D5D4
  8
0
 10
162.25000000000031
 20
168.22744460202739
 30
0.0
 11
148.33801506788279
 21
167.29763676413171
 31
0.0
  0
POLYLINE
  5
1D5D5
  8
0
 66
     1
 10
0.0
 20
0.0
 30
0.0
  0
VERTEX
  5
1E426
  8
0
 10
134.66531606109299
 20
160.9361644353144
 30
0.0
  0
VERTEX
  5
1E427
  8
0
 10
134.47718798662629
 20
161.18236068706921
 30
0.0
  0
VERTEX
  5
1E428
  8
0
 10
134.26254765058539
 20
161.4070000174695
 30
0.0
  0
VERTEX
  5
1E429
  8
0
 10
134.025502669346
 20
161.60588449743221
 30
0.0
  0
VERTEX
  5
1E42A
  8
0
 10
133.76811414312741
 20
161.77679841390579
 30
0.0
  0
VERTEX
  5
1E42B
  8
0
 10
133.49312891702419
 20
161.91869441530341
 30
0.0
  0
VERTEX
  5
1E42C
  8
0
 10
133.20570775885579
 20
162.0291087688812
 30
0.0
  0
VERTEX
  5
1E42D
  8
0
 10
132.90595991525461
 20
162.1072623958878
 30
0.0
  0
VERTEX
  5
1E42E
  8
0
 10
132.59913699467941
 20
162.15205595473779
 30
0.0
  0
VERTEX
  5
1E42F
  8
0
 10
132.2908296411733
 20
162.16288702643479
 30
0.0
  0
VERTEX
  5
1E430
  8
0
 10
132.16198493211769
 20
162.15725243992301
 30
0.0
  0
SEQEND
  5
1E431
  8
0
  0
ARC
  5
1D5D6
  8
0
 10
140.25000000000031
 20
164.72744460202739
 30
0.0
 40
6.75
 50
214.17144687970281
 51
325.82855312029722
  0
POLYLINE
  5
1D5D7
  8
0
 66
     1
 10
0.0
 20
0.0
 30
0.0
  0
VERTEX
  5
1E432
  8
0
 10
148.33801506788279
 20
162.15725243992301
 30
0.0
  0
VERTEX
  5
1E433
  8
0
 10
148.10634054397769
 20
162.1631083434167
 30
0.0
  0
VERTEX
  5
1E434
  8
0
 10
147.87462824059679
 20
162.14978321003139
 30
0.0
  0
VERTEX
  5
1E435
  8
0
 10
147.63789394348149
 20
162.1159961840151
 30
0.0
  0
VERTEX
  5
1E436
  8
0
 10
147.40452003186061
 20
162.0620643772005
 30
0.0
  0
VERTEX
  5
1E437
  8
0
 10
147.1824488289337
 20
161.9905069267117
 30
0.0
  0
VERTEX
  5
1E438
  8
0
 10
146.9667727470806
 20
161.9005919562689
 30
0.0
  0
VERTEX
  5
1E439
  8
0
 10
146.75300831888529
 20
161.78932232361649
 30
0.0
  0
VERTEX
  5
1E43A
  8
0
 10
146.54932544647281
 20
161.65993863409881
 30
0.0
  0
VERTEX
  5
1E43B
  8
0
 10
146.3502046219451
 20
161.50730048648319
 30
0.0
  0
VERTEX
  5
1E43C
  8
0
 10
146.1653545934069
 20
161.33732576786309
 30
0.0
  0
VERTEX
  5
1E43D
  8
0
 10
145.99073759351921
 20
161.14445143953361
 30
0.0
  0
VERTEX
  5
1E43E
  8
0
 10
145.83468393890749
 20
160.9361644353144
 30
0.0
  0
SEQEND
  5
1E43F
  8
0
  0
POLYLINE
  5
1D5D8
  8
0
 66
     1
 10
0.0
 20
0.0
 30
0.0
  0
VERTEX
  5
1E440
  8
0
 10
145.83468393890749
 20
168.5187247687403
 30
0.0
  0
VERTEX
  5
1E441
  8
0
 10
146.02281201337419
 20
168.27252851698549
 30
0.0
  0
VERTEX
  5
1E442
  8
0
 10
146.23745234941509
 20
168.04788918658531
 30
0.0
  0
VERTEX
  5
1E443
  8
0
 10
146.4744973306546
 20
167.84900470662251
 30
0.0
  0
VERTEX
  5
1E444
  8
0
 10
146.73188585687311
 20
167.6780907901489
 30
0.0
  0
VERTEX
  5
1E445
  8
0
 10
147.0068710829764
 20
167.53619478875129
 30
0.0
  0
VERTEX
  5
1E446
  8
0
 10
147.29429224114469
 20
167.42578043517361
 30
0.0
  0
VERTEX
  5
1E447
  8
0
 10
147.5940400847459
 20
167.34762680816689
 30
0.0
  0
VERTEX
  5
1E448
  8
0
 10
147.9008630053211
 20
167.3028332493169
 30
0.0
  0
VERTEX
  5
1E449
  8
0
 10
148.20917035882721
 20
167.29200217761991
 30
0.0
  0
VERTEX
  5
1E44A
  8
0
 10
148.33801506788279
 20
167.29763676413171
 30
0.0
  0
SEQEND
  5
1E44B
  8
0
  0
ARC
  5
1D5D9
  8
0
 10
140.25000000000031
 20
164.72744460202739
 30
0.0
 40
6.7499999999999991
 50
34.171446879702692
 51
145.82855312029719
  0
POLYLINE
  5
1D5DA
  8
0
 66
     1
 10
0.0
 20
0.0
 30
0.0
  0
VERTEX
  5
1E44C
  8
0
 10
132.16198493211769
 20
167.29763676413171
 30
0.0
  0
VERTEX
  5
1E44D
  8
0
 10
132.3936594560229
 20
167.29178086063811
 30
0.0
  0
VERTEX
  5
1E44E
  8
0
 10
132.62537175940381
 20
167.30510599402331
 30
0.0
  0
VERTEX
  5
1E44F
  8
0
 10
132.862106056519
 20
167.33889302003959
 30
0.0
  0
VERTEX
  5
1E450
  8
0
 10
133.09547996814001
 20
167.39282482685431
 30
0.0
  0
VERTEX
  5
1E451
  8
0
 10
133.31755117106681
 20
167.46438227734311
 30
0.0
  0
VERTEX
  5
1E452
  8
0
 10
133.53322725291989
 20
167.5542972477858
 30
0.0
  0
VERTEX
  5
1E453
  8
0
 10
133.74699168111519
 20
167.66556688043821
 30
0.0
  0
VERTEX
  5
1E454
  8
0
 10
133.95067455352779
 20
167.79495056995589
 30
0.0
  0
VERTEX
  5
1E455
  8
0
 10
134.1497953780555
 20
167.94758871757159
 30
0.0
  0
VERTEX
  5
1E456
  8
0
 10
134.33464540659369
 20
168.1175634361916
 30
0.0
  0
VERTEX
  5
1E457
  8
0
 10
134.5092624064813
 20
168.31043776452111
 30
0.0
  0
VERTEX
  5
1E458
  8
0
 10
134.66531606109299
 20
168.5187247687403
 30
0.0
  0
SEQEND
  5
1E459
  8
0
  0
POLYLINE
  5
1D5DB
  8
0
 66
     1
 10
0.0
 20
0.0
 30
0.0
  0
VERTEX
  5
1E45A
  8
0
 10
143.39285713500021
 20
165.2774446020274
 30
0.0
  0
VERTEX
  5
1E45B
  8
0
 10
143.29351768738439
 20
165.2683471875084
 30
0.0
  0
VERTEX
  5
1E45C
  8
0
 10
143.19608333101601
 20
165.24103984155511
 30
0.0
  0
VERTEX
  5
1E45D
  8
0
 10
143.1032907588426
 20
165.19495114379629
 30
0.0
  0
VERTEX
  5
1E45E
  8
0
 10
143.0191076707834
 20
165.13094347191131
 30
0.0
  0
VERTEX
  5
1E45F
  8
0
 10
142.9529609909022
 20
165.05744186134231
 30
0.0
  0
VERTEX
  5
1E460
  8
0
 10
142.90015430057579
 20
164.97187029001881
 30
0.0
  0
VERTEX
  5
1E461
  8
0
 10
142.866374086929
 20
164.88630718665209
 30
0.0
  0
VERTEX
  5
1E462
  8
0
 10
142.84709599020081
 20
164.79559717224399
 30
0.0
  0
VERTEX
  5
1E463
  8
0
 10
142.84324301314589
 20
164.70846932340621
 30
0.0
  0
VERTEX
  5
1E464
  8
0
 10
142.8530801978649
 20
164.62189433847129
 30
0.0
  0
VERTEX
  5
1E465
  8
0
 10
142.87585099197759
 20
164.53996093893849
 30
0.0
  0
VERTEX
  5
1E466
  8
0
 10
142.9105338345976
 20
164.4631261692825
 30
0.0
  0
VERTEX
  5
1E467
  8
0
 10
142.9571590147664
 20
164.39185661791021
 30
0.0
  0
VERTEX
  5
1E468
  8
0
 10
143.0132701979166
 20
164.32943234443289
 30
0.0
  0
VERTEX
  5
1E469
  8
0
 10
143.0811713882417
 20
164.27433460515539
 30
0.0
  0
VERTEX
  5
1E46A
  8
0
 10
143.15555207563349
 20
164.23127294947261
 30
0.0
  0
VERTEX
  5
1E46B
  8
0
 10
143.2414319828097
 20
164.19873918727171
 30
0.0
  0
VERTEX
  5
1E46C
  8
0
 10
143.3301397422664
 20
164.18103218576229
 30
0.0
  0
VERTEX
  5
1E46D
  8
0
 10
143.42811934725569
 20
164.17861447650901
 30
0.0
  0
VERTEX
  5
1E46E
  8
0
 10
143.5244166804066
 20
164.19341081469511
 30
0.0
  0
VERTEX
  5
1E46F
  8
0
 10
143.6229667206122
 20
164.22794652659559
 30
0.0
  0
VERTEX
  5
1E470
  8
0
 10
143.7141714536302
 20
164.28106235703609
 30
0.0
  0
VERTEX
  5
1E471
  8
0
 10
143.79434958699491
 20
164.35165266005819
 30
0.0
  0
VERTEX
  5
1E472
  8
0
 10
143.8609948196858
 20
164.43874560968879
 30
0.0
  0
VERTEX
  5
1E473
  8
0
 10
143.89856303997709
 20
164.51131765432399
 30
0.0
  0
VERTEX
  5
1E474
  8
0
 10
143.9254571096117
 20
164.59019567837461
 30
0.0
  0
VERTEX
  5
1E475
  8
0
 10
143.94017465043419
 20
164.67392282701451
 30
0.0
  0
VERTEX
  5
1E476
  8
0
 10
143.94192614347
 20
164.75943247376071
 30
0.0
  0
VERTEX
  5
1E477
  8
0
 10
143.93181786306951
 20
164.8368541362249
 30
0.0
  0
VERTEX
  5
1E478
  8
0
 10
143.9112227102666
 20
164.9112845606293
 30
0.0
  0
VERTEX
  5
1E479
  8
0
 10
143.8803737383117
 20
164.98199265548041
 30
0.0
  0
VERTEX
  5
1E47A
  8
0
 10
143.8408638302661
 20
165.04649005489739
 30
0.0
  0
VERTEX
  5
1E47B
  8
0
 10
143.7879120117795
 20
165.11007370912751
 30
0.0
  0
VERTEX
  5
1E47C
  8
0
 10
143.7273587782939
 20
165.1640321083006
 30
0.0
  0
VERTEX
  5
1E47D
  8
0
 10
143.64982405308029
 20
165.21369345682939
 30
0.0
  0
VERTEX
  5
1E47E
  8
0
 10
143.5661253788831
 20
165.24943896565759
 30
0.0
  0
VERTEX
  5
1E47F
  8
0
 10
143.48069528388089
 20
165.2703609777104
 30
0.0
  0
VERTEX
  5
1E480
  8
0
 10
143.39285713500021
 20
165.2774446020274
 30
0.0
  0
SEQEND
  5
1E481
  8
0
  0
POLYLINE
  5
1D5DC
  8
0
 66
     1
 10
0.0
 20
0.0
 30
0.0
  0
VERTEX
  5
1E482
  8
0
 10
137.1071428650003
 20
165.2774446020274
 30
0.0
  0
VERTEX
  5
1E483
  8
0
 10
136.9838803322975
 20
165.2633590898966
 30
0.0
  0
VERTEX
  5
1E484
  8
0
 10
136.86673756655449
 20
165.22212155972721
 30
0.0
  0
VERTEX
  5
1E485
  8
0
 10
136.77588172193171
 20
165.1664214304831
 30
0.0
  0
VERTEX
  5
1E486
  8
0
 10
136.69590694360051
 20
165.09266373754801
 30
0.0
  0
VERTEX
  5
1E487
  8
0
 10
136.64398172273511
 20
165.0239811668626
 30
0.0
  0
VERTEX
  5
1E488
  8
0
 10
136.60252980096519
 20
164.9462268124677
 30
0.0
  0
VERTEX
  5
1E489
  8
0
 10
136.5735096942704
 20
164.860267869257
 30
0.0
  0
VERTEX
  5
1E48A
  8
0
 10
136.5587425329727
 20
164.76936209040679
 30
0.0
  0
VERTEX
  5
1E48B
  8
0
 10
136.5586148864914
 20
164.6880536419597
 30
0.0
  0
VERTEX
  5
1E48C
  8
0
 10
136.57028317893361
 20
164.60793862947219
 30
0.0
  0
VERTEX
  5
1E48D
  8
0
 10
136.59212173463209
 20
164.53453423431219
 30
0.0
  0
VERTEX
  5
1E48E
  8
0
 10
136.62326678635401
 20
164.4659796129487
 30
0.0
  0
VERTEX
  5
1E48F
  8
0
 10
136.66613536811039
 20
164.39883522894519
 30
0.0
  0
VERTEX
  5
1E490
  8
0
 10
136.71704626551769
 20
164.3397273815275
 30
0.0
  0
VERTEX
  5
1E491
  8
0
 10
136.78365255753249
 20
164.28266723641539
 30
0.0
  0
VERTEX
  5
1E492
  8
0
 10
136.85718584864841
 20
164.2375247208463
 30
0.0
  0
VERTEX
  5
1E493
  8
0
 10
136.94781317143119
 20
164.2010643677244
 30
0.0
  0
VERTEX
  5
1E494
  8
0
 10
137.04308557175079
 20
164.1811876449261
 30
0.0
  0
VERTEX
  5
1E495
  8
0
 10
137.1482758179265
 20
164.1790429091985
 30
0.0
  0
VERTEX
  5
1E496
  8
0
 10
137.25316421828671
 20
164.1971826249025
 30
0.0
  0
VERTEX
  5
1E497
  8
0
 10
137.3522353785628
 20
164.23516562087781
 30
0.0
  0
VERTEX
  5
1E498
  8
0
 10
137.44399395142401
 20
164.2926672502999
 30
0.0
  0
VERTEX
  5
1E499
  8
0
 10
137.51753779837131
 20
164.36141163956921
 30
0.0
  0
VERTEX
  5
1E49A
  8
0
 10
137.5784258174767
 20
164.4439091038881
 30
0.0
  0
VERTEX
  5
1E49B
  8
0
 10
137.61956124393529
 20
164.52783155022479
 30
0.0
  0
VERTEX
  5
1E49C
  8
0
 10
137.6462264578127
 20
164.61840846141149
 30
0.0
  0
VERTEX
  5
1E49D
  8
0
 10
137.65665822293539
 20
164.7058625393833
 30
0.0
  0
VERTEX
  5
1E49E
  8
0
 10
137.653106083593
 20
164.79395899102639
 30
0.0
  0
VERTEX
  5
1E49F
  8
0
 10
137.63619807208929
 20
164.87759168801119
 30
0.0
  0
VERTEX
  5
1E4A0
  8
0
 10
137.60690586460009
 20
164.9570898593939
 30
0.0
  0
VERTEX
  5
1E4A1
  8
0
 10
137.56554469120951
 20
165.03128433779841
 30
0.0
  0
VERTEX
  5
1E4A2
  8
0
 10
137.51408758262431
 20
165.09743919225531
 30
0.0
  0
VERTEX
  5
1E4A3
  8
0
 10
137.45083729453751
 20
165.1567812407375
 30
0.0
  0
VERTEX
  5
1E4A4
  8
0
 10
137.38036305787551
 20
165.2047817221063
 30
0.0
  0
VERTEX
  5
1E4A5
  8
0
 10
137.29823498224181
 20
165.24314072905199
 30
0.0
  0
VERTEX
  5
1E4A6
  8
0
 10
137.21237308017089
 20
165.2672840242773
 30
0.0
  0
VERTEX
  5
1E4A7
  8
0
 10
137.1071428650003
 20
165.2774446020274
 30
0.0
  0
SEQEND
  5
1E4A8
  8
0
  0
CIRCLE
  5
1D5DD
  8
0
 10
140.25000000000031
 20
164.72744460202739
 30
0.0
 40
5.0099999999999989
  0
POLYLINE
  5
1D5DE
  8
0
 66
     1
 10
0.0
 20
0.0
 30
0.0
  0
VERTEX
  5
1E4A9
  8
0
 10
141.82142857142881
 20
164.17744460202741
 30
0.0
  0
VERTEX
  5
1E4AA
  8
0
 10
141.72831041052891
 20
164.18544003523269
 30
0.0
  0
VERTEX
  5
1E4AB
  8
0
 10
141.63748446267331
 20
164.20911597571569
 30
0.0
  0
VERTEX
  5
1E4AC
  8
0
 10
141.55156896597049
 20
164.2482696480121
 30
0.0
  0
VERTEX
  5
1E4AD
  8
0
 10
141.47321564769081
 20
164.3017125739371
 30
0.0
  0
VERTEX
  5
1E4AE
  8
0
 10
141.4061583092944
 20
164.3669116423435
 30
0.0
  0
VERTEX
  5
1E4AF
  8
0
 10
141.35086635323361
 20
164.4427145565331
 30
0.0
  0
VERTEX
  5
1E4B0
  8
0
 10
141.30988693059581
 20
164.5255494971436
 30
0.0
  0
VERTEX
  5
1E4B1
  8
0
 10
141.2832165564148
 20
164.61418460514159
 30
0.0
  0
VERTEX
  5
1E4B2
  8
0
 10
141.271929720934
 20
164.7053218007851
 30
0.0
  0
VERTEX
  5
1E4B3
  8
0
 10
141.27585538260661
 20
164.79708579413631
 30
0.0
  0
VERTEX
  5
1E4B4
  8
0
 10
141.29501907018081
 20
164.8866056989074
 30
0.0
  0
VERTEX
  5
1E4B5
  8
0
 10
141.32861646282061
 20
164.97164989600989
 30
0.0
  0
VERTEX
  5
1E4B6
  8
0
 10
141.37589925771289
 20
165.0498472773437
 30
0.0
  0
VERTEX
  5
1E4B7
  8
0
 10
141.43521981872959
 20
165.1190346929879
 30
0.0
  0
VERTEX
  5
1E4B8
  8
0
 10
141.50542385821339
 20
165.1775360493134
 30
0.0
  0
VERTEX
  5
1E4B9
  8
0
 10
141.58395450681471
 20
165.22353538871431
 30
0.0
  0
VERTEX
  5
1E4BA
  8
0
 10
141.66984372247711
 20
165.25608960451501
 30
0.0
  0
VERTEX
  5
1E4BB
  8
0
 10
141.75952297967859
 20
165.27394958618581
 30
0.0
  0
VERTEX
  5
1E4BC
  8
0
 10
141.85256605023679
 20
165.2765123029898
 30
0.0
  0
VERTEX
  5
1E4BD
  8
0
 10
141.94446951862841
 20
165.26350516326301
 30
0.0
  0
VERTEX
  5
1E4BE
  8
0
 10
142.03471178395651
 20
165.2343499936012
 30
0.0
  0
VERTEX
  5
1E4BF
  8
0
 10
142.11874773811999
 20
165.19015543302021
 30
0.0
  0
VERTEX
  5
1E4C0
  8
0
 10
142.19460975051169
 20
165.1313894033288
 30
0.0
  0
VERTEX
  5
1E4C1
  8
0
 10
142.2595084426589
 20
165.05998937558891
 30
0.0
  0
VERTEX
  5
1E4C2
  8
0
 10
142.31008212708929
 20
164.9797253969414
 30
0.0
  0
VERTEX
  5
1E4C3
  8
0
 10
142.34640994730611
 20
164.89144019642549
 30
0.0
  0
VERTEX
  5
1E4C4
  8
0
 10
142.36627230777529
 20
164.80211297729301
 30
0.0
  0
VERTEX
  5
1E4C5
  8
0
 10
142.37116821097129
 20
164.7105233516084
 30
0.0
  0
VERTEX
  5
1E4C6
  8
0
 10
142.3613115197536
 20
164.62272124664091
 30
0.0
  0
VERTEX
  5
1E4C7
  8
0
 10
142.3377194824385
 20
164.5378563766314
 30
0.0
  0
VERTEX
  5
1E4C8
  8
0
 10
142.30093524441821
 20
164.4581443533902
 30
0.0
  0
VERTEX
  5
1E4C9
  8
0
 10
142.25233848254089
 20
164.3856600960805
 30
0.0
  0
VERTEX
  5
1E4CA
  8
0
 10
142.19084555988101
 20
164.3200349518051
 30
0.0
  0
VERTEX
  5
1E4CB
  8
0
 10
142.11991510550661
 20
164.26548595780241
 30
0.0
  0
VERTEX
  5
1E4CC
  8
0
 10
142.0376147034834
 20
164.22176635463839
 30
0.0
  0
VERTEX
  5
1E4CD
  8
0
 10
141.94925798502209
 20
164.19250568867329
 30
0.0
  0
VERTEX
  5
1E4CE
  8
0
 10
141.82142857142881
 20
164.17744460202741
 30
0.0
  0
SEQEND
  5
1E4CF
  8
0
  0
POLYLINE
  5
1D5DF
  8
0
 66
     1
 10
0.0
 20
0.0
 30
0.0
  0
VERTEX
  5
1E4D0
  8
0
 10
138.6785714285717
 20
164.17744460202741
 30
0.0
  0
VERTEX
  5
1E4D1
  8
0
 10
138.58340693201629
 20
164.18579539204029
 30
0.0
  0
VERTEX
  5
1E4D2
  8
0
 10
138.49124392281001
 20
164.21032913563221
 30
0.0
  0
VERTEX
  5
1E4D3
  8
0
 10
138.4047074890469
 20
164.25053866550871
 30
0.0
  0
VERTEX
  5
1E4D4
  8
0
 10
138.32615148470779
 20
164.30518853852209
 30
0.0
  0
VERTEX
  5
1E4D5
  8
0
 10
138.25821522303821
 20
164.37285607965941
 30
0.0
  0
VERTEX
  5
1E4D6
  8
0
 10
138.20265718681779
 20
164.4517534079427
 30
0.0
  0
VERTEX
  5
1E4D7
  8
0
 10
138.16277567917331
 20
164.53670405273269
 30
0.0
  0
VERTEX
  5
1E4D8
  8
0
 10
138.13769928687839
 20
164.6276581984439
 30
0.0
  0
VERTEX
  5
1E4D9
  8
0
 10
138.12872349220069
 20
164.71741180581421
 30
0.0
  0
VERTEX
  5
1E4DA
  8
0
 10
138.13442314164371
 20
164.80746111178229
 30
0.0
  0
VERTEX
  5
1E4DB
  8
0
 10
138.154138870606
 20
164.89301861497549
 30
0.0
  0
VERTEX
  5
1E4DC
  8
0
 10
138.18694712757869
 20
164.9740324092547
 30
0.0
  0
VERTEX
  5
1E4DD
  8
0
 10
138.23278249367999
 20
165.04950533020801
 30
0.0
  0
VERTEX
  5
1E4DE
  8
0
 10
138.28965799310569
 20
165.11634862580971
 30
0.0
  0
VERTEX
  5
1E4DF
  8
0
 10
138.35919607890469
 20
165.17516104955189
 30
0.0
  0
VERTEX
  5
1E4E0
  8
0
 10
138.43711927800871
 20
165.22161143518039
 30
0.0
  0
VERTEX
  5
1E4E1
  8
0
 10
138.52502183856541
 20
165.2555227704319
 30
0.0
  0
VERTEX
  5
1E4E2
  8
0
 10
138.61743342392731
 20
165.27403598906901
 30
0.0
  0
VERTEX
  5
1E4E3
  8
0
 10
138.71324510565611
 20
165.27629169246049
 30
0.0
  0
VERTEX
  5
1E4E4
  8
0
 10
138.80836776703961
 20
165.26190967153181
 30
0.0
  0
VERTEX
  5
1E4E5
  8
0
 10
138.89875786424599
 20
165.2313782062696
 30
0.0
  0
VERTEX
  5
1E4E6
  8
0
 10
138.98294851773471
 20
165.18554348610439
 30
0.0
  0
VERTEX
  5
1E4E7
  8
0
 10
139.05643847038991
 20
165.12700558967319
 30
0.0
  0
VERTEX
  5
1E4E8
  8
0
 10
139.11918930982549
 20
165.05661914952361
 30
0.0
  0
VERTEX
  5
1E4E9
  8
0
 10
139.168154624696
 20
164.97793206866911
 30
0.0
  0
VERTEX
  5
1E4EA
  8
0
 10
139.2033754646975
 20
164.89200682024909
 30
0.0
  0
VERTEX
  5
1E4EB
  8
0
 10
139.22340289747069
 20
164.80225545818601
 30
0.0
  0
VERTEX
  5
1E4EC
  8
0
 10
139.22830657286681
 20
164.7103779348995
 30
0.0
  0
VERTEX
  5
1E4ED
  8
0
 10
139.21779202433731
 20
164.61936962713341
 30
0.0
  0
VERTEX
  5
1E4EE
  8
0
 10
139.19244775755209
 20
164.53140603818429
 30
0.0
  0
VERTEX
  5
1E4EF
  8
0
 10
139.15282734453291
 20
164.4490187590776
 30
0.0
  0
VERTEX
  5
1E4F0
  8
0
 10
139.1003278126079
 20
164.374426822695
 30
0.0
  0
VERTEX
  5
1E4F1
  8
0
 10
139.03604014773799
 20
164.30952489474879
 30
0.0
  0
VERTEX
  5
1E4F2
  8
0
 10
138.96225197718709
 20
164.25624894591701
 30
0.0
  0
VERTEX
  5
1E4F3
  8
0
 10
138.88004710811941
 20
164.2157313954342
 30
0.0
  0
VERTEX
  5
1E4F4
  8
0
 10
138.79269313297729
 20
164.18941464321139
 30
0.0
  0
VERTEX
  5
1E4F5
  8
0
 10
138.67857142857179
 20
164.1774446020269
 30
0.0
  0
SEQEND
  5
1E4F6
  8
0
  0
POLYLINE
  5
1D5E0
  8
0
 66
     1
 10
0.0
 20
0.0
 30
0.0
  0
VERTEX
  5
1E4F7
  8
0
 10
140.25000000000031
 20
164.17744460202741
 30
0.0
  0
VERTEX
  5
1E4F8
  8
0
 10
140.15784496143431
 20
164.18527639975571
 30
0.0
  0
VERTEX
  5
1E4F9
  8
0
 10
140.0682917143769
 20
164.20832794949561
 30
0.0
  0
VERTEX
  5
1E4FA
  8
0
 10
139.98394260076071
 20
164.24614081750519
 30
0.0
  0
VERTEX
  5
1E4FB
  8
0
 10
139.90707404839461
 20
164.29744251864241
 30
0.0
  0
VERTEX
  5
1E4FC
  8
0
 10
139.83983380673101
 20
164.3611066674269
 30
0.0
  0
VERTEX
  5
1E4FD
  8
0
 10
139.7841376009826
 20
164.4350882694784
 30
0.0
  0
VERTEX
  5
1E4FE
  8
0
 10
139.7416829904241
 20
164.51755772819189
 30
0.0
  0
VERTEX
  5
1E4FF
  8
0
 10
139.71358034481671
 20
164.60597874866599
 30
0.0
  0
VERTEX
  5
1E500
  8
0
 10
139.70086144358811
 20
164.69769022376741
 30
0.0
  0
VERTEX
  5
1E501
  8
0
 10
139.70359702069899
 20
164.79024415784349
 30
0.0
  0
VERTEX
  5
1E502
  8
0
 10
139.72186326123881
 20
164.88077784862151
 30
0.0
  0
VERTEX
  5
1E503
  8
0
 10
139.7549100475635
 20
164.96699822649629
 30
0.0
  0
VERTEX
  5
1E504
  8
0
 10
139.80205998077571
 20
165.04648986653069
 30
0.0
  0
VERTEX
  5
1E505
  8
0
 10
139.8617623885352
 20
165.11702329374941
 30
0.0
  0
VERTEX
  5
1E506
  8
0
 10
139.9327259716429
 20
165.17664011507139
 30
0.0
  0
VERTEX
  5
1E507
  8
0
 10
140.01265096174291
 20
165.22359521831069
 30
0.0
  0
VERTEX
  5
1E508
  8
0
 10
140.09939946447571
 20
165.25636607269149
 30
0.0
  0
VERTEX
  5
1E509
  8
0
 10
140.19042060298329
 20
165.27420807506769
 30
0.0
  0
VERTEX
  5
1E50A
  8
0
 10
140.28288998259211
 20
165.2764045253671
 30
0.0
  0
VERTEX
  5
1E50B
  8
0
 10
140.37443014336421
 20
165.26318440773761
 30
0.0
  0
VERTEX
  5
1E50C
  8
0
 10
140.46228988456269
 20
165.2347638750966
 30
0.0
  0
VERTEX
  5
1E50D
  8
0
 10
140.5441864685954
 20
165.1921534589427
 30
0.0
  0
VERTEX
  5
1E50E
  8
0
 10
140.6178782011651
 20
165.13623019752509
 30
0.0
  0
VERTEX
  5
1E50F
  8
0
 10
140.6812302124635
 20
165.06882489416341
 30
0.0
  0
VERTEX
  5
1E510
  8
0
 10
140.7324103484203
 20
164.99148868761571
 30
0.0
  0
VERTEX
  5
1E511
  8
0
 10
140.76997677979631
 20
164.90667670984541
 30
0.0
  0
VERTEX
  5
1E512
  8
0
 10
140.79263329657161
 20
164.8168172881312
 30
0.0
  0
VERTEX
  5
1E513
  8
0
 10
140.79999170365801
 20
164.7244236903
 30
0.0
  0
VERTEX
  5
1E514
  8
0
 10
140.79166715090449
 20
164.63238769936109
 30
0.0
  0
VERTEX
  5
1E515
  8
0
 10
140.7681617947766
 20
164.54303106013251
 30
0.0
  0
VERTEX
  5
1E516
  8
0
 10
140.7299450830088
 20
164.45894358832331
 30
0.0
  0
VERTEX
  5
1E517
  8
0
 10
140.67829846301831
 20
164.3823932629829
 30
0.0
  0
VERTEX
  5
1E518
  8
0
 10
140.61429843438319
 20
164.31546593627371
 30
0.0
  0
VERTEX
  5
1E519
  8
0
 10
140.54003678055321
 20
164.26013457011439
 30
0.0
  0
VERTEX
  5
1E51A
  8
0
 10
140.45735748960601
 20
164.21809056254949
 30
0.0
  0
VERTEX
  5
1E51B
  8
0
 10
140.36879814625149
 20
164.19042784209589
 30
0.0
  0
VERTEX
  5
1E51C
  8
0
 10
140.25000000000031
 20
164.17744460202741
 30
0.0
  0
SEQEND
  5
1E51D
  8
0
  0
POLYLINE
  5
1D5E2
  8
0
 66
     1
 10
0.0
 20
0.0
 30
0.0
  0
VERTEX
  5
1E51E
  8
0
 10
163.64366515203901
 20
162.49441286148081
 30
0.0
  0
VERTEX
  5
1E51F
  8
0
 10
163.64298012149919
 20
162.4874218142071
 30
0.0
  0
VERTEX
  5
1E520
  8
0
 10
163.6225186457529
 20
162.3514198856567
 30
0.0
  0
VERTEX
  5
1E521
  8
0
 10
163.5886966864297
 20
162.2176993375727
 30
0.0
  0
VERTEX
  5
1E522
  8
0
 10
163.54120406479711
 20
162.08634393794759
 30
0.0
  0
VERTEX
  5
1E523
  8
0
 10
163.48028310513439
 20
161.95931027330181
 30
0.0
  0
VERTEX
  5
1E524
  8
0
 10
163.40410676620141
 20
161.83495646890989
 30
0.0
  0
VERTEX
  5
1E525
  8
0
 10
163.31396089645759
 20
161.71750657622039
 30
0.0
  0
VERTEX
  5
1E526
  8
0
 10
163.20887163717589
 20
161.6073615533461
 30
0.0
  0
VERTEX
  5
1E527
  8
0
 10
163.0896630276273
 20
161.50719195193631
 30
0.0
  0
VERTEX
  5
1E528
  8
0
 10
162.9168488670372
 20
161.39646426565659
 30
0.0
  0
VERTEX
  5
1E529
  8
0
 10
162.72034694146689
 20
161.3088188952201
 30
0.0
  0
VERTEX
  5
1E52A
  8
0
 10
162.6114998105366
 20
161.27491990705241
 30
0.0
  0
VERTEX
  5
1E52B
  8
0
 10
162.49706522532409
 20
161.2494174707866
 30
0.0
  0
VERTEX
  5
1E52C
  8
0
 10
162.37610533409759
 20
161.2331327879551
 30
0.0
  0
VERTEX
  5
1E52D
  8
0
 10
162.25000000000031
 20
161.22744460202739
 30
0.0
  0
SEQEND
  5
1E52E
  8
0
  0
POLYLINE
  5
1D5E3
  8
0
 66
     1
 10
0.0
 20
0.0
 30
0.0
  0
VERTEX
  5
1E52F
  8
0
 10
162.25000000000031
 20
168.22744460202739
 30
0.0
  0
VERTEX
  5
1E530
  8
0
 10
162.4417582926614
 20
168.21426430340139
 30
0.0
  0
VERTEX
  5
1E531
  8
0
 10
162.62097992964991
 20
168.17739789447759
 30
0.0
  0
VERTEX
  5
1E532
  8
0
 10
162.79010830188949
 20
168.11907349444479
 30
0.0
  0
VERTEX
  5
1E533
  8
0
 10
162.9446133483676
 20
168.0429742381408
 30
0.0
  0
VERTEX
  5
1E534
  8
0
 10
163.09293887421481
 20
167.94525363159079
 30
0.0
  0
VERTEX
  5
1E535
  8
0
 10
163.22410342833359
 20
167.8330025398686
 30
0.0
  0
VERTEX
  5
1E536
  8
0
 10
163.33776130094731
 20
167.708793200575
 30
0.0
  0
VERTEX
  5
1E537
  8
0
 10
163.43628220225489
 20
167.5709018384581
 30
0.0
  0
VERTEX
  5
1E538
  8
0
 10
163.51633163194921
 20
167.42442881637041
 30
0.0
  0
VERTEX
  5
1E539
  8
0
 10
163.57774362822511
 20
167.27140052068191
 30
0.0
  0
VERTEX
  5
1E53A
  8
0
 10
163.6188491757004
 20
167.121131398096
 30
0.0
  0
VERTEX
  5
1E53B
  8
0
 10
163.64298012149931
 20
166.96746738984621
 30
0.0
  0
VERTEX
  5
1E53C
  8
0
 10
163.64366515838529
 20
166.96047627623679
 30
0.0
  0
SEQEND
  5
1E53D
  8
0
  0
ARC
  5
1D5E4
  8
0
 10
140.2500000000002
 20
164.72744460202739
 30
0.0
 40
23.500000000000341
 50
354.5474212249967
 51
5.4525747012121144
  0
POLYLINE
  5
1D5E6
  8
0
 66
     1
 10
0.0
 20
0.0
 30
0.0
  0
VERTEX
  5
1E53E
  8
0
 10
116.85633484796151
 20
166.960476342574
 30
0.0
  0
VERTEX
  5
1E53F
  8
0
 10
116.8570198785014
 20
166.9674673898476
 30
0.0
  0
VERTEX
  5
1E540
  8
0
 10
116.87748135424761
 20
167.10346931839811
 30
0.0
  0
VERTEX
  5
1E541
  8
0
 10
116.9113033135709
 20
167.23718986648211
 30
0.0
  0
VERTEX
  5
1E542
  8
0
 10
116.9587959352034
 20
167.36854526610711
 30
0.0
  0
VERTEX
  5
1E543
  8
0
 10
117.01971689486609
 20
167.49557893075291
 30
0.0
  0
VERTEX
  5
1E544
  8
0
 10
117.0958932337992
 20
167.61993273514491
 30
0.0
  0
VERTEX
  5
1E545
  8
0
 10
117.1860391035428
 20
167.73738262783439
 30
0.0
  0
VERTEX
  5
1E546
  8
0
 10
117.29112836282469
 20
167.8475276507086
 30
0.0
  0
VERTEX
  5
1E547
  8
0
 10
117.4103369723732
 20
167.94769725211839
 30
0.0
  0
VERTEX
  5
1E548
  8
0
 10
117.58315113296329
 20
168.0584249383981
 30
0.0
  0
VERTEX
  5
1E549
  8
0
 10
117.7796530585336
 20
168.1460703088346
 30
0.0
  0
VERTEX
  5
1E54A
  8
0
 10
117.8885001894639
 20
168.17996929700229
 30
0.0
  0
VERTEX
  5
1E54B
  8
0
 10
118.0029347746764
 20
168.2054717332681
 30
0.0
  0
VERTEX
  5
1E54C
  8
0
 10
118.1238946659029
 20
168.22175641609959
 30
0.0
  0
VERTEX
  5
1E54D
  8
0
 10
118.2500000000002
 20
168.22744460202739
 30
0.0
  0
SEQEND
  5
1E54E
  8
0
  0
POLYLINE
  5
1D5E7
  8
0
 66
     1
 10
0.0
 20
0.0
 30
0.0
  0
VERTEX
  5
1E54F
  8
0
 10
118.2500000000002
 20
161.22744460202739
 30
0.0
  0
VERTEX
  5
1E550
  8
0
 10
118.05824170733921
 20
161.2406249006533
 30
0.0
  0
VERTEX
  5
1E551
  8
0
 10
117.87902007035071
 20
161.2774913095771
 30
0.0
  0
VERTEX
  5
1E552
  8
0
 10
117.70989169811099
 20
161.3358157096099
 30
0.0
  0
VERTEX
  5
1E553
  8
0
 10
117.5553866516329
 20
161.41191496591401
 30
0.0
  0
VERTEX
  5
1E554
  8
0
 10
117.4070611257858
 20
161.50963557246399
 30
0.0
  0
VERTEX
  5
1E555
  8
0
 10
117.27589657166691
 20
161.62188666418609
 30
0.0
  0
VERTEX
  5
1E556
  8
0
 10
117.1622386990532
 20
161.74609600347969
 30
0.0
  0
VERTEX
  5
1E557
  8
0
 10
117.0637177977456
 20
161.8839873655966
 30
0.0
  0
VERTEX
  5
1E558
  8
0
 10
116.9836683680514
 20
162.03046038768429
 30
0.0
  0
VERTEX
  5
1E559
  8
0
 10
116.9222563717754
 20
162.1834886833729
 30
0.0
  0
VERTEX
  5
1E55A
  8
0
 10
116.88115082430009
 20
162.33375780595881
 30
0.0
  0
VERTEX
  5
1E55B
  8
0
 10
116.8570198785013
 20
162.48742181420829
 30
0.0
  0
VERTEX
  5
1E55C
  8
0
 10
116.85633484161519
 20
162.4944129278179
 30
0.0
  0
SEQEND
  5
1E55D
  8
0
  0
ARC
  5
1D5E8
  8
0
 10
140.25000000000051
 20
164.72744460202739
 30
0.0
 40
23.50000000000049
 50
174.54734649757211
 51
185.45267901805821
  0
LINE
  5
1D9CA
  8
0
 10
46.0
 20
74.833333333333314
 30
0.0
 11
46.0
 21
75.833333333333314
 31
0.0
  0
LINE
  5
1D9CB
  8
0
 10
46.0
 20
74.833333333333314
 30
0.0
 11
46.999999999999993
 21
74.833333333333314
 31
0.0
  0
LINE
  5
1D9CC
  8
0
 10
54.0
 20
75.833333333333314
 30
0.0
 11
54.0
 21
74.833333333333314
 31
0.0
  0
LINE
  5
1D9CD
  8
0
 10
53.0
 20
74.833333333333314
 30
0.0
 11
54.0
 21
74.833333333333314
 31
0.0
  0
LINE
  5
1D9D6
  8
0
 10
46.999999999999993
 20
75.022965276373824
 30
0.0
 11
46.0
 21
75.022965276373824
 31
0.0
  0
LINE
  5
1D9D9
  8
0
 10
54.0
 20
75.022965276373824
 30
0.0
 11
53.0
 21
75.022965276373824
 31
0.0
  0
LINE
  5
1D9DA
  8
0
 10
45.0
 20
75.833333333333314
 30
0.0
 11
45.0
 21
78.0
 31
0.0
  0
LINE
  5
1D9DB
  8
0
 10
46.999999999999993
 20
75.833333333333314
 30
0.0
 11
45.0
 21
75.833333333333314
 31
0.0
  0
LINE
  5
1D9DC
  8
0
 10
55.0
 20
75.833333333333314
 30
0.0
 11
53.0
 21
75.833333333333314
 31
0.0
  0
LINE
  5
1D9DD
  8
0
 10
55.0
 20
78.0
 30
0.0
 11
55.0
 21
75.833333333333314
 31
0.0
  0
LINE
  5
1DA8C
  8
1
 10
50.0
 20
50.0
 30
0.0
 11
50.0
 21
105.0000000000001
 31
0.0
  0
LINE
  5
1DA8F
  8
1
 10
44.189583333333303
 20
79.8333333333334
 30
0.0
 11
43.227083333333383
 21
79.8333333333334
 31
0.0
  0
LINE
  5
1DA91
  8
1
 10
58.24999999999995
 20
79.833333333333371
 30
0.0
 11
41.750000000000028
 21
79.833333333333371
 31
0.0
  0
ARC
  5
1DA97
  8
0
 10
50.0
 20
95.283010427367458
 30
0.0
 40
6.7169895726326123
 50
44.222845804198208
 51
60.259232360214789
  0
ARC
  5
1DA98
  8
0
 10
50.000000000000227
 20
95.283010427367117
 30
0.0
 40
6.7169895726329489
 50
119.7348522607024
 51
135.7771541957994
  0
ARC
  5
1DA99
  8
0
 10
56.581612318840598
 20
79.833333333333343
 30
0.0
 40
0.5982789855072606
 50
230.00373096165811
 51
248.944427760075
  0
ARC
  5
1DA9A
  8
0
 10
56.581612318840598
 20
79.833333333333343
 30
0.0
 40
0.5982789855072472
 50
111.0555722399249
 51
129.99626903834189
  0
ARC
  5
1DA9B
  8
0
 10
43.418387681159402
 20
79.833333333333343
 30
0.0
 40
0.5982789855072375
 50
50.0037309616581
 51
68.944427760075015
  0
ARC
  5
1DA9C
  8
0
 10
43.418387681159402
 20
79.833333333333286
 30
0.0
 40
0.5982789855072054
 50
291.05557223992503
 51
309.99626903834172
  0
LINE
  5
1DA9D
  8
0
 10
43.25
 20
78.0
 30
0.0
 11
56.75
 21
78.0
 31
0.0
  0
LINE
  5
1DA9E
  8
0
 10
43.25
 20
79.275000000000006
 30
0.0
 11
56.75
 21
79.275000000000006
 31
0.0
  0
LINE
  5
1DA9F
  8
0
 10
56.75
 20
78.0
 30
0.0
 11
56.75
 21
79.275000000000006
 31
0.0
  0
LINE
  5
1DAA0
  8
0
 10
43.25
 20
79.275000000000006
 30
0.0
 11
43.25
 21
78.0
 31
0.0
  0
LINE
  5
1DAA1
  8
0
 10
56.291666666666622
 20
80.291666666666657
 30
0.0
 11
43.708333333333371
 21
80.291666666666657
 31
0.0
  0
LINE
  5
1DAA2
  8
0
 10
43.708333333333371
 20
79.375
 30
0.0
 11
56.291666666666622
 21
79.375
 31
0.0
  0
ARC
  5
1DAA3
  8
0
 10
56.291666666666622
 20
79.833333333333343
 30
0.0
 40
0.4583333333333333
 50
270.0
 51
90.0
  0
ARC
  5
1DAA4
  8
0
 10
43.708333333333371
 20
79.833333333333343
 30
0.0
 40
0.4583333333333333
 50
90.0
 51
270.0
  0
LINE
  5
1DAA5
  8
0
 10
43.25
 20
80.39166666666668
 30
0.0
 11
56.75
 21
80.39166666666668
 31
0.0
  0
LINE
  5
1DAA6
  8
0
 10
56.75
 20
80.39166666666668
 30
0.0
 11
56.75
 21
99.967780879788847
 31
0.0
  0
LINE
  5
1DAA7
  8
0
 10
43.25
 20
99.967780879788847
 30
0.0
 11
43.25
 21
80.39166666666668
 31
0.0
  0
LINE
  5
1DAA8
  8
0
 10
53.791280166712959
 20
99.967780879788847
 30
0.0
 11
53.791280166712959
 21
83.499999999999986
 31
0.0
  0
LINE
  5
1DAA9
  8
0
 10
52.563959346986557
 20
83.916892127594636
 30
0.0
 11
52.570192162104092
 21
83.968049536206536
 31
0.0
  0
LINE
  5
1DAAA
  8
0
 10
46.208719833287027
 20
99.967780879788847
 30
0.0
 11
46.208719833287027
 21
83.499999999999986
 31
0.0
  0
POLYLINE
  5
1DAAB
  8
0
 66
     1
 10
0.0
 20
0.0
 30
0.0
  0
VERTEX
  5
1E55E
  8
0
 10
46.566585764534118
 20
99.975217448127978
 30
0.0
  0
VERTEX
  5
1E55F
  8
0
 10
46.417006837506221
 20
99.970169789949523
 30
0.0
  0
VERTEX
  5
1E560
  8
0
 10
46.208719833285947
 20
99.967780879788734
 30
0.0
  0
SEQEND
  5
1E561
  8
0
  0
LINE
  5
1DAAC
  8
0
 10
47.436040652968352
 20
83.916895017365306
 30
0.0
 11
47.435656140295009
 21
83.904700366110148
 31
0.0
  0
LINE
  5
1DAAD
  8
0
 10
47.435656140295009
 20
83.904700366110148
 30
0.0
 11
47.422193085792387
 21
83.844080592686694
 31
0.0
  0
LINE
  5
1DAAE
  8
0
 10
47.422193085792387
 20
83.844080592686694
 30
0.0
 11
47.388044261690929
 21
83.785133927344589
 31
0.0
  0
LINE
  5
1DAAF
  8
0
 10
47.388044261690929
 20
83.785133927344589
 30
0.0
 11
47.333389551177959
 21
83.730165381120955
 31
0.0
  0
LINE
  5
1DAB0
  8
0
 10
47.333389551177959
 20
83.730165381120955
 30
0.0
 11
47.260577197458808
 21
83.681043842498923
 31
0.0
  0
LINE
  5
1DAB1
  8
0
 10
47.260577197458808
 20
83.681043842498923
 30
0.0
 11
47.168768704447189
 21
83.636771210501479
 31
0.0
  0
LINE
  5
1DAB2
  8
0
 10
47.168768704447189
 20
83.636771210501479
 30
0.0
 11
47.054565485056621
 21
83.596765352222249
 31
0.0
  0
LINE
  5
1DAB3
  8
0
 10
47.054565485056621
 20
83.596765352222249
 30
0.0
 11
46.921307911307387
 21
83.563034761646733
 31
0.0
  0
LINE
  5
1DAB4
  8
0
 10
46.921307911307387
 20
83.563034761646733
 30
0.0
 11
46.770828079459697
 21
83.536268899408725
 31
0.0
  0
LINE
  5
1DAB5
  8
0
 10
46.770828079459697
 20
83.536268899408725
 30
0.0
 11
46.603508747102907
 21
83.516628841329336
 31
0.0
  0
LINE
  5
1DAB6
  8
0
 10
46.603508747102907
 20
83.516628841329336
 30
0.0
 11
46.413611601199818
 21
83.504190654992954
 31
0.0
  0
LINE
  5
1DAB7
  8
0
 10
46.413611601199818
 20
83.504190654992954
 30
0.0
 11
46.2087198332855
 21
83.499999999999716
 31
0.0
  0
POLYLINE
  5
1DAB8
  8
0
 66
     1
 10
0.0
 20
0.0
 30
0.0
  0
VERTEX
  5
1E562
  8
0
 10
53.791280166712959
 20
99.967780879788847
 30
0.0
  0
VERTEX
  5
1E563
  8
0
 10
53.54508391495812
 20
99.971202884378613
 30
0.0
  0
VERTEX
  5
1E564
  8
0
 10
53.431676426745071
 20
99.975295048318003
 30
0.0
  0
SEQEND
  5
1E565
  8
0
  0
LINE
  5
1DAB9
  8
0
 10
53.791280166712959
 20
99.967780879788847
 30
0.0
 11
56.75
 21
99.967780879788847
 31
0.0
  0
LINE
  5
1DABA
  8
0
 10
43.25
 20
99.967780879788847
 30
0.0
 11
46.208719833287027
 21
99.967780879788847
 31
0.0
  0
LINE
  5
1DABB
  8
0
 10
47.42980783789573
 20
83.968049536206564
 30
0.0
 11
47.337409454062652
 21
84.373205721900831
 31
0.0
  0
LINE
  5
1DABC
  8
0
 10
47.337409454062652
 20
84.373205721900831
 30
0.0
 11
47.245731061887447
 21
84.814423045617374
 31
0.0
  0
LINE
  5
1DABD
  8
0
 10
47.245731061887447
 20
84.814423045617374
 30
0.0
 11
47.154857602321151
 21
85.290899093604793
 31
0.0
  0
LINE
  5
1DABE
  8
0
 10
47.154857602321151
 20
85.290899093604793
 30
0.0
 11
47.064287827631681
 21
85.805347383797113
 31
0.0
  0
LINE
  5
1DABF
  8
0
 10
47.064287827631681
 20
85.805347383797113
 30
0.0
 11
46.974614827176367
 21
86.354623318338867
 31
0.0
  0
LINE
  5
1DAC0
  8
0
 10
46.974614827176367
 20
86.354623318338867
 30
0.0
 11
46.885924792324317
 21
86.938093482462904
 31
0.0
  0
LINE
  5
1DAC1
  8
0
 10
46.885924792324317
 20
86.938093482462904
 30
0.0
 11
46.807629672489043
 21
87.487464519815575
 31
0.0
  0
LINE
  5
1DAC2
  8
0
 10
46.807629672489043
 20
87.487464519815575
 30
0.0
 11
46.73015062766035
 21
88.063786161782588
 31
0.0
  0
LINE
  5
1DAC3
  8
0
 10
53.26984937233965
 20
88.063786161782588
 30
0.0
 11
53.186091011850351
 21
87.442196695028684
 31
0.0
  0
LINE
  5
1DAC4
  8
0
 10
53.186091011850351
 20
87.442196695028684
 30
0.0
 11
53.101335782314777
 21
86.851774875409973
 31
0.0
  0
LINE
  5
1DAC5
  8
0
 10
53.101335782314777
 20
86.851774875409973
 30
0.0
 11
53.015422685888041
 21
86.291598128933614
 31
0.0
  0
LINE
  5
1DAC6
  8
0
 10
53.015422685888041
 20
86.291598128933614
 30
0.0
 11
52.928609532266869
 21
85.763547465051573
 31
0.0
  0
LINE
  5
1DAC7
  8
0
 10
52.928609532266869
 20
85.763547465051573
 30
0.0
 11
52.840284002454602
 21
85.264427721745449
 31
0.0
  0
LINE
  5
1DAC8
  8
0
 10
52.840284002454602
 20
85.264427721745449
 30
0.0
 11
52.751149310114151
 21
84.798781054032005
 31
0.0
  0
LINE
  5
1DAC9
  8
0
 10
52.751149310114151
 20
84.798781054032005
 30
0.0
 11
52.661025536196291
 21
84.366029637233396
 31
0.0
  0
LINE
  5
1DACA
  8
0
 10
52.661025536196291
 20
84.366029637233396
 30
0.0
 11
52.57019216210432
 21
83.968049536206564
 31
0.0
  0
LINE
  5
1DACB
  8
0
 10
47.42980783789573
 20
83.968049536206564
 30
0.0
 11
47.436040652968352
 21
83.916895017365306
 31
0.0
  0
LINE
  5
1DACC
  8
0
 10
46.208719833287027
 20
83.499999999999986
 30
0.0
 11
53.791280166712959
 21
83.499999999999986
 31
0.0
  0
LINE
  5
1DACD
  8
0
 10
53.791280166712959
 20
83.499999999999986
 30
0.0
 11
53.551425545924872
 21
83.505897099002325
 31
0.0
  0
LINE
  5
1DACE
  8
0
 10
53.551425545924872
 20
83.505897099002325
 30
0.0
 11
53.332068194322339
 21
83.523216537279964
 31
0.0
  0
LINE
  5
1DACF
  8
0
 10
53.332068194322339
 20
83.523216537279964
 30
0.0
 11
53.137277222832502
 21
83.551400526738647
 31
0.0
  0
LINE
  5
1DAD0
  8
0
 10
53.137277222832502
 20
83.551400526738647
 30
0.0
 11
52.969219367420749
 21
83.589974324156486
 31
0.0
  0
LINE
  5
1DAD1
  8
0
 10
52.969219367420749
 20
83.589974324156486
 30
0.0
 11
52.828457285121658
 21
83.638042962459252
 31
0.0
  0
LINE
  5
1DAD2
  8
0
 10
52.828457285121658
 20
83.638042962459252
 30
0.0
 11
52.717068857466472
 21
83.694341752659625
 31
0.0
  0
LINE
  5
1DAD3
  8
0
 10
52.717068857466472
 20
83.694341752659625
 30
0.0
 11
52.634137953707523
 21
83.759934919190655
 31
0.0
  0
LINE
  5
1DAD4
  8
0
 10
52.634137953707523
 20
83.759934919190655
 30
0.0
 11
52.583004760187691
 21
83.832360246471154
 31
0.0
  0
LINE
  5
1DAD5
  8
0
 10
52.583004760187691
 20
83.832360246471154
 30
0.0
 11
52.564073635718607
 21
83.910098517775396
 31
0.0
  0
LINE
  5
1DAD6
  8
0
 10
52.564073635718607
 20
83.910098517775396
 30
0.0
 11
52.563959346986557
 21
83.916892127594636
 31
0.0
  0
LINE
  5
1DAD7
  8
0
 10
46.5
 20
98.814900093928486
 30
0.0
 11
46.5
 21
90.785099906061163
 31
0.0
  0
LINE
  5
1DAD8
  8
0
 10
53.5
 20
98.814900093928486
 30
0.0
 11
53.5
 21
90.785099906071778
 31
0.0
  0
POLYLINE
  5
1DAD9
  8
0
 66
     1
 10
0.0
 20
0.0
 30
0.0
  0
VERTEX
  5
1E566
  8
0
 10
46.5
 20
98.814900093928486
 30
0.0
  0
VERTEX
  5
1E567
  8
0
 10
46.51148520054943
 20
99.059116224983441
 30
0.0
  0
VERTEX
  5
1E568
  8
0
 10
46.523636392278938
 20
99.295974357992122
 30
0.0
  0
VERTEX
  5
1E569
  8
0
 10
46.536524433038707
 20
99.526633437542174
 30
0.0
  0
VERTEX
  5
1E56A
  8
0
 10
46.550043471057393
 20
99.749022139025215
 30
0.0
  0
VERTEX
  5
1E56B
  8
0
 10
46.564485090748292
 20
99.967314728762403
 30
0.0
  0
VERTEX
  5
1E56C
  8
0
 10
46.579533998079341
 20
100.1761795343717
 30
0.0
  0
VERTEX
  5
1E56D
  8
0
 10
46.595280210015169
 20
100.37666199129841
 30
0.0
  0
VERTEX
  5
1E56E
  8
0
 10
46.611585247537043
 20
100.5668347200745
 30
0.0
  0
VERTEX
  5
1E56F
  8
0
 10
46.627819403656069
 20
100.7402245452143
 30
0.0
  0
VERTEX
  5
1E570
  8
0
 10
46.64451752869342
 20
100.9034060915189
 30
0.0
  0
VERTEX
  5
1E571
  8
0
 10
46.661771123483611
 20
101.0571174435897
 30
0.0
  0
VERTEX
  5
1E572
  8
0
 10
46.679435765790167
 20
101.19994500872239
 30
0.0
  0
VERTEX
  5
1E573
  8
0
 10
46.697874835021139
 20
101.33436116188101
 30
0.0
  0
VERTEX
  5
1E574
  8
0
 10
46.716677282866328
 20
101.4569364671092
 30
0.0
  0
VERTEX
  5
1E575
  8
0
 10
46.735949748547341
 20
101.5682090519871
 30
0.0
  0
VERTEX
  5
1E576
  8
0
 10
46.75552100537891
 20
101.667061632383
 30
0.0
  0
VERTEX
  5
1E577
  8
0
 10
46.774732964482887
 20
101.750814435612
 30
0.0
  0
VERTEX
  5
1E578
  8
0
 10
46.794158863976179
 20
101.8226184462161
 30
0.0
  0
VERTEX
  5
1E579
  8
0
 10
46.813901140880709
 20
101.88272053522179
 30
0.0
  0
VERTEX
  5
1E57A
  8
0
 10
46.833792559966689
 20
101.930502813733
 30
0.0
  0
VERTEX
  5
1E57B
  8
0
 10
46.854229696123532
 20
101.9665068301407
 30
0.0
  0
VERTEX
  5
1E57C
  8
0
 10
46.874750041086543
 20
101.9895293554041
 30
0.0
  0
VERTEX
  5
1E57D
  8
0
 10
46.895465768744032
 20
101.99955418923101
 30
0.0
  0
VERTEX
  5
1E57E
  8
0
 10
46.900332422677302
 20
102.0000000000001
 30
0.0
  0
SEQEND
  5
1E57F
  8
0
  0
LINE
  5
1DADC
  8
0
 10
46.73015062766035
 20
88.063786161782588
 30
0.0
 11
46.705426770209669
 21
88.21473073156838
 31
0.0
  0
LINE
  5
1DADD
  8
0
 10
46.705426770209669
 20
88.21473073156838
 30
0.0
 11
46.681276957090972
 21
88.386013349113014
 31
0.0
  0
LINE
  5
1DADE
  8
0
 10
46.681276957090972
 20
88.386013349113014
 30
0.0
 11
46.657812195226477
 21
88.576871313512115
 31
0.0
  0
LINE
  5
1DADF
  8
0
 10
46.657812195226477
 20
88.576871313512115
 30
0.0
 11
46.63444376420329
 21
88.793313429786707
 31
0.0
  0
LINE
  5
1DAE0
  8
0
 10
46.63444376420329
 20
88.793313429786707
 30
0.0
 11
46.611915831229112
 21
89.029528535128264
 31
0.0
  0
LINE
  5
1DAE1
  8
0
 10
46.611915831229112
 20
89.029528535128264
 30
0.0
 11
46.590338812121551
 21
89.284384307147008
 31
0.0
  0
LINE
  5
1DAE2
  8
0
 10
46.590338812121551
 20
89.284384307147008
 30
0.0
 11
46.565409483133507
 21
89.619357037620574
 31
0.0
  0
LINE
  5
1DAE3
  8
0
 10
46.565409483133507
 20
89.619357037620574
 30
0.0
 11
46.542092712383919
 21
89.979496779623474
 31
0.0
  0
LINE
  5
1DAE4
  8
0
 10
46.542092712383919
 20
89.979496779623474
 30
0.0
 11
46.520091578662573
 21
90.371080759221826
 31
0.0
  0
LINE
  5
1DAE5
  8
0
 10
46.520091578662573
 20
90.371080759221826
 30
0.0
 11
46.5
 21
90.785099906061163
 31
0.0
  0
LINE
  5
1DAE7
  8
0
 10
53.5
 20
90.785099906071778
 30
0.0
 11
53.484483816772922
 21
90.460087318816676
 31
0.0
  0
LINE
  5
1DAE8
  8
0
 10
53.484483816772922
 20
90.460087318816676
 30
0.0
 11
53.467776712933592
 21
90.148236069445574
 31
0.0
  0
LINE
  5
1DAE9
  8
0
 10
53.467776712933592
 20
90.148236069445574
 30
0.0
 11
53.449956528942607
 21
89.850977860975064
 31
0.0
  0
LINE
  5
1DAEA
  8
0
 10
53.449956528942607
 20
89.850977860975064
 30
0.0
 11
53.430495184428757
 21
89.561067247276554
 31
0.0
  0
LINE
  5
1DAEB
  8
0
 10
53.430495184428757
 20
89.561067247276554
 30
0.0
 11
53.409947633633351
 21
89.288024363493136
 31
0.0
  0
LINE
  5
1DAEC
  8
0
 10
53.409947633633351
 20
89.288024363493136
 30
0.0
 11
53.38841475246295
 21
89.033165279925726
 31
0.0
  0
LINE
  5
1DAED
  8
0
 10
53.38841475246295
 20
89.033165279925726
 30
0.0
 11
53.360831756801701
 21
88.747296002899105
 31
0.0
  0
LINE
  5
1DAEE
  8
0
 10
53.360831756801701
 20
88.747296002899105
 30
0.0
 11
53.33199207325378
 21
88.490824263814801
 31
0.0
  0
LINE
  5
1DAEF
  8
0
 10
53.33199207325378
 20
88.490824263814801
 30
0.0
 11
53.301424138583293
 21
88.260833363005275
 31
0.0
  0
LINE
  5
1DAF0
  8
0
 10
53.301424138583293
 20
88.260833363005275
 30
0.0
 11
53.26984937233965
 21
88.063786161782588
 31
0.0
  0
LINE
  5
1DAF3
  8
0
 10
53.099636563179729
 20
102.0000000000001
 30
0.0
 11
46.900332422677302
 21
102.0000000000001
 31
0.0
  0
POLYLINE
  5
1DAF4
  8
0
 66
     1
 10
0.0
 20
0.0
 30
0.0
  0
VERTEX
  5
1E580
  8
0
 10
53.099636563179729
 20
102.0000000000001
 30
0.0
  0
VERTEX
  5
1E581
  8
0
 10
53.118223368559079
 20
101.9944106515122
 30
0.0
  0
VERTEX
  5
1E582
  8
0
 10
53.138619068403841
 20
101.97601754859539
 30
0.0
  0
VERTEX
  5
1E583
  8
0
 10
53.15939193611154
 20
101.94396962513611
 30
0.0
  0
VERTEX
  5
1E584
  8
0
 10
53.18005397067548
 20
101.89858644046031
 30
0.0
  0
VERTEX
  5
1E585
  8
0
 10
53.200719639596173
 20
101.8394385471035
 30
0.0
  0
VERTEX
  5
1E586
  8
0
 10
53.221195105912777
 20
101.7669265800712
 30
0.0
  0
VERTEX
  5
1E587
  8
0
 10
53.240604863682961
 20
101.6849902050191
 30
0.0
  0
VERTEX
  5
1E588
  8
0
 10
53.259770639687638
 20
101.59102278503561
 30
0.0
  0
VERTEX
  5
1E589
  8
0
 10
53.278790319823827
 20
101.4843820510938
 30
0.0
  0
VERTEX
  5
1E58A
  8
0
 10
53.297495008400908
 20
101.3658736904395
 30
0.0
  0
VERTEX
  5
1E58B
  8
0
 10
53.316251913410319
 20
101.2326849561241
 30
0.0
  0
VERTEX
  5
1E58C
  8
0
 10
53.334610214983122
 20
101.0875439959449
 30
0.0
  0
VERTEX
  5
1E58D
  8
0
 10
53.352667837710392
 20
100.9294807325456
 30
0.0
  0
VERTEX
  5
1E58E
  8
0
 10
53.370251924729821
 20
100.75983657078589
 30
0.0
  0
VERTEX
  5
1E58F
  8
0
 10
53.386618388723491
 20
100.5867735786729
 30
0.0
  0
VERTEX
  5
1E590
  8
0
 10
53.402491234032929
 20
100.40366360045761
 30
0.0
  0
VERTEX
  5
1E591
  8
0
 10
53.417947903103872
 20
100.2094237436967
 30
0.0
  0
VERTEX
  5
1E592
  8
0
 10
53.4328484255023
 20
100.0056456393874
 30
0.0
  0
VERTEX
  5
1E593
  8
0
 10
53.447473965676402
 20
99.787888562182516
 30
0.0
  0
VERTEX
  5
1E594
  8
0
 10
53.46146374766289
 20
99.56093267520373
 30
0.0
  0
VERTEX
  5
1E595
  8
0
 10
53.474887963416222
 20
99.323391925103806
 30
0.0
  0
VERTEX
  5
1E596
  8
0
 10
53.487615034843998
 20
99.077373293659548
 30
0.0
  0
VERTEX
  5
1E597
  8
0
 10
53.5
 20
98.814900093928486
 30
0.0
  0
SEQEND
  5
1E598
  8
0
  0
LINE
  5
1DD18
  8
0
 10
249.83333333333371
 20
165.57744460202741
 30
0.0
 11
249.83333333333371
 21
168.1274446020274
 31
0.0
  0
LINE
  5
1DD19
  8
0
 10
249.83333333333371
 20
161.32744460202741
 30
0.0
 11
249.83333333333371
 21
163.87744460202751
 31
0.0
  0
LINE
  5
1DD1A
  8
0
 10
187.83333333333351
 20
165.2274446020275
 30
0.0
 11
187.83333333333351
 21
166.74589369102449
 31
0.0
  0
LINE
  5
1DD1B
  8
0
 10
187.83333333333351
 20
162.7089955130304
 30
0.0
 11
187.83333333333351
 21
164.2274446020275
 31
0.0
  0
ARC
  5
1DD1C
  8
0
 10
220.33333333333371
 20
164.7274446020275
 30
0.0
 40
2.249999999999984
 50
192.8395884069061
 51
347.16041159309549
  0
ARC
  5
1DD1D
  8
0
 10
214.33333333333371
 20
164.7274446020275
 30
0.0
 40
2.25
 50
12.83958840690619
 51
167.16041159309711
  0
ARC
  5
1DD1E
  8
0
 10
214.33333333333371
 20
164.7274446020275
 30
0.0
 40
2.249999999999984
 50
192.83958840690451
 51
347.16041159309549
  0
ARC
  5
1DD1F
  8
0
 10
226.33333333333371
 20
164.7274446020275
 30
0.0
 40
2.249999999999984
 50
192.8395884069061
 51
347.16041159309549
  0
ARC
  5
1DD20
  8
0
 10
190.33333333333351
 20
164.7274446020275
 30
0.0
 40
2.2500000000000062
 50
12.83958840690452
 51
167.1604115930954
  0
ARC
  5
1DD21
  8
0
 10
190.33333333333351
 20
164.7274446020275
 30
0.0
 40
2.2500000000000062
 50
192.83958840690281
 51
347.16041159309719
  0
ARC
  5
1DD22
  8
0
 10
202.3333333333336
 20
164.7274446020275
 30
0.0
 40
2.2500000000000062
 50
192.83958840690451
 51
347.16041159309719
  0
ARC
  5
1DD23
  8
0
 10
234.33333333333371
 20
164.7274446020275
 30
0.0
 40
2.2500000000000129
 50
245.23573932699639
 51
114.62431835217591
  0
ARC
  5
1DD24
  8
0
 10
196.33333333333351
 20
164.7274446020275
 30
0.0
 40
2.2500000000000062
 50
192.83958840690281
 51
347.16041159309719
  0
ARC
  5
1DD25
  8
0
 10
208.33333333333351
 20
164.7274446020275
 30
0.0
 40
2.2500000000000342
 50
192.8395884069061
 51
286.16814915248051
  0
ARC
  5
1DD26
  8
0
 10
208.33333333333351
 20
164.7274446020275
 30
0.0
 40
2.25
 50
43.635208626986227
 51
167.16041159309381
  0
LINE
  5
1DD27
  8
0
 10
216.52707443018161
 20
164.2274446020275
 30
0.0
 11
218.1395922364857
 21
164.2274446020275
 31
0.0
  0
LINE
  5
1DD28
  8
0
 10
218.1395922364857
 20
165.2274446020275
 30
0.0
 11
216.52707443018161
 21
165.2274446020275
 31
0.0
  0
LINE
  5
1DD29
  8
0
 10
228.52707443018161
 20
164.2274446020275
 30
0.0
 11
230.86470636673329
 21
164.2274446020275
 31
0.0
  0
LINE
  5
1DD2A
  8
0
 10
230.86470636673329
 20
165.2274446020275
 30
0.0
 11
228.52707443018161
 21
165.2274446020275
 31
0.0
  0
LINE
  5
1DD2B
  8
0
 10
204.52707443018161
 20
164.2274446020275
 30
0.0
 11
206.1395922364855
 21
164.2274446020275
 31
0.0
  0
LINE
  5
1DD2C
  8
0
 10
206.1395922364855
 20
165.2274446020275
 30
0.0
 11
204.52707443018161
 21
165.2274446020275
 31
0.0
  0
LINE
  5
1DD2D
  8
0
 10
222.52707443018161
 20
164.2274446020275
 30
0.0
 11
224.1395922364857
 21
164.2274446020275
 31
0.0
  0
LINE
  5
1DD2E
  8
0
 10
224.1395922364857
 20
165.2274446020275
 30
0.0
 11
222.52707443018161
 21
165.2274446020275
 31
0.0
  0
LINE
  5
1DD2F
  8
0
 10
198.52707443018161
 20
164.2274446020275
 30
0.0
 11
200.1395922364855
 21
164.2274446020275
 31
0.0
  0
LINE
  5
1DD30
  8
0
 10
200.1395922364855
 20
165.2274446020275
 30
0.0
 11
198.52707443018161
 21
165.2274446020275
 31
0.0
  0
LINE
  5
1DD31
  8
0
 10
192.52707443018161
 20
164.2274446020275
 30
0.0
 11
194.1395922364855
 21
164.2274446020275
 31
0.0
  0
LINE
  5
1DD32
  8
0
 10
194.1395922364855
 20
165.2274446020275
 30
0.0
 11
192.52707443018161
 21
165.2274446020275
 31
0.0
  0
LINE
  5
1DD33
  8
0
 10
187.83333333333351
 20
164.2274446020275
 30
0.0
 11
188.1395922364855
 21
164.2274446020275
 31
0.0
  0
LINE
  5
1DD34
  8
0
 10
188.1395922364855
 20
165.2274446020275
 30
0.0
 11
187.83333333333351
 21
165.2274446020275
 31
0.0
  0
LINE
  5
1DD35
  8
0
 10
210.9547489544843
 20
164.2274446020275
 30
0.0
 11
212.1395922364857
 21
164.2274446020275
 31
0.0
  0
LINE
  5
1DD36
  8
0
 10
212.1395922364857
 20
165.2274446020275
 30
0.0
 11
211.7279071155252
 21
165.2274446020275
 31
0.0
  0
POLYLINE
  5
1DD37
  8
0
 66
     1
 10
0.0
 20
0.0
 30
0.0
 70
   128
  0
VERTEX
  5
1E599
  8
0
 10
249.83333333333371
 20
165.57744460202741
 30
0.0
  0
VERTEX
  5
1E59A
  8
0
 10
249.83331410249309
 20
165.57467116246659
 30
0.0
  0
VERTEX
  5
1E59B
  8
0
 10
249.72994867837471
 20
165.40232899704949
 30
0.0
  0
VERTEX
  5
1E59C
  8
0
 10
249.6333333333337
 20
165.37744460202751
 30
0.0
  0
SEQEND
  5
1E59D
  8
0
  0
LINE
  5
1DD38
  8
0
 10
234.83333333333371
 20
168.7274446020275
 30
0.0
 11
249.2333333333336
 21
168.7274446020275
 31
0.0
  0
POLYLINE
  5
1DD39
  8
0
 66
     1
 10
0.0
 20
0.0
 30
0.0
 70
   128
  0
VERTEX
  5
1E59E
  8
0
 10
249.2333333333336
 20
168.7274446020275
 30
0.0
  0
VERTEX
  5
1E59F
  8
0
 10
249.60926172178611
 20
168.59507463394959
 30
0.0
  0
VERTEX
  5
1E5A0
  8
0
 10
249.8333154761346
 20
168.1320736762444
 30
0.0
  0
VERTEX
  5
1E5A1
  8
0
 10
249.83333333333371
 20
168.1274446020274
 30
0.0
  0
SEQEND
  5
1E5A2
  8
0
  0
LINE
  5
1DD3A
  8
0
 10
244.3333333333336
 20
165.37744460202751
 30
0.0
 11
249.6333333333337
 21
165.37744460202751
 31
0.0
  0
ARC
  5
1DD3B
  8
0
 10
244.3333333333336
 20
165.8774446020274
 30
0.0
 40
0.5
 50
179.99999999999349
 51
270.0
  0
POLYLINE
  5
1DD3C
  8
0
 66
     1
 10
0.0
 20
0.0
 30
0.0
 70
   128
  0
VERTEX
  5
1E5A3
  8
0
 10
249.83333333333371
 20
161.32744460202741
 30
0.0
  0
VERTEX
  5
1E5A4
  8
0
 10
249.8333154761346
 20
161.32281552781069
 30
0.0
  0
VERTEX
  5
1E5A5
  8
0
 10
249.60926172178611
 20
160.8598145701053
 30
0.0
  0
VERTEX
  5
1E5A6
  8
0
 10
249.2333333333336
 20
160.7274446020275
 30
0.0
  0
SEQEND
  5
1E5A7
  8
0
  0
LINE
  5
1DD3D
  8
0
 10
249.2333333333336
 20
160.7274446020275
 30
0.0
 11
234.83333333333371
 21
160.7274446020275
 31
0.0
  0
POLYLINE
  5
1DD3E
  8
0
 66
     1
 10
0.0
 20
0.0
 30
0.0
 70
   128
  0
VERTEX
  5
1E5A8
  8
0
 10
249.6333333333337
 20
164.07744460202741
 30
0.0
  0
VERTEX
  5
1E5A9
  8
0
 10
249.72994867837471
 20
164.0525602070054
 30
0.0
  0
VERTEX
  5
1E5AA
  8
0
 10
249.83331410249309
 20
163.8802180415891
 30
0.0
  0
VERTEX
  5
1E5AB
  8
0
 10
249.83333333333371
 20
163.87744460202751
 30
0.0
  0
SEQEND
  5
1E5AC
  8
0
  0
LINE
  5
1DD3F
  8
0
 10
243.83333333333371
 20
163.87744460202751
 30
0.0
 11
243.83333333333371
 21
163.57744460202741
 31
0.0
  0
ARC
  5
1DD40
  8
0
 10
244.03333333333359
 20
163.87744460202751
 30
0.0
 40
0.1999999999999815
 50
90.0
 51
180.0
  0
LINE
  5
1DD41
  8
0
 10
249.6333333333337
 20
164.07744460202741
 30
0.0
 11
244.03333333333359
 21
164.07744460202741
 31
0.0
  0
ARC
  5
1DD42
  8
0
 10
234.83333333333371
 20
164.7274446020275
 30
0.0
 40
4.0000000000001226
 50
90.0
 51
180.0
  0
ARC
  5
1DD43
  8
0
 10
237.6194205274852
 20
168.2612411647319
 30
0.0
 40
1.9999999999997899
 50
231.74733416214849
 51
266.50000000000711
  0
ARC
  5
1DD44
  8
0
 10
234.83333333333371
 20
164.7274446020275
 30
0.0
 40
2.500000000000099
 50
51.74733416215328
 51
308.25266938692192
  0
ARC
  5
1DD45
  8
0
 10
237.6194205274856
 20
161.1936480393226
 30
0.0
 40
2.000000000000151
 50
93.50000000000621
 51
128.25266140151101
  0
ARC
  5
1DD46
  8
0
 10
234.83333333333371
 20
164.7274446020275
 30
0.0
 40
4.0000000000001226
 50
180.0
 51
270.0
  0
LINE
  5
1DD47
  8
0
 10
243.83333333333371
 20
163.57744460202741
 30
0.0
 11
237.4973234484157
 21
163.1899176361664
 31
0.0
  0
LINE
  5
1DD48
  8
0
 10
237.4973234484157
 20
166.26497156788841
 30
0.0
 11
243.83333333333371
 21
165.87744460202751
 31
0.0
  0
ARC
  5
1DD49
  8
0
 10
175.6804195807124
 20
161.72744460202739
 30
0.0
 40
8.0000000000001137
 50
77.50000000000226
 51
90.0
  0
LINE
  5
1DD4A
  8
0
 10
187.3631971016963
 20
167.3316712952965
 30
0.0
 11
177.41193649221731
 21
169.53781265898689
 31
0.0
  0
LINE
  5
1DD4B
  8
0
 10
177.41193649221731
 20
159.91707654506791
 30
0.0
 11
187.36319710169661
 21
162.12321790875851
 31
0.0
  0
ARC
  5
1DD4C
  8
0
 10
175.6804195807124
 20
167.7274446020277
 30
0.0
 40
8.0000000000002931
 50
270.0
 51
282.50000000000068
  0
LINE
  5
1DD4D
  8
0
 10
175.6804195807124
 20
159.7274446020275
 30
0.0
 11
173.83333333333351
 21
159.7274446020275
 31
0.0
  0
ARC
  5
1DD4E
  8
0
 10
173.83333333333351
 20
164.7274446020275
 30
0.0
 40
5.0000000000000302
 50
208.3576365763283
 51
270.0
  0
ARC
  5
1DD4F
  8
0
 10
173.83333333333351
 20
164.7274446020275
 30
0.0
 40
5.0000000000000302
 50
90.0
 51
151.64236342367161
  0
LINE
  5
1DD50
  8
0
 10
175.6804195807124
 20
169.7274446020275
 30
0.0
 11
173.83333333333351
 21
169.7274446020275
 31
0.0
  0
ARC
  5
1DD51
  8
0
 10
173.83333333333351
 20
164.7274446020275
 30
0.0
 40
4.0000000000000142
 50
187.18075578145829
 51
172.81924421854171
  0
ARC
  5
1DD52
  8
0
 10
173.83333333333351
 20
164.7274446020275
 30
0.0
 40
2.5000000000000351
 50
191.5369590328165
 51
168.4630409671835
  0
POLYLINE
  5
1DD53
  8
0
 66
     1
 10
0.0
 20
0.0
 30
0.0
 70
   128
  0
VERTEX
  5
1E5AD
  8
0
 10
187.36319710169639
 20
162.12321790875839
 30
0.0
  0
VERTEX
  5
1E5AE
  8
0
 10
187.7045451895977
 20
162.3375666685445
 30
0.0
  0
VERTEX
  5
1E5AF
  8
0
 10
187.83331594196389
 20
162.7044272151623
 30
0.0
  0
VERTEX
  5
1E5B0
  8
0
 10
187.83333333333351
 20
162.7089955130304
 30
0.0
  0
SEQEND
  5
1E5B1
  8
0
  0
POLYLINE
  5
1DD54
  8
0
 66
     1
 10
0.0
 20
0.0
 30
0.0
 70
   128
  0
VERTEX
  5
1E5B2
  8
0
 10
187.83333333333351
 20
166.74589369102449
 30
0.0
  0
VERTEX
  5
1E5B3
  8
0
 10
187.83331594196389
 20
166.7504619888924
 30
0.0
  0
VERTEX
  5
1E5B4
  8
0
 10
187.7045451895977
 20
167.1173225355104
 30
0.0
  0
VERTEX
  5
1E5B5
  8
0
 10
187.36319710169639
 20
167.33167129529639
 30
0.0
  0
SEQEND
  5
1E5B6
  8
0
  0
POLYLINE
  5
1DD55
  8
0
 66
     1
 10
0.0
 20
0.0
 30
0.0
 70
   128
  0
VERTEX
  5
1E5B7
  8
0
 10
187.83333333333351
 20
164.2274446020275
 30
0.0
  0
VERTEX
  5
1E5B8
  8
0
 10
187.82993805159791
 20
164.25537546084911
 30
0.0
  0
VERTEX
  5
1E5B9
  8
0
 10
187.82122779213961
 20
164.33590633496331
 30
0.0
  0
VERTEX
  5
1E5BA
  8
0
 10
187.81091586520591
 20
164.46068104031789
 30
0.0
  0
VERTEX
  5
1E5BB
  8
0
 10
187.8035208571396
 20
164.61613883314951
 30
0.0
  0
VERTEX
  5
1E5BC
  8
0
 10
187.8023558291533
 20
164.7834764886926
 30
0.0
  0
VERTEX
  5
1E5BD
  8
0
 10
187.80784104420201
 20
164.94357313728679
 30
0.0
  0
VERTEX
  5
1E5BE
  8
0
 10
187.81757898179691
 20
165.07988379862579
 30
0.0
  0
VERTEX
  5
1E5BF
  8
0
 10
187.827393143672
 20
165.17745990016931
 30
0.0
  0
VERTEX
  5
1E5C0
  8
0
 10
187.8329367935012
 20
165.2242623136535
 30
0.0
  0
VERTEX
  5
1E5C1
  8
0
 10
187.83333333333351
 20
165.2274446020275
 30
0.0
  0
SEQEND
  5
1E5C2
  8
0
  0
POLYLINE
  5
1DD56
  8
0
 66
     1
 10
0.0
 20
0.0
 30
0.0
 70
   128
  0
VERTEX
  5
1E5C3
  8
0
 10
169.43333333333351
 20
167.10231301943509
 30
0.0
  0
VERTEX
  5
1E5C4
  8
0
 10
169.057404944881
 20
166.20748109764949
 30
0.0
  0
VERTEX
  5
1E5C5
  8
0
 10
168.90769141452211
 20
165.2274446020275
 30
0.0
  0
SEQEND
  5
1E5C6
  8
0
  0
POLYLINE
  5
1DD57
  8
0
 66
     1
 10
0.0
 20
0.0
 30
0.0
 70
   128
  0
VERTEX
  5
1E5C7
  8
0
 10
168.90769141452211
 20
164.2274446020275
 30
0.0
  0
VERTEX
  5
1E5C8
  8
0
 10
169.057404944881
 20
163.24740810640529
 30
0.0
  0
VERTEX
  5
1E5C9
  8
0
 10
169.43333333333351
 20
162.35257618461989
 30
0.0
  0
SEQEND
  5
1E5CA
  8
0
  0
LINE
  5
1DD58
  8
0
 10
222.52707443018161
 20
164.2274446020275
 30
0.0
 11
222.52707443018161
 21
165.2274446020275
 31
0.0
  0
LINE
  5
1DD59
  8
0
 10
218.1395922364857
 20
165.2274446020275
 30
0.0
 11
218.1395922364857
 21
164.2274446020275
 31
0.0
  0
LINE
  5
1DD5A
  8
0
 10
216.52707443018161
 20
164.2274446020275
 30
0.0
 11
216.52707443018161
 21
165.2274446020275
 31
0.0
  0
LINE
  5
1DD5B
  8
0
 10
212.1395922364857
 20
165.2274446020275
 30
0.0
 11
212.1395922364857
 21
164.2274446020275
 31
0.0
  0
LINE
  5
1DD5C
  8
0
 10
228.52707443018161
 20
164.2274446020275
 30
0.0
 11
228.52707443018161
 21
165.2274446020275
 31
0.0
  0
LINE
  5
1DD5D
  8
0
 10
224.1395922364857
 20
165.2274446020275
 30
0.0
 11
224.1395922364857
 21
164.2274446020275
 31
0.0
  0
LINE
  5
1DD5E
  8
0
 10
192.52707443018161
 20
164.2274446020275
 30
0.0
 11
192.52707443018161
 21
165.2274446020275
 31
0.0
  0
LINE
  5
1DD5F
  8
0
 10
188.1395922364855
 20
165.2274446020275
 30
0.0
 11
188.1395922364855
 21
164.2274446020275
 31
0.0
  0
LINE
  5
1DD60
  8
0
 10
204.52707443018161
 20
164.2274446020275
 30
0.0
 11
204.52707443018161
 21
165.2274446020275
 31
0.0
  0
LINE
  5
1DD61
  8
0
 10
200.1395922364855
 20
165.2274446020275
 30
0.0
 11
200.1395922364855
 21
164.2274446020275
 31
0.0
  0
LINE
  5
1DD62
  8
0
 10
198.52707443018161
 20
164.2274446020275
 30
0.0
 11
198.52707443018161
 21
165.2274446020275
 31
0.0
  0
LINE
  5
1DD63
  8
0
 10
194.1395922364855
 20
165.2274446020275
 30
0.0
 11
194.1395922364855
 21
164.2274446020275
 31
0.0
  0
LINE
  5
1DD64
  8
0
 10
206.1395922364855
 20
165.2274446020275
 30
0.0
 11
206.1395922364855
 21
164.2274446020275
 31
0.0
  0
POLYLINE
  5
1DD65
  8
4
 66
     1
 10
0.0
 20
0.0
 30
0.0
  0
VERTEX
  5
1DD66
  8
4
 10
211.5880536912905
 20
161.65555662370579
 30
0.0
 42
-0.0744127175610667
  0
VERTEX
  5
1DD67
  8
4
 10
211.06355853410119
 20
162.3495226176754
 30
0.0
 42
-0.1536795722212451
  0
VERTEX
  5
1DD68
  8
4
 10
210.79982575833509
 20
163.6941896380095
 30
0.0
 42
-0.1847247553159499
  0
VERTEX
  5
1DD69
  8
4
 10
211.3333319940084
 20
164.7274446020275
 30
0.0
 42
0.1729818233278114
  0
VERTEX
  5
1DD6A
  8
4
 10
211.92560097813481
 20
165.8131641842084
 30
0.0
 42
0.1305645647028073
  0
VERTEX
  5
1DD6B
  8
4
 10
211.77018682237431
 20
167.31897061541949
 30
0.0
 42
0.0267269543158863
  0
VERTEX
  5
1DD6C
  8
4
 10
211.62150994377279
 20
167.65555662370579
 30
0.0
  0
SEQEND
  5
1DD6D
  8
4
  0
POLYLINE
  5
1DD6E
  8
4
 66
     1
 10
0.0
 20
0.0
 30
0.0
  0
VERTEX
  5
1DD6F
  8
4
 10
209.58805369132381
 20
161.65555662370579
 30
0.0
 42
-0.0744127175610667
  0
VERTEX
  5
1DD70
  8
4
 10
209.06355853413459
 20
162.3495226176754
 30
0.0
 42
-0.1536795722212451
  0
VERTEX
  5
1DD71
  8
4
 10
208.79982575836851
 20
163.6941896380095
 30
0.0
 42
-0.1847247553159499
  0
VERTEX
  5
1DD72
  8
4
 10
209.33333199404191
 20
164.7274446020275
 30
0.0
 42
0.1729818233278114
  0
VERTEX
  5
1DD73
  8
4
 10
209.92560097816829
 20
165.8131641842084
 30
0.0
 42
0.1305645647028073
  0
VERTEX
  5
1DD74
  8
4
 10
209.77018682240779
 20
167.31897061541949
 30
0.0
 42
0.0267269543158863
  0
VERTEX
  5
1DD75
  8
4
 10
209.62150994380619
 20
167.65555662370579
 30
0.0
  0
SEQEND
  5
1DD76
  8
4
  0
ARC
  5
1DD77
  8
0
 10
202.3333333333336
 20
164.7274446020275
 30
0.0
 40
2.2500000000000062
 50
12.83958840690118
 51
167.16041159309879
  0
ARC
  5
1DD78
  8
0
 10
196.33333333333351
 20
164.7274446020275
 30
0.0
 40
2.2500000000000062
 50
12.83958840690118
 51
167.16041159309879
  0
ARC
  5
1DD79
  8
0
 10
220.33333333333371
 20
164.7274446020275
 30
0.0
 40
2.249999999999984
 50
12.839588406907859
 51
167.16041159309211
  0
ARC
  5
1DD7A
  8
0
 10
226.33333333333371
 20
164.7274446020275
 30
0.0
 40
2.249999999999984
 50
12.839588406907859
 51
167.16041159309211
  0
LINE
  5
1DD7B
  8
2
 10
247.33333333333371
 20
167.2274446020275
 30
0.0
 11
242.3333333333336
 21
167.2274446020275
 31
0.0
  0
LINE
  5
1DD7C
  8
2
 10
247.33333333333371
 20
162.2274446020275
 30
0.0
 11
242.3333333333336
 21
162.2274446020275
 31
0.0
  0
LINE
  5
1DD7D
  8
2
 10
240.83333333333371
 20
168.7274446020275
 30
0.0
 11
242.3333333333336
 21
167.2274446020275
 31
0.0
  0
LINE
  5
1DD7E
  8
2
 10
247.33333333333371
 20
167.2274446020275
 30
0.0
 11
248.8333333333336
 21
168.7274446020275
 31
0.0
  0
LINE
  5
1DD7F
  8
2
 10
248.8333333333336
 20
160.7274446020275
 30
0.0
 11
247.33333333333371
 21
162.2274446020275
 31
0.0
  0
LINE
  5
1DD80
  8
2
 10
242.3333333333336
 20
162.2274446020275
 30
0.0
 11
240.83333333333371
 21
160.7274446020275
 31
0.0
  0
LINE
  5
1DD81
  8
2
 10
247.33333333333371
 20
165.37744460202751
 30
0.0
 11
247.33333333333371
 21
167.2274446020275
 31
0.0
  0
LINE
  5
1DD82
  8
2
 10
242.3333333333336
 20
167.2274446020275
 30
0.0
 11
242.3333333333336
 21
165.96918853225321
 31
0.0
  0
LINE
  5
1DD83
  8
2
 10
247.33333333333371
 20
162.2274446020275
 30
0.0
 11
247.33333333333371
 21
164.0774446020275
 31
0.0
  0
LINE
  5
1DD84
  8
2
 10
242.3333333333336
 20
163.48570067180171
 30
0.0
 11
242.3333333333336
 21
162.2274446020275
 31
0.0
  0
LINE
  5
1DD85
  8
1
 10
173.83333333333351
 20
171.2274446020275
 30
0.0
 11
173.83333333333351
 21
158.2274446020275
 31
0.0
  0
LINE
  5
1DD86
  8
1
 10
184.3333333333336
 20
169.53979519274949
 30
0.0
 11
184.3333333333336
 21
159.9150940113054
 31
0.0
  0
LINE
  5
1DD87
  8
1
 10
234.33333333333371
 20
168.4774446020275
 30
0.0
 11
234.33333333333371
 21
160.9774446020275
 31
0.0
  0
LINE
  5
1DD88
  8
1
 10
244.83333333333371
 20
170.2274446020275
 30
0.0
 11
244.83333333333371
 21
159.2274446020275
 31
0.0
  0
LINE
  5
1DD89
  8
0
 10
168.8333333333336
 20
83.233333333375768
 30
0.0
 11
168.8333333333336
 21
80.683333333375813
 31
0.0
  0
LINE
  5
1DD8A
  8
0
 10
168.8333333333336
 20
78.983333333375782
 30
0.0
 11
168.8333333333336
 21
76.433333333375828
 31
0.0
  0
LINE
  5
1DD8B
  8
0
 10
230.83333333333371
 20
79.333337285534554
 30
0.0
 11
230.83333333333371
 21
77.814884244336241
 31
0.0
  0
LINE
  5
1DD8C
  8
0
 10
230.83333333333371
 20
81.851782422330444
 30
0.0
 11
230.83333333333371
 21
80.33328959622807
 31
0.0
  0
ARC
  5
1DD8D
  8
0
 10
184.33333333333371
 20
79.833333333375805
 30
0.0
 40
2.2500000000000431
 50
65.375681647842455
 51
294.64854223596609
  0
ARC
  5
1DD8E
  8
0
 10
202.33333333333371
 20
79.833333333375805
 30
0.0
 40
2.2499999999999969
 50
192.83958840690451
 51
347.16041159309719
  0
ARC
  5
1DD8F
  8
0
 10
226.33333333333371
 20
79.8333333333334
 30
0.0
 40
2.249999999999984
 50
192.83958840690789
 51
347.16041159309549
  0
ARC
  5
1DD90
  8
0
 10
220.33333333333371
 20
79.8333333333334
 30
0.0
 40
2.249999999999984
 50
192.83958840690789
 51
347.16041159309549
  0
ARC
  5
1DD91
  8
0
 10
196.33333333333371
 20
79.833333333375805
 30
0.0
 40
2.25000000000004
 50
192.83958840690281
 51
347.16041159309719
  0
ARC
  5
1DD92
  8
0
 10
208.33333333333371
 20
79.833333333375805
 30
0.0
 40
2.250000000000012
 50
192.8395884069061
 51
286.16814915248051
  0
ARC
  5
1DD93
  8
0
 10
214.33333333333371
 20
79.8333333333334
 30
0.0
 40
2.249999999999984
 50
192.83958840690451
 51
347.16041159309549
  0
ARC
  5
1DD94
  8
0
 10
190.33333333333371
 20
79.833333333375805
 30
0.0
 40
2.2500000000000342
 50
192.83958840690281
 51
347.16041159309719
  0
LINE
  5
1DD95
  8
0
 10
222.5270744301817
 20
79.3333333333334
 30
0.0
 11
224.13959223648561
 21
79.3333333333334
 31
0.0
  0
LINE
  5
1DD96
  8
0
 10
224.13959223648561
 20
80.3333333333334
 30
0.0
 11
222.5270744301817
 21
80.3333333333334
 31
0.0
  0
LINE
  5
1DD97
  8
0
 10
187.80196029993061
 20
79.333333333375805
 30
0.0
 11
188.13959223648561
 21
79.333333333375805
 31
0.0
  0
LINE
  5
1DD98
  8
0
 10
188.13959223648561
 20
80.333333333375805
 30
0.0
 11
187.80196029993041
 21
80.333333333375805
 31
0.0
  0
LINE
  5
1DD99
  8
0
 10
210.9547489544843
 20
79.3333333333334
 30
0.0
 11
212.1395922364857
 21
79.3333333333334
 31
0.0
  0
LINE
  5
1DD9A
  8
0
 10
212.1395922364857
 20
80.3333333333334
 30
0.0
 11
211.72790711552511
 21
80.3333333333334
 31
0.0
  0
LINE
  5
1DD9B
  8
0
 10
216.5270744301817
 20
79.3333333333334
 30
0.0
 11
218.13959223648561
 21
79.3333333333334
 31
0.0
  0
LINE
  5
1DD9C
  8
0
 10
218.13959223648561
 20
80.3333333333334
 30
0.0
 11
216.5270744301817
 21
80.3333333333334
 31
0.0
  0
LINE
  5
1DD9D
  8
0
 10
198.5270744301817
 20
79.333333333375805
 30
0.0
 11
200.13959223648561
 21
79.333333333375805
 31
0.0
  0
LINE
  5
1DD9E
  8
0
 10
200.13959223648561
 20
80.333333333375805
 30
0.0
 11
198.5270744301817
 21
80.333333333375805
 31
0.0
  0
LINE
  5
1DD9F
  8
0
 10
192.5270744301817
 20
79.333333333375805
 30
0.0
 11
194.13959223648561
 21
79.333333333375805
 31
0.0
  0
LINE
  5
1DDA0
  8
0
 10
194.13959223648561
 20
80.333333333375805
 30
0.0
 11
192.5270744301817
 21
80.333333333375805
 31
0.0
  0
LINE
  5
1DDA1
  8
0
 10
228.5270744301817
 20
79.3333333333334
 30
0.0
 11
230.83333333333371
 21
79.3333333333334
 31
0.0
  0
LINE
  5
1DDA2
  8
0
 10
230.83333333333371
 20
80.3333333333334
 30
0.0
 11
228.5270744301817
 21
80.3333333333334
 31
0.0
  0
LINE
  5
1DDA3
  8
0
 10
204.5270744301817
 20
79.333333333375805
 30
0.0
 11
206.1395922364857
 21
79.333333333375805
 31
0.0
  0
LINE
  5
1DDA4
  8
0
 10
206.1395922364857
 20
80.333333333375805
 30
0.0
 11
204.5270744301817
 21
80.333333333375805
 31
0.0
  0
POLYLINE
  5
1DDA5
  8
0
 66
     1
 10
0.0
 20
0.0
 30
0.0
 70
   128
  0
VERTEX
  5
1E5CB
  8
0
 10
168.8333333333336
 20
83.233333333375768
 30
0.0
  0
VERTEX
  5
1E5CC
  8
0
 10
168.83335119053291
 20
83.237962407592264
 30
0.0
  0
VERTEX
  5
1E5CD
  8
0
 10
169.05740494488111
 20
83.700963365297895
 30
0.0
  0
VERTEX
  5
1E5CE
  8
0
 10
169.43333333333359
 20
83.833333333375805
 30
0.0
  0
SEQEND
  5
1E5CF
  8
0
  0
LINE
  5
1DDA6
  8
0
 10
174.33333333333371
 20
80.483333333375796
 30
0.0
 11
169.03333333035351
 21
80.483333333375796
 31
0.0
  0
POLYLINE
  5
1DDA7
  8
0
 66
     1
 10
0.0
 20
0.0
 30
0.0
 70
   128
  0
VERTEX
  5
1E5D0
  8
0
 10
169.03333333035351
 20
80.483333333375796
 30
0.0
  0
VERTEX
  5
1E5D1
  8
0
 10
168.9367179861606
 20
80.508217729574227
 30
0.0
  0
VERTEX
  5
1E5D2
  8
0
 10
168.83335256417391
 20
80.680559893814376
 30
0.0
  0
VERTEX
  5
1E5D3
  8
0
 10
168.8333333333336
 20
80.683333333375813
 30
0.0
  0
SEQEND
  5
1E5D4
  8
0
  0
LINE
  5
1DDA8
  8
0
 10
169.43333333333359
 20
83.833333333375805
 30
0.0
 11
183.83333333333371
 21
83.833333333375805
 31
0.0
  0
POLYLINE
  5
1DDA9
  8
0
 66
     1
 10
0.0
 20
0.0
 30
0.0
 70
   128
  0
VERTEX
  5
1E5D5
  8
0
 10
168.8333333333336
 20
78.983333333375782
 30
0.0
  0
VERTEX
  5
1E5D6
  8
0
 10
168.83335256417391
 20
78.986106772937234
 30
0.0
  0
VERTEX
  5
1E5D7
  8
0
 10
168.9367179882928
 20
79.1584489383537
 30
0.0
  0
VERTEX
  5
1E5D8
  8
0
 10
169.03333333333359
 20
79.183333333375813
 30
0.0
  0
SEQEND
  5
1E5D9
  8
0
  0
POLYLINE
  5
1DDAA
  8
0
 66
     1
 10
0.0
 20
0.0
 30
0.0
 70
   128
  0
VERTEX
  5
1E5DA
  8
0
 10
169.43333333333359
 20
75.833333333375691
 30
0.0
  0
VERTEX
  5
1E5DB
  8
0
 10
169.05740494488111
 20
75.965703301453601
 30
0.0
  0
VERTEX
  5
1E5DC
  8
0
 10
168.83335119053291
 20
76.428704259159332
 30
0.0
  0
VERTEX
  5
1E5DD
  8
0
 10
168.8333333333336
 20
76.433333333375828
 30
0.0
  0
SEQEND
  5
1E5DE
  8
0
  0
LINE
  5
1DDAB
  8
0
 10
169.03333333333359
 20
79.183333333375813
 30
0.0
 11
174.63333333333361
 21
79.183333333375813
 31
0.0
  0
LINE
  5
1DDAC
  8
0
 10
183.83333333333371
 20
75.833333333375691
 30
0.0
 11
169.43333333333359
 21
75.833333333375691
 31
0.0
  0
LINE
  5
1DDAD
  8
0
 10
174.83333333333371
 20
78.683333333375828
 30
0.0
 11
174.83333333333371
 21
78.983333333375782
 31
0.0
  0
ARC
  5
1DDAE
  8
0
 10
174.63333333333361
 20
78.983333333375782
 30
0.0
 40
0.1999999999999886
 50
0.0
 51
90.0
  0
ARC
  5
1DDAF
  8
0
 10
174.33333333333371
 20
80.983333333375782
 30
0.0
 40
0.5
 50
270.0
 51
0.0
  0
ARC
  5
1DDB0
  8
0
 10
181.04724613918179
 20
76.299536770671153
 30
0.0
 40
1.999999999999994
 50
51.747334162148469
 51
86.500000000000256
  0
ARC
  5
1DDB1
  8
0
 10
183.83333333333371
 20
79.833333333375805
 30
0.0
 40
2.499999999999996
 50
231.74733416215309
 51
128.25266583785151
  0
ARC
  5
1DDB2
  8
0
 10
181.04724613918179
 20
83.367129896080456
 30
0.0
 40
2.0000000000000169
 50
273.49999999999972
 51
308.25266583785151
  0
ARC
  5
1DDB3
  8
0
 10
183.83333333333371
 20
79.833333333375805
 30
0.0
 40
4.0
 50
0.0
 51
90.0
  0
ARC
  5
1DDB4
  8
0
 10
183.83333333333371
 20
79.833333333375805
 30
0.0
 40
4.0000000000000284
 50
270.0
 51
0.0
  0
LINE
  5
1DDB5
  8
0
 10
174.83333333333371
 20
78.683333333375828
 30
0.0
 11
181.16934321825161
 21
78.295806367514871
 31
0.0
  0
LINE
  5
1DDB6
  8
0
 10
181.16934321825161
 20
81.370860299236739
 30
0.0
 11
174.83333333333371
 21
80.983333333375782
 31
0.0
  0
POLYLINE
  5
1DDB7
  8
0
 66
     1
 10
0.0
 20
0.0
 30
0.0
 70
   128
  0
VERTEX
  5
1E5DF
  8
0
 10
230.83333333333371
 20
77.814884244336241
 30
0.0
  0
VERTEX
  5
1E5E0
  8
0
 10
230.83335072470319
 20
77.810315946469842
 30
0.0
  0
VERTEX
  5
1E5E1
  8
0
 10
230.96212147706979
 20
77.443455399850464
 30
0.0
  0
VERTEX
  5
1E5E2
  8
0
 10
231.30346956497081
 20
77.229106640064316
 30
0.0
  0
SEQEND
  5
1E5E3
  8
0
  0
POLYLINE
  5
1DDB8
  8
0
 66
     1
 10
0.0
 20
0.0
 30
0.0
 70
   128
  0
VERTEX
  5
1E5E4
  8
0
 10
231.30346956497081
 20
82.43756002660237
 30
0.0
  0
VERTEX
  5
1E5E5
  8
0
 10
230.96212147706979
 20
82.223211266816335
 30
0.0
  0
VERTEX
  5
1E5E6
  8
0
 10
230.83335072470319
 20
81.856350720198662
 30
0.0
  0
VERTEX
  5
1E5E7
  8
0
 10
230.83333333333371
 20
81.851782422330444
 30
0.0
  0
SEQEND
  5
1E5E8
  8
0
  0
ARC
  5
1DDB9
  8
0
 10
226.8338653028342
 20
79.831354269568948
 30
0.0
 40
4.0308415497430179
 50
0.0281310997347572
 51
7.1532512242516351
  0
ARC
  5
1DDBA
  8
0
 10
226.83428294483929
 20
79.835246250701658
 30
0.0
 40
4.0304238758512341
 50
352.8463812965631
 51
359.9728063103932
  0
ARC
  5
1DDBB
  8
0
 10
242.98624708595469
 20
76.833333333333968
 30
0.0
 40
7.9999999999994031
 50
90.0
 51
102.4999999999977
  0
LINE
  5
1DDBC
  8
0
 10
231.3034695649705
 20
82.43756002660237
 30
0.0
 11
241.2547301744502
 21
84.643701390292819
 31
0.0
  0
CIRCLE
  5
1DDBD
  8
0
 10
244.83333333333371
 20
79.8333333333334
 30
0.0
 40
4.0
  0
LINE
  5
1DDBE
  8
0
 10
241.2547301744502
 20
75.022965276373867
 30
0.0
 11
231.30346956497081
 21
77.229106640064316
 31
0.0
  0
LINE
  5
1DDBF
  8
0
 10
242.98624708595469
 20
74.833333333333286
 30
0.0
 11
244.83333333333371
 21
74.833333333333286
 31
0.0
  0
LINE
  5
1DDC0
  8
0
 10
194.13959223648561
 20
80.333333333375805
 30
0.0
 11
194.13959223648561
 21
79.333333333375805
 31
0.0
  0
ARC
  5
1DDC1
  8
0
 10
242.98624708595469
 20
82.833333333331467
 30
0.0
 40
7.9999999999981242
 50
257.49999999999909
 51
270.0
  0
LINE
  5
1DDC2
  8
0
 10
242.98624708595469
 20
84.833333333333385
 30
0.0
 11
244.83333333333371
 21
84.833333333333385
 31
0.0
  0
LINE
  5
1DDC3
  8
0
 10
206.1395922364857
 20
80.333333333375805
 30
0.0
 11
206.1395922364857
 21
79.333333333375805
 31
0.0
  0
ARC
  5
1DDC4
  8
0
 10
244.83333333333371
 20
79.8333333333334
 30
0.0
 40
5.0000000000000284
 50
270.0
 51
0.0000000004852763
  0
ARC
  5
1DDC5
  8
0
 10
244.83333333333371
 20
79.8333333333334
 30
0.0
 40
5.0
 50
0.0000000004852763
 51
90.0
  0
CIRCLE
  5
1DDC6
  8
0
 10
244.83333333333371
 20
79.8333333333334
 30
0.0
 40
2.5
  0
LINE
  5
1DDC7
  8
0
 10
204.5270744301817
 20
79.333333333375805
 30
0.0
 11
204.5270744301817
 21
80.333333333375805
 31
0.0
  0
LINE
  5
1DDC8
  8
0
 10
200.13959223648561
 20
80.333333333375805
 30
0.0
 11
200.13959223648561
 21
79.333333333375805
 31
0.0
  0
LINE
  5
1DDC9
  8
0
 10
228.5270744301817
 20
79.3333333333334
 30
0.0
 11
228.5270744301817
 21
80.3333333333334
 31
0.0
  0
POLYLINE
  5
1DDCA
  8
4
 66
     1
 10
0.0
 20
0.0
 30
0.0
  0
VERTEX
  5
1DDCB
  8
4
 10
209.58805369132389
 20
76.761445354969311
 30
0.0
 42
-0.0744127175610667
  0
VERTEX
  5
1DDCC
  8
4
 10
209.0635585341347
 20
77.455411348938952
 30
0.0
 42
-0.1536795722212451
  0
VERTEX
  5
1DDCD
  8
4
 10
208.79982575836851
 20
78.800078369273052
 30
0.0
 42
-0.1847247553159499
  0
VERTEX
  5
1DDCE
  8
4
 10
209.333331994042
 20
79.833333333290994
 30
0.0
 42
0.1729818233278114
  0
VERTEX
  5
1DDCF
  8
4
 10
209.9256009781684
 20
80.919052915471894
 30
0.0
 42
0.1305645647028073
  0
VERTEX
  5
1DDD0
  8
4
 10
209.77018682240779
 20
82.424859346682993
 30
0.0
 42
0.0267269543158863
  0
VERTEX
  5
1DDD1
  8
4
 10
209.6215099438063
 20
82.761445354969297
 30
0.0
  0
SEQEND
  5
1DDD2
  8
4
  0
LINE
  5
1DDD3
  8
0
 10
224.13959223648561
 20
80.3333333333334
 30
0.0
 11
224.13959223648561
 21
79.3333333333334
 31
0.0
  0
ARC
  5
1DDD4
  8
0
 10
196.33333333333371
 20
79.833333333375805
 30
0.0
 40
2.25000000000004
 50
12.83958840690118
 51
167.16041159309879
  0
ARC
  5
1DDD5
  8
0
 10
190.33333333333371
 20
79.833333333375805
 30
0.0
 40
2.2500000000000342
 50
12.83958840690118
 51
167.16041159309879
  0
LINE
  5
1DDD6
  8
0
 10
222.5270744301817
 20
79.3333333333334
 30
0.0
 11
222.5270744301817
 21
80.3333333333334
 31
0.0
  0
LINE
  5
1DDD7
  8
0
 10
218.13959223648561
 20
80.3333333333334
 30
0.0
 11
218.13959223648561
 21
79.3333333333334
 31
0.0
  0
ARC
  5
1DDD8
  8
0
 10
202.33333333333371
 20
79.833333333375805
 30
0.0
 40
2.25000000000004
 50
12.83958840690118
 51
167.16041159309879
  0
LINE
  5
1DDD9
  8
0
 10
198.5270744301817
 20
79.333333333375805
 30
0.0
 11
198.5270744301817
 21
80.333333333375805
 31
0.0
  0
ARC
  5
1DDDA
  8
0
 10
226.33333333333371
 20
79.8333333333334
 30
0.0
 40
2.249999999999984
 50
12.839588406907859
 51
167.16041159309211
  0
ARC
  5
1DDDB
  8
0
 10
220.33333333333371
 20
79.8333333333334
 30
0.0
 40
2.249999999999984
 50
12.839588406907859
 51
167.16041159309211
  0
LINE
  5
1DDDC
  8
0
 10
216.5270744301817
 20
79.3333333333334
 30
0.0
 11
216.5270744301817
 21
80.3333333333334
 31
0.0
  0
LINE
  5
1DDDD
  8
0
 10
212.1395922364857
 20
80.3333333333334
 30
0.0
 11
212.1395922364857
 21
79.3333333333334
 31
0.0
  0
LINE
  5
1DDDE
  8
0
 10
192.5270744301817
 20
79.333333333375805
 30
0.0
 11
192.5270744301817
 21
80.333333333375805
 31
0.0
  0
LINE
  5
1DDDF
  8
0
 10
188.13959223648561
 20
80.333333333375805
 30
0.0
 11
188.13959223648561
 21
79.333333333375805
 31
0.0
  0
POLYLINE
  5
1DDE0
  8
4
 66
     1
 10
0.0
 20
0.0
 30
0.0
  0
VERTEX
  5
1DDE1
  8
4
 10
211.5880536912905
 20
76.761445354969311
 30
0.0
 42
-0.0744127175610667
  0
VERTEX
  5
1DDE2
  8
4
 10
211.06355853410119
 20
77.455411348938952
 30
0.0
 42
-0.1536795722212451
  0
VERTEX
  5
1DDE3
  8
4
 10
210.79982575833509
 20
78.800078369273052
 30
0.0
 42
-0.1847247553159499
  0
VERTEX
  5
1DDE4
  8
4
 10
211.3333319940086
 20
79.833333333290994
 30
0.0
 42
0.1729818233278114
  0
VERTEX
  5
1DDE5
  8
4
 10
211.9256009781349
 20
80.919052915471894
 30
0.0
 42
0.1305645647028073
  0
VERTEX
  5
1DDE6
  8
4
 10
211.7701868223744
 20
82.424859346682993
 30
0.0
 42
0.0267269543158863
  0
VERTEX
  5
1DDE7
  8
4
 10
211.62150994377291
 20
82.761445354969297
 30
0.0
  0
SEQEND
  5
1DDE8
  8
4
  0
LINE
  5
1DDE9
  8
2
 10
171.3333333333336
 20
82.333333333375577
 30
0.0
 11
171.3333333333336
 21
80.483333333375796
 31
0.0
  0
LINE
  5
1DDEA
  8
2
 10
176.33333333333371
 20
81.075077263601443
 30
0.0
 11
176.33333333333371
 21
82.333333333375805
 31
0.0
  0
LINE
  5
1DDEB
  8
2
 10
171.3333333333336
 20
79.183333333375813
 30
0.0
 11
171.3333333333336
 21
77.333333333375919
 31
0.0
  0
LINE
  5
1DDEC
  8
2
 10
176.33333333333371
 20
77.333333333375805
 30
0.0
 11
176.33333333333371
 21
78.591589403150039
 31
0.0
  0
ARC
  5
1DDED
  8
0
 10
208.33333333333371
 20
79.833333333375805
 30
0.0
 40
2.25000000000004
 50
43.635208626997617
 51
167.16041159309879
  0
LINE
  5
1DDEE
  8
2
 10
171.3333333333334
 20
82.333333333375805
 30
0.0
 11
169.8333333333334
 21
83.833333333375805
 31
0.0
  0
LINE
  5
1DDEF
  8
1
 10
173.83333333333371
 20
85.333333333375805
 30
0.0
 11
173.83333333333371
 21
74.333333333375691
 31
0.0
  0
ARC
  5
1DDF0
  8
0
 10
214.33333333333371
 20
79.8333333333334
 30
0.0
 40
2.249999999999984
 50
12.839588406907859
 51
167.16041159309879
  0
LINE
  5
1DDF1
  8
2
 10
171.33333333333221
 20
77.333333333374554
 30
0.0
 11
176.33333333333371
 21
77.333333333376942
 31
0.0
  0
LINE
  5
1DDF2
  8
2
 10
171.33333333333459
 20
82.333333333374554
 30
0.0
 11
176.33333333333249
 21
82.333333333376956
 31
0.0
  0
LINE
  5
1DDF3
  8
2
 10
177.83333333333371
 20
75.833333333375691
 30
0.0
 11
176.33333333333371
 21
77.333333333375805
 31
0.0
  0
LINE
  5
1DDF4
  8
2
 10
176.33333333333371
 20
82.333333333375805
 30
0.0
 11
177.83333333333371
 21
83.833333333375805
 31
0.0
  0
LINE
  5
1DDF5
  8
2
 10
169.8333333333334
 20
75.833333333375691
 30
0.0
 11
171.3333333333334
 21
77.333333333375805
 31
0.0
  0
LINE
  5
1DDF6
  8
1
 10
244.83333333333371
 20
85.3333333333334
 30
0.0
 11
244.83333333333371
 21
74.333333333333286
 31
0.0
  0
LINE
  5
1DDF7
  8
1
 10
184.33333333333371
 20
83.583333333375805
 30
0.0
 11
184.33333333333371
 21
76.083333333375691
 31
0.0
  0
LINE
  5
1DDF8
  8
1
 10
234.33333333333371
 20
84.645683924055376
 30
0.0
 11
234.33333333333371
 21
75.02098274261121
 31
0.0
  0
LINE
  5
1DDFC
  8
1
 10
252.8333333333336
 20
79.833333333333343
 30
0.0
 11
132.0000000000002
 21
79.833333333333343
 31
0.0
  0
LINE
  5
1E216
  8
0
 10
137.86350000000019
 20
53.0
 30
0.0
 11
142.6365000000003
 21
53.0
 31
0.0
  0
LINE
  5
1E217
  8
0
 10
142.6365000000003
 20
53.0
 30
0.0
 11
143.2500000000002
 21
53.613499999999981
 31
0.0
  0
LINE
  5
1E218
  8
0
 10
137.25000000000031
 20
53.613499999999981
 30
0.0
 11
137.86350000000019
 21
53.0
 31
0.0
  0
LINE
  5
1E219
  8
0
 10
137.25000000000031
 20
53.613499999999981
 30
0.0
 11
143.2500000000002
 21
53.613499999999981
 31
0.0
  0
LINE
  5
1E21A
  8
0
 10
143.2500000000002
 20
53.613499999999981
 30
0.0
 11
143.2500000000002
 21
78.0
 31
0.0
  0
LINE
  5
1E21B
  8
0
 10
137.25000000000031
 20
78.0
 30
0.0
 11
137.25000000000031
 21
53.613499999999981
 31
0.0
  0
LINE
  5
1E21C
  8
3
 10
137.86350000000019
 20
53.0
 30
0.0
 11
137.86350000000019
 21
78.0
 31
0.0
  0
LINE
  5
1E21D
  8
3
 10
142.6365000000003
 20
53.0
 30
0.0
 11
142.6365000000003
 21
78.0
 31
0.0
  0
LINE
  5
1E21E
  8
0
 10
47.613499999999988
 20
53.0
 30
0.0
 11
52.386500000000012
 21
53.0
 31
0.0
  0
LINE
  5
1E21F
  8
0
 10
52.386500000000012
 20
53.0
 30
0.0
 11
53.0
 21
53.613499999999981
 31
0.0
  0
LINE
  5
1E220
  8
0
 10
47.0
 20
53.613499999999981
 30
0.0
 11
47.613499999999988
 21
53.0
 31
0.0
  0
LINE
  5
1E221
  8
0
 10
47.0
 20
53.613499999999981
 30
0.0
 11
53.0
 21
53.613499999999981
 31
0.0
  0
LINE
  5
1E222
  8
0
 10
53.0
 20
53.613499999999981
 30
0.0
 11
53.0
 21
78.0
 31
0.0
  0
LINE
  5
1E223
  8
0
 10
47.0
 20
78.0
 30
0.0
 11
47.0
 21
53.613499999999981
 31
0.0
  0
LINE
  5
1E224
  8
3
 10
47.613499999999988
 20
53.0
 30
0.0
 11
47.613499999999988
 21
78.0
 31
0.0
  0
LINE
  5
1E225
  8
3
 10
52.386500000000012
 20
53.0
 30
0.0
 11
52.386500000000012
 21
78.0
 31
0.0
  0
ARC
  5
1E280
  8
2
 10
158.0010324068686
 20
164.72744460202739
 30
0.0
 40
1.9075709697213421
 50
282.88257391891472
 51
77.117426081085398
  0
ENDSEC
  0
EOF
