  0
SECTION
  2
HEADER
  9
$ACADVER
  1
AC1009
  9
$INSBASE
 10
0.0
 20
0.0
 30
0.0
  9
$EXTMIN
 10
0.0
 20
-2.960436562073669
 30
0.0
  9
$EXTMAX
 10
136.29286667112501
 20
130.7695149966957
 30
0.0
  9
$LIMMIN
 10
0.0
 20
0.0
  9
$LIMMAX
 10
187.5
 20
135.0
  9
$ORTHOMODE
 70
     1
  9
$REGENMODE
 70
     1
  9
$FILLMODE
 70
     1
  9
$QTEXTMODE
 70
     0
  9
$MIRRTEXT
 70
     0
  9
$DRAGMODE
 70
     2
  9
$LTSCALE
 40
5.0
  9
$OSMODE
 70
  3071
  9
$ATTMODE
 70
     1
  9
$TEXTSIZE
 40
0.2
  9
$TRACEWID
 40
0.05
  9
$TEXTSTYLE
  7
STANDARD
  9
$CLAYER
  8
0
  9
$CELTYPE
  6
BYLAYER
  9
$CECOLOR
 62
     6
  9
$DIMSCALE
 40
1.0
  9
$DIMASZ
 40
3.0
  9
$DIMEXO
 40
2.0
  9
$DIMDLI
 40
0.3799999999999999
  9
$DIMRND
 40
0.0
  9
$DIMDLE
 40
0.0
  9
$DIMEXE
 40
2.0
  9
$DIMTP
 40
0.0
  9
$DIMTM
 40
0.0
  9
$DIMTXT
 40
3.2000000000000002
  9
$DIMCEN
 40
0.09
  9
$DIMTSZ
 40
0.0
  9
$DIMTOL
 70
     0
  9
$DIMLIM
 70
     0
  9
$DIMTIH
 70
     0
  9
$DIMTOH
 70
     0
  9
$DIMSE1
 70
     0
  9
$DIMSE2
 70
     0
  9
$DIMTAD
 70
     1
  9
$DIMZIN
 70
     8
  9
$DIMBLK
  1

  9
$DIMASO
 70
     0
  9
$DIMSHO
 70
     0
  9
$DIMPOST
  1

  9
$DIMAPOST
  1

  9
$DIMALT
 70
     0
  9
$DIMALTD
 70
     2
  9
$DIMALTF
 40
25.399999999999999
  9
$DIMLFAC
 40
1.0
  9
$DIMTOFL
 70
     0
  9
$DIMTVP
 40
1.6000000000000001
  9
$DIMTIX
 70
     1
  9
$DIMSOXD
 70
     0
  9
$DIMSAH
 70
     0
  9
$DIMBLK1
  1

  9
$DIMBLK2
  1

  9
$DIMSTYLE
  2
STANDARD
  9
$DIMCLRD
 70
     0
  9
$DIMCLRE
 70
     0
  9
$DIMCLRT
 70
     0
  9
$DIMTFAC
 40
1.0
  9
$DIMGAP
 40
1.0
  9
$LUNITS
 70
     2
  9
$LUPREC
 70
     4
  9
$SKETCHINC
 40
0.1
  9
$FILLETRAD
 40
0.4
  9
$AUNITS
 70
     0
  9
$AUPREC
 70
     0
  9
$MENU
  1
E:\r13\win\SUPPORT\ACAD
  9
$ELEVATION
 40
0.0
  9
$PELEVATION
 40
0.0
  9
$THICKNESS
 40
0.0
  9
$LIMCHECK
 70
     0
  9
$BLIPMODE
 70
     0
  9
$CHAMFERA
 40
0.0
  9
$CHAMFERB
 40
0.0
  9
$SKPOLY
 70
     0
  9
$TDCREATE
 40
2456129.6740617128
  9
$TDUPDATE
 40
2456598.6945652668
  9
$TDINDWG
 40
0.4913453356
  9
$TDUSRTIMER
 40
0.491345162
  9
$USRTIMER
 70
     1
  9
$ANGBASE
 50
0.0
  9
$ANGDIR
 70
     0
  9
$PDMODE
 70
     0
  9
$PDSIZE
 40
0.0
  9
$PLINEWID
 40
0.0
  9
$COORDS
 70
     1
  9
$SPLFRAME
 70
     0
  9
$SPLINETYPE
 70
     6
  9
$SPLINESEGS
 70
     8
  9
$ATTDIA
 70
     0
  9
$ATTREQ
 70
     1
  9
$HANDLING
 70
     1
  9
$HANDSEED
  5
A53E
  9
$SURFTAB1
 70
     6
  9
$SURFTAB2
 70
     6
  9
$SURFTYPE
 70
     6
  9
$SURFU
 70
     6
  9
$SURFV
 70
     6
  9
$UCSNAME
  2

  9
$UCSORG
 10
0.0
 20
0.0
 30
0.0
  9
$UCSXDIR
 10
1.0
 20
0.0
 30
0.0
  9
$UCSYDIR
 10
0.0
 20
1.0
 30
0.0
  9
$PUCSNAME
  2

  9
$PUCSORG
 10
0.0
 20
0.0
 30
0.0
  9
$PUCSXDIR
 10
1.0
 20
0.0
 30
0.0
  9
$PUCSYDIR
 10
0.0
 20
1.0
 30
0.0
  9
$USERI1
 70
     0
  9
$USERI2
 70
     1
  9
$USERI3
 70
     0
  9
$USERI4
 70
     0
  9
$USERI5
 70
     0
  9
$USERR1
 40
0.0
  9
$USERR2
 40
0.0
  9
$USERR3
 40
0.0
  9
$USERR4
 40
0.0
  9
$USERR5
 40
0.0
  9
$WORLDVIEW
 70
     1
  9
$SHADEDGE
 70
     3
  9
$SHADEDIF
 70
    70
  9
$TILEMODE
 70
     1
  9
$MAXACTVP
 70
    16
  9
$PLIMCHECK
 70
     0
  9
$PEXTMIN
 10
1.0000000000000000E+020
 20
1.0000000000000000E+020
 30
1.0000000000000000E+020
  9
$PEXTMAX
 10
-1.0000000000000000E+020
 20
-1.0000000000000000E+020
 30
-1.0000000000000000E+020
  9
$PLIMMIN
 10
0.0
 20
0.0
  9
$PLIMMAX
 10
12.0
 20
9.0
  9
$UNITMODE
 70
     0
  9
$VISRETAIN
 70
     0
  9
$PLINEGEN
 70
     0
  9
$PSLTSCALE
 70
     0
  0
ENDSEC
  0
SECTION
  2
TABLES
  0
TABLE
  2
VPORT
 70
     1
  0
VPORT
  2
*ACTIVE
 70
     0
 10
0.0
 20
0.0
 11
1.0
 21
1.0
 12
93.74713919532617
 22
84.409320335418187
 13
0.0
 23
0.0
 14
5.0
 24
5.0
 15
5.0
 25
5.0
 16
0.0
 26
0.0
 36
1.0
 17
0.0
 27
0.0
 37
0.0
 40
176.3453639730015
 41
1.831871345029239
 42
50.0
 43
0.0
 44
0.0
 50
0.0
 51
0.0
 71
     0
 72
   500
 73
     1
 74
     0
 75
     0
 76
     0
 77
     0
 78
     2
  0
ENDTAB
  0
TABLE
  2
LTYPE
 70
     3
  0
LTYPE
  2
CONTINUOUS
 70
     0
  3
Solid Line
 72
    65
 73
     0
 40
0.0
  0
LTYPE
  2
CENTER
 70
     0
  3
____ _ ____ _ ____ _ ____ _ ____ _ ____ _ ____
 72
    65
 73
     4
 40
2.0
 49
1.25
 49
-0.25
 49
0.25
 49
-0.25
  0
LTYPE
  2
PHANTOM2
 70
     0
  3
___ _ _ ___ _ _ ___ _ _ ___ _ _
 72
    65
 73
     6
 40
1.25
 49
0.625
 49
-0.125
 49
0.125
 49
-0.125
 49
0.125
 49
-0.125
  0
ENDTAB
  0
TABLE
  2
LAYER
 70
     4
  0
LAYER
  2
0
 70
     0
 62
     7
  6
CONTINUOUS
  0
LAYER
  2
1
 70
     0
 62
     1
  6
CENTER
  0
LAYER
  2
3
 70
     0
 62
     3
  6
CONTINUOUS
  0
LAYER
  2
DEFPOINTS
 70
     0
 62
     7
  6
CONTINUOUS
  0
ENDTAB
  0
TABLE
  2
STYLE
 70
     2
  0
STYLE
  2
STANDARD
 70
     0
 40
0.0
 41
1.0
 50
0.0
 71
     0
 42
0.2
  3
TXT
  4
BIGFONT
  0
STYLE
  2
STANDARD1
 70
     0
 40
0.0
 41
1.0
 50
0.0
 71
     0
 42
3.0
  3
txt
  4

  0
ENDTAB
  0
TABLE
  2
VIEW
 70
     0
  0
ENDTAB
  0
TABLE
  2
UCS
 70
     0
  0
ENDTAB
  0
TABLE
  2
APPID
 70
     7
  0
APPID
  2
ACAD
 70
     0
  0
APPID
  2
ACAD_MLEADERVER
 70
     0
  0
APPID
  2
ACAD_PSEXT
 70
     0
  0
APPID
  2
ACAD_EXEMPT_FROM_CAD_STANDARDS
 70
     0
  0
APPID
  2
ACAD_DSTYLE_DIMJAG
 70
     0
  0
APPID
  2
ACAD_DSTYLE_DIMTALN
 70
     0
  0
APPID
  2
ACAD_NAV_VCDISPLAY
 70
     0
  0
ENDTAB
  0
TABLE
  2
DIMSTYLE
 70
     1
  0
DIMSTYLE
  2
STANDARD
 70
     0
  3

  4

  5

  6

  7

 40
1.0
 41
0.18
 42
0.0625
 43
0.38
 44
0.18
 45
0.0
 46
0.0
 47
0.0
 48
0.0
140
0.18
141
0.09
142
0.0
143
25.399999999999999
144
1.0
145
0.0
146
1.0
147
0.09
 71
     0
 72
     0
 73
     1
 74
     1
 75
     0
 76
     0
 77
     0
 78
     0
170
     0
171
     2
172
     0
173
     0
174
     0
175
     0
176
     0
177
     0
178
     0
  0
ENDTAB
  0
ENDSEC
  0
SECTION
  2
BLOCKS
  0
BLOCK
  8
0
  2
$MODEL_SPACE
 70
     0
 10
0.0
 20
0.0
 30
0.0
  3
$MODEL_SPACE
  1

  0
ENDBLK
  5
9
  8
0
  0
BLOCK
 67
     1
  8
0
  2
$PAPER_SPACE
 70
     0
 10
0.0
 20
0.0
 30
0.0
  3
$PAPER_SPACE
  1

  0
ENDBLK
  5
E
 67
     1
  8
0
  0
ENDSEC
  0
SECTION
  2
ENTITIES
  0
LINE
  5
4FCE
  8
1
 10
108.28200824704849
 20
27.7574135435347
 30
0.0
 11
108.28200824704849
 21
90.462069531329234
 31
0.0
  0
ARC
  5
4FD2
  8
0
 10
91.982008247048554
 20
78.911350227879723
 30
0.0
 40
7.1999999999999877
 50
90.0
 51
249.32290360735919
  0
LINE
  5
4FD3
  8
0
 10
124.58200824704851
 20
86.111350227879711
 30
0.0
 11
124.2846692605499
 21
86.111350227879711
 31
0.0
  0
ARC
  5
4FD4
  8
0
 10
124.58200824704851
 20
78.911350227879723
 30
0.0
 40
7.199999999999986
 50
290.67709639263933
 51
90.0
  0
ARC
  5
4FD5
  8
0
 10
115.5301046150794
 20
123.0030338438236
 30
0.0
 40
57.133049242426239
 50
242.82815740995949
 51
255.81764980476601
  0
ARC
  5
4FD6
  8
0
 10
101.03391187901769
 20
123.0030338438236
 30
0.0
 40
57.133049242426232
 50
284.18235019523399
 51
297.17184259004051
  0
LINE
  5
4FD7
  8
0
 10
101.53200824704849
 20
67.611350227879768
 30
0.0
 11
101.53200824704849
 21
62.111350227879711
 31
0.0
  0
LINE
  5
4FD8
  8
0
 10
115.03200824704859
 20
62.111350227879711
 30
0.0
 11
115.03200824704859
 21
67.611350227879711
 31
0.0
  0
LINE
  5
4FDD
  8
0
 10
102.69732430814121
 20
84.079131107668104
 30
0.0
 11
113.8666921859558
 21
84.079131107668104
 31
0.0
  0
LINE
  5
4FDF
  8
0
 10
115.03200824704859
 20
62.111350227879711
 30
0.0
 11
101.53200824704849
 21
62.111350227879711
 31
0.0
  0
POLYLINE
  5
4FE0
  8
0
 66
     1
 10
0.0
 20
0.0
 30
0.0
  0
VERTEX
  5
A166
  8
0
 10
100.193993179166
 20
84.352868073439311
 30
0.0
  0
VERTEX
  5
A167
  8
0
 10
100.2714760001066
 20
84.339710036435747
 30
0.0
  0
VERTEX
  5
A168
  8
0
 10
100.4288181069881
 20
84.313736483086018
 30
0.0
  0
VERTEX
  5
A169
  8
0
 10
100.58845483336989
 20
84.288404058009974
 30
0.0
  0
VERTEX
  5
A16A
  8
0
 10
100.6688043889073
 20
84.276043827589476
 30
0.0
  0
VERTEX
  5
A16B
  8
0
 10
100.7493351071427
 20
84.263920123893172
 30
0.0
  0
VERTEX
  5
A16C
  8
0
 10
100.9104343297961
 20
84.240472146348225
 30
0.0
  0
VERTEX
  5
A16D
  8
0
 10
101.070739155583
 20
84.218230663631516
 30
0.0
  0
VERTEX
  5
A16E
  8
0
 10
101.22924340364411
 20
84.197349887977566
 30
0.0
  0
VERTEX
  5
A16F
  8
0
 10
101.3850180139253
 20
84.177958800905117
 30
0.0
  0
VERTEX
  5
A170
  8
0
 10
101.53724547351349
 20
84.160159030852014
 30
0.0
  0
VERTEX
  5
A171
  8
0
 10
101.6117486746822
 20
84.151886940298127
 30
0.0
  0
VERTEX
  5
A172
  8
0
 10
101.6850325998831
 20
84.144047482262124
 30
0.0
  0
VERTEX
  5
A173
  8
0
 10
101.82753270377781
 20
84.129699618512177
 30
0.0
  0
VERTEX
  5
A174
  8
0
 10
101.9639769566019
 20
84.117166034526306
 30
0.0
  0
VERTEX
  5
A175
  8
0
 10
102.09365520928429
 20
84.106474165193447
 30
0.0
  0
VERTEX
  5
A176
  8
0
 10
102.21592649031329
 20
84.097626372849788
 30
0.0
  0
VERTEX
  5
A177
  8
0
 10
102.3320391035936
 20
84.090497400773643
 30
0.0
  0
VERTEX
  5
A178
  8
0
 10
102.388513282131
 20
84.087539401076242
 30
0.0
  0
VERTEX
  5
A179
  8
0
 10
102.44375906060181
 20
84.085006424463643
 30
0.0
  0
VERTEX
  5
A17A
  8
0
 10
102.55005805493769
 20
84.081268354833185
 30
0.0
  0
VERTEX
  5
A17B
  8
0
 10
102.649998250024
 20
84.079370471155698
 30
0.0
  0
VERTEX
  5
A17C
  8
0
 10
102.69732430814121
 20
84.079131107668104
 30
0.0
  0
SEQEND
  5
A17D
  8
0
  0
POLYLINE
  5
4FE4
  8
0
 66
     1
 10
0.0
 20
0.0
 30
0.0
  0
VERTEX
  5
A17E
  8
0
 10
113.8666921859558
 20
84.079131107668104
 30
0.0
  0
VERTEX
  5
A17F
  8
0
 10
113.9117953900777
 20
84.079348935515895
 30
0.0
  0
VERTEX
  5
A180
  8
0
 10
114.00863521644889
 20
84.081124690059596
 30
0.0
  0
VERTEX
  5
A181
  8
0
 10
114.1140415715135
 20
84.084745213538795
 30
0.0
  0
VERTEX
  5
A182
  8
0
 10
114.1698244106848
 20
84.087262042853055
 30
0.0
  0
VERTEX
  5
A183
  8
0
 10
114.22757721459099
 20
84.090254265150634
 30
0.0
  0
VERTEX
  5
A184
  8
0
 10
114.3487118899926
 20
84.097668060125685
 30
0.0
  0
VERTEX
  5
A185
  8
0
 10
114.4768141322205
 20
84.10697577995478
 30
0.0
  0
VERTEX
  5
A186
  8
0
 10
114.61114972100729
 20
84.118139396598735
 30
0.0
  0
VERTEX
  5
A187
  8
0
 10
114.7509536339454
 20
84.131100098381765
 30
0.0
  0
VERTEX
  5
A188
  8
0
 10
114.89545519785069
 20
84.145783132976987
 30
0.0
  0
VERTEX
  5
A189
  8
0
 10
114.969177228934
 20
84.153738120955708
 30
0.0
  0
VERTEX
  5
A18A
  8
0
 10
115.04371572256829
 20
84.162081642185569
 30
0.0
  0
VERTEX
  5
A18B
  8
0
 10
115.19473355276079
 20
84.179864789440146
 30
0.0
  0
VERTEX
  5
A18C
  8
0
 10
115.34746965508749
 20
84.198980582453942
 30
0.0
  0
VERTEX
  5
A18D
  8
0
 10
115.5008234522241
 20
84.219252685648428
 30
0.0
  0
VERTEX
  5
A18E
  8
0
 10
115.6536509197628
 20
84.240481921783157
 30
0.0
  0
VERTEX
  5
A18F
  8
0
 10
115.8081533640844
 20
84.262949014860965
 30
0.0
  0
VERTEX
  5
A190
  8
0
 10
115.88677403004409
 20
84.274761044256593
 30
0.0
  0
VERTEX
  5
A191
  8
0
 10
115.9661465620984
 20
84.286942161739489
 30
0.0
  0
VERTEX
  5
A192
  8
0
 10
116.1266574203121
 20
84.312355110153348
 30
0.0
  0
VERTEX
  5
A193
  8
0
 10
116.2887146396954
 20
84.339066630210183
 30
0.0
  0
VERTEX
  5
A194
  8
0
 10
116.3700233149311
 20
84.352868073439311
 30
0.0
  0
SEQEND
  5
A195
  8
0
  0
POLYLINE
  5
4FE7
  8
0
 10
116.37002331493099
 20
84.352868073439254
 30
0.0
 66
     1
 70
     8
  0
VERTEX
  8
0
  5
A336
 10
116.370
 20
84.3529
 30
0.000000
  70
    32
  0
VERTEX
  8
0
  5
A337
 10
116.409
 20
84.3595
 30
0.000000
  70
    32
  0
VERTEX
  8
0
  5
A338
 10
116.447
 20
84.3661
 30
0.000000
  70
    32
  0
VERTEX
  8
0
  5
A339
 10
116.485
 20
84.3728
 30
0.000000
  70
    32
  0
VERTEX
  8
0
  5
A33A
 10
116.524
 20
84.3795
 30
0.000000
  70
    32
  0
VERTEX
  8
0
  5
A33B
 10
116.562
 20
84.3862
 30
0.000000
  70
    32
  0
VERTEX
  8
0
  5
A33C
 10
116.601
 20
84.3930
 30
0.000000
  70
    32
  0
VERTEX
  8
0
  5
A33D
 10
116.639
 20
84.3998
 30
0.000000
  70
    32
  0
VERTEX
  8
0
  5
A33E
 10
116.678
 20
84.4066
 30
0.000000
  70
    32
  0
VERTEX
  8
0
  5
A33F
 10
116.716
 20
84.4135
 30
0.000000
  70
    32
  0
VERTEX
  8
0
  5
A340
 10
116.755
 20
84.4204
 30
0.000000
  70
    32
  0
VERTEX
  8
0
  5
A341
 10
116.793
 20
84.4273
 30
0.000000
  70
    32
  0
VERTEX
  8
0
  5
A342
 10
116.831
 20
84.4342
 30
0.000000
  70
    32
  0
VERTEX
  8
0
  5
A343
 10
116.870
 20
84.4412
 30
0.000000
  70
    32
  0
VERTEX
  8
0
  5
A344
 10
116.908
 20
84.4482
 30
0.000000
  70
    32
  0
VERTEX
  8
0
  5
A345
 10
116.947
 20
84.4553
 30
0.000000
  70
    32
  0
VERTEX
  8
0
  5
A346
 10
116.985
 20
84.4624
 30
0.000000
  70
    32
  0
VERTEX
  8
0
  5
A347
 10
117.024
 20
84.4695
 30
0.000000
  70
    32
  0
VERTEX
  8
0
  5
A348
 10
117.062
 20
84.4766
 30
0.000000
  70
    32
  0
VERTEX
  8
0
  5
A349
 10
117.100
 20
84.4838
 30
0.000000
  70
    32
  0
VERTEX
  8
0
  5
A34A
 10
117.139
 20
84.4910
 30
0.000000
  70
    32
  0
VERTEX
  8
0
  5
A34B
 10
117.177
 20
84.4982
 30
0.000000
  70
    32
  0
VERTEX
  8
0
  5
A34C
 10
117.215
 20
84.5055
 30
0.000000
  70
    32
  0
VERTEX
  8
0
  5
A34D
 10
117.254
 20
84.5127
 30
0.000000
  70
    32
  0
VERTEX
  8
0
  5
A34E
 10
117.292
 20
84.5201
 30
0.000000
  70
    32
  0
VERTEX
  8
0
  5
A34F
 10
117.331
 20
84.5274
 30
0.000000
  70
    32
  0
VERTEX
  8
0
  5
A350
 10
117.369
 20
84.5348
 30
0.000000
  70
    32
  0
VERTEX
  8
0
  5
A351
 10
117.407
 20
84.5422
 30
0.000000
  70
    32
  0
VERTEX
  8
0
  5
A352
 10
117.446
 20
84.5497
 30
0.000000
  70
    32
  0
VERTEX
  8
0
  5
A353
 10
117.484
 20
84.5571
 30
0.000000
  70
    32
  0
VERTEX
  8
0
  5
A354
 10
117.522
 20
84.5646
 30
0.000000
  70
    32
  0
VERTEX
  8
0
  5
A355
 10
117.561
 20
84.5722
 30
0.000000
  70
    32
  0
VERTEX
  8
0
  5
A356
 10
117.599
 20
84.5797
 30
0.000000
  70
    32
  0
VERTEX
  8
0
  5
A357
 10
117.637
 20
84.5873
 30
0.000000
  70
    32
  0
VERTEX
  8
0
  5
A358
 10
117.675
 20
84.5950
 30
0.000000
  70
    32
  0
VERTEX
  8
0
  5
A359
 10
117.714
 20
84.6026
 30
0.000000
  70
    32
  0
VERTEX
  8
0
  5
A35A
 10
117.752
 20
84.6103
 30
0.000000
  70
    32
  0
VERTEX
  8
0
  5
A35B
 10
117.790
 20
84.6180
 30
0.000000
  70
    32
  0
VERTEX
  8
0
  5
A35C
 10
117.829
 20
84.6258
 30
0.000000
  70
    32
  0
VERTEX
  8
0
  5
A35D
 10
117.867
 20
84.6336
 30
0.000000
  70
    32
  0
VERTEX
  8
0
  5
A35E
 10
117.905
 20
84.6414
 30
0.000000
  70
    32
  0
VERTEX
  8
0
  5
A35F
 10
117.943
 20
84.6492
 30
0.000000
  70
    32
  0
VERTEX
  8
0
  5
A360
 10
117.982
 20
84.6571
 30
0.000000
  70
    32
  0
VERTEX
  8
0
  5
A361
 10
118.020
 20
84.6650
 30
0.000000
  70
    32
  0
VERTEX
  8
0
  5
A362
 10
118.058
 20
84.6729
 30
0.000000
  70
    32
  0
VERTEX
  8
0
  5
A363
 10
118.096
 20
84.6809
 30
0.000000
  70
    32
  0
VERTEX
  8
0
  5
A364
 10
118.135
 20
84.6889
 30
0.000000
  70
    32
  0
VERTEX
  8
0
  5
A365
 10
118.173
 20
84.6969
 30
0.000000
  70
    32
  0
VERTEX
  8
0
  5
A366
 10
118.211
 20
84.7050
 30
0.000000
  70
    32
  0
VERTEX
  8
0
  5
A367
 10
118.249
 20
84.7131
 30
0.000000
  70
    32
  0
VERTEX
  8
0
  5
A368
 10
118.287
 20
84.7212
 30
0.000000
  70
    32
  0
VERTEX
  8
0
  5
A369
 10
118.326
 20
84.7293
 30
0.000000
  70
    32
  0
VERTEX
  8
0
  5
A36A
 10
118.364
 20
84.7375
 30
0.000000
  70
    32
  0
VERTEX
  8
0
  5
A36B
 10
118.402
 20
84.7457
 30
0.000000
  70
    32
  0
VERTEX
  8
0
  5
A36C
 10
118.440
 20
84.7540
 30
0.000000
  70
    32
  0
VERTEX
  8
0
  5
A36D
 10
118.478
 20
84.7622
 30
0.000000
  70
    32
  0
VERTEX
  8
0
  5
A36E
 10
118.516
 20
84.7706
 30
0.000000
  70
    32
  0
VERTEX
  8
0
  5
A36F
 10
118.555
 20
84.7789
 30
0.000000
  70
    32
  0
VERTEX
  8
0
  5
A370
 10
118.593
 20
84.7872
 30
0.000000
  70
    32
  0
VERTEX
  8
0
  5
A371
 10
118.631
 20
84.7956
 30
0.000000
  70
    32
  0
VERTEX
  8
0
  5
A372
 10
118.669
 20
84.8041
 30
0.000000
  70
    32
  0
VERTEX
  8
0
  5
A373
 10
118.707
 20
84.8125
 30
0.000000
  70
    32
  0
VERTEX
  8
0
  5
A374
 10
118.745
 20
84.8210
 30
0.000000
  70
    32
  0
VERTEX
  8
0
  5
A375
 10
118.783
 20
84.8295
 30
0.000000
  70
    32
  0
VERTEX
  8
0
  5
A376
 10
118.821
 20
84.8381
 30
0.000000
  70
    32
  0
VERTEX
  8
0
  5
A377
 10
118.859
 20
84.8467
 30
0.000000
  70
    32
  0
VERTEX
  8
0
  5
A378
 10
118.898
 20
84.8553
 30
0.000000
  70
    32
  0
VERTEX
  8
0
  5
A379
 10
118.936
 20
84.8639
 30
0.000000
  70
    32
  0
VERTEX
  8
0
  5
A37A
 10
118.974
 20
84.8726
 30
0.000000
  70
    32
  0
VERTEX
  8
0
  5
A37B
 10
119.012
 20
84.8813
 30
0.000000
  70
    32
  0
VERTEX
  8
0
  5
A37C
 10
119.050
 20
84.8900
 30
0.000000
  70
    32
  0
VERTEX
  8
0
  5
A37D
 10
119.088
 20
84.8988
 30
0.000000
  70
    32
  0
VERTEX
  8
0
  5
A37E
 10
119.126
 20
84.9076
 30
0.000000
  70
    32
  0
VERTEX
  8
0
  5
A37F
 10
119.164
 20
84.9164
 30
0.000000
  70
    32
  0
VERTEX
  8
0
  5
A380
 10
119.202
 20
84.9252
 30
0.000000
  70
    32
  0
VERTEX
  8
0
  5
A381
 10
119.240
 20
84.9341
 30
0.000000
  70
    32
  0
VERTEX
  8
0
  5
A382
 10
119.278
 20
84.9430
 30
0.000000
  70
    32
  0
VERTEX
  8
0
  5
A383
 10
119.316
 20
84.9520
 30
0.000000
  70
    32
  0
VERTEX
  8
0
  5
A384
 10
119.354
 20
84.9609
 30
0.000000
  70
    32
  0
VERTEX
  8
0
  5
A385
 10
119.392
 20
84.9700
 30
0.000000
  70
    32
  0
VERTEX
  8
0
  5
A386
 10
119.430
 20
84.9790
 30
0.000000
  70
    32
  0
VERTEX
  8
0
  5
A387
 10
119.468
 20
84.9881
 30
0.000000
  70
    32
  0
VERTEX
  8
0
  5
A388
 10
119.506
 20
84.9972
 30
0.000000
  70
    32
  0
VERTEX
  8
0
  5
A389
 10
119.544
 20
85.0063
 30
0.000000
  70
    32
  0
VERTEX
  8
0
  5
A38A
 10
119.582
 20
85.0154
 30
0.000000
  70
    32
  0
VERTEX
  8
0
  5
A38B
 10
119.620
 20
85.0246
 30
0.000000
  70
    32
  0
VERTEX
  8
0
  5
A38C
 10
119.658
 20
85.0338
 30
0.000000
  70
    32
  0
VERTEX
  8
0
  5
A38D
 10
119.696
 20
85.0431
 30
0.000000
  70
    32
  0
VERTEX
  8
0
  5
A38E
 10
119.734
 20
85.0524
 30
0.000000
  70
    32
  0
VERTEX
  8
0
  5
A38F
 10
119.772
 20
85.0617
 30
0.000000
  70
    32
  0
VERTEX
  8
0
  5
A390
 10
119.810
 20
85.0710
 30
0.000000
  70
    32
  0
VERTEX
  8
0
  5
A391
 10
119.848
 20
85.0804
 30
0.000000
  70
    32
  0
VERTEX
  8
0
  5
A392
 10
119.885
 20
85.0898
 30
0.000000
  70
    32
  0
VERTEX
  8
0
  5
A393
 10
119.923
 20
85.0992
 30
0.000000
  70
    32
  0
VERTEX
  8
0
  5
A394
 10
119.961
 20
85.1087
 30
0.000000
  70
    32
  0
VERTEX
  8
0
  5
A395
 10
119.999
 20
85.1182
 30
0.000000
  70
    32
  0
VERTEX
  8
0
  5
A396
 10
120.037
 20
85.1277
 30
0.000000
  70
    32
  0
VERTEX
  8
0
  5
A397
 10
120.075
 20
85.1373
 30
0.000000
  70
    32
  0
VERTEX
  8
0
  5
A398
 10
120.113
 20
85.1468
 30
0.000000
  70
    32
  0
VERTEX
  8
0
  5
A399
 10
120.151
 20
85.1565
 30
0.000000
  70
    32
  0
VERTEX
  8
0
  5
A39A
 10
120.188
 20
85.1661
 30
0.000000
  70
    32
  0
VERTEX
  8
0
  5
A39B
 10
120.226
 20
85.1758
 30
0.000000
  70
    32
  0
VERTEX
  8
0
  5
A39C
 10
120.264
 20
85.1855
 30
0.000000
  70
    32
  0
VERTEX
  8
0
  5
A39D
 10
120.302
 20
85.1952
 30
0.000000
  70
    32
  0
VERTEX
  8
0
  5
A39E
 10
120.340
 20
85.2050
 30
0.000000
  70
    32
  0
VERTEX
  8
0
  5
A39F
 10
120.377
 20
85.2148
 30
0.000000
  70
    32
  0
VERTEX
  8
0
  5
A3A0
 10
120.415
 20
85.2246
 30
0.000000
  70
    32
  0
VERTEX
  8
0
  5
A3A1
 10
120.453
 20
85.2345
 30
0.000000
  70
    32
  0
VERTEX
  8
0
  5
A3A2
 10
120.491
 20
85.2444
 30
0.000000
  70
    32
  0
VERTEX
  8
0
  5
A3A3
 10
120.529
 20
85.2543
 30
0.000000
  70
    32
  0
VERTEX
  8
0
  5
A3A4
 10
120.566
 20
85.2642
 30
0.000000
  70
    32
  0
VERTEX
  8
0
  5
A3A5
 10
120.604
 20
85.2742
 30
0.000000
  70
    32
  0
VERTEX
  8
0
  5
A3A6
 10
120.642
 20
85.2842
 30
0.000000
  70
    32
  0
VERTEX
  8
0
  5
A3A7
 10
120.680
 20
85.2942
 30
0.000000
  70
    32
  0
VERTEX
  8
0
  5
A3A8
 10
120.717
 20
85.3043
 30
0.000000
  70
    32
  0
VERTEX
  8
0
  5
A3A9
 10
120.755
 20
85.3144
 30
0.000000
  70
    32
  0
VERTEX
  8
0
  5
A3AA
 10
120.793
 20
85.3245
 30
0.000000
  70
    32
  0
VERTEX
  8
0
  5
A3AB
 10
120.831
 20
85.3347
 30
0.000000
  70
    32
  0
VERTEX
  8
0
  5
A3AC
 10
120.868
 20
85.3449
 30
0.000000
  70
    32
  0
VERTEX
  8
0
  5
A3AD
 10
120.906
 20
85.3551
 30
0.000000
  70
    32
  0
VERTEX
  8
0
  5
A3AE
 10
120.944
 20
85.3654
 30
0.000000
  70
    32
  0
VERTEX
  8
0
  5
A3AF
 10
120.981
 20
85.3756
 30
0.000000
  70
    32
  0
VERTEX
  8
0
  5
A3B0
 10
121.019
 20
85.3859
 30
0.000000
  70
    32
  0
VERTEX
  8
0
  5
A3B1
 10
121.057
 20
85.3963
 30
0.000000
  70
    32
  0
VERTEX
  8
0
  5
A3B2
 10
121.094
 20
85.4067
 30
0.000000
  70
    32
  0
VERTEX
  8
0
  5
A3B3
 10
121.132
 20
85.4171
 30
0.000000
  70
    32
  0
VERTEX
  8
0
  5
A3B4
 10
121.170
 20
85.4275
 30
0.000000
  70
    32
  0
VERTEX
  8
0
  5
A3B5
 10
121.207
 20
85.4380
 30
0.000000
  70
    32
  0
VERTEX
  8
0
  5
A3B6
 10
121.245
 20
85.4484
 30
0.000000
  70
    32
  0
SEQEND
  8
0
  5
A3B7
  0
POLYLINE
  5
4FE8
  8
0
 66
     1
 10
0.0
 20
0.0
 30
0.0
  0
VERTEX
  5
A196
  8
0
 10
121.2447736128932
 20
85.448445913739135
 30
0.0
  0
VERTEX
  5
A197
  8
0
 10
121.3222205834952
 20
85.48331735437074
 30
0.0
  0
VERTEX
  5
A198
  8
0
 10
121.4760527972184
 20
85.54942285430559
 30
0.0
  0
VERTEX
  5
A199
  8
0
 10
121.6300666492931
 20
85.611496646267653
 30
0.0
  0
VERTEX
  5
A19A
  8
0
 10
121.70871572232311
 20
85.641645221070405
 30
0.0
  0
VERTEX
  5
A19B
  8
0
 10
121.7884411539319
 20
85.671155297770213
 30
0.0
  0
VERTEX
  5
A19C
  8
0
 10
121.9508872765753
 20
85.728064080606885
 30
0.0
  0
VERTEX
  5
A19D
  8
0
 10
122.1169283446107
 20
85.781856959197626
 30
0.0
  0
VERTEX
  5
A19E
  8
0
 10
122.2860763409921
 20
85.832210685366988
 30
0.0
  0
VERTEX
  5
A19F
  8
0
 10
122.4578319520039
 20
85.878845370574993
 30
0.0
  0
VERTEX
  5
A1A0
  8
0
 10
122.6316798420536
 20
85.921523841410817
 30
0.0
  0
VERTEX
  5
A1A1
  8
0
 10
122.71922367102719
 20
85.941317462073926
 30
0.0
  0
VERTEX
  5
A1A2
  8
0
 10
122.807091752967
 20
85.960053284375405
 30
0.0
  0
VERTEX
  5
A1A3
  8
0
 10
122.9835392128748
 20
85.994288111378296
 30
0.0
  0
VERTEX
  5
A1A4
  8
0
 10
123.1605063407338
 20
86.024130890945912
 30
0.0
  0
VERTEX
  5
A1A5
  8
0
 10
123.33744128059359
 20
86.049523353554818
 30
0.0
  0
VERTEX
  5
A1A6
  8
0
 10
123.5137809209098
 20
86.070452483755275
 30
0.0
  0
VERTEX
  5
A1A7
  8
0
 10
123.6889587665262
 20
86.086951485750092
 30
0.0
  0
VERTEX
  5
A1A8
  8
0
 10
123.7759346427702
 20
86.093562579241166
 30
0.0
  0
VERTEX
  5
A1A9
  8
0
 10
123.86240635115389
 20
86.09909919413775
 30
0.0
  0
VERTEX
  5
A1AA
  8
0
 10
124.03354820393859
 20
86.107019027770363
 30
0.0
  0
VERTEX
  5
A1AB
  8
0
 10
124.201804426001
 20
86.110878667348615
 30
0.0
  0
VERTEX
  5
A1AC
  8
0
 10
124.2846692605499
 20
86.111350227879711
 30
0.0
  0
SEQEND
  5
A1AD
  8
0
  0
POLYLINE
  5
4FF3
  8
0
 10
95.319242881203621
 20
85.448445913738695
 30
0.0
 66
     1
 70
     8
  0
VERTEX
  8
0
  5
A3B8
 10
95.3192
 20
85.4484
 30
0.000000
  70
    32
  0
VERTEX
  8
0
  5
A3B9
 10
95.3569
 20
85.4380
 30
0.000000
  70
    32
  0
VERTEX
  8
0
  5
A3BA
 10
95.3945
 20
85.4275
 30
0.000000
  70
    32
  0
VERTEX
  8
0
  5
A3BB
 10
95.4321
 20
85.4171
 30
0.000000
  70
    32
  0
VERTEX
  8
0
  5
A3BC
 10
95.4698
 20
85.4067
 30
0.000000
  70
    32
  0
VERTEX
  8
0
  5
A3BD
 10
95.5074
 20
85.3963
 30
0.000000
  70
    32
  0
VERTEX
  8
0
  5
A3BE
 10
95.5451
 20
85.3859
 30
0.000000
  70
    32
  0
VERTEX
  8
0
  5
A3BF
 10
95.5827
 20
85.3756
 30
0.000000
  70
    32
  0
VERTEX
  8
0
  5
A3C0
 10
95.6204
 20
85.3654
 30
0.000000
  70
    32
  0
VERTEX
  8
0
  5
A3C1
 10
95.6581
 20
85.3551
 30
0.000000
  70
    32
  0
VERTEX
  8
0
  5
A3C2
 10
95.6958
 20
85.3449
 30
0.000000
  70
    32
  0
VERTEX
  8
0
  5
A3C3
 10
95.7335
 20
85.3347
 30
0.000000
  70
    32
  0
VERTEX
  8
0
  5
A3C4
 10
95.7712
 20
85.3245
 30
0.000000
  70
    32
  0
VERTEX
  8
0
  5
A3C5
 10
95.8089
 20
85.3144
 30
0.000000
  70
    32
  0
VERTEX
  8
0
  5
A3C6
 10
95.8466
 20
85.3043
 30
0.000000
  70
    32
  0
VERTEX
  8
0
  5
A3C7
 10
95.8844
 20
85.2942
 30
0.000000
  70
    32
  0
VERTEX
  8
0
  5
A3C8
 10
95.9221
 20
85.2842
 30
0.000000
  70
    32
  0
VERTEX
  8
0
  5
A3C9
 10
95.9599
 20
85.2742
 30
0.000000
  70
    32
  0
VERTEX
  8
0
  5
A3CA
 10
95.9976
 20
85.2642
 30
0.000000
  70
    32
  0
VERTEX
  8
0
  5
A3CB
 10
96.0354
 20
85.2543
 30
0.000000
  70
    32
  0
VERTEX
  8
0
  5
A3CC
 10
96.0732
 20
85.2444
 30
0.000000
  70
    32
  0
VERTEX
  8
0
  5
A3CD
 10
96.1109
 20
85.2345
 30
0.000000
  70
    32
  0
VERTEX
  8
0
  5
A3CE
 10
96.1487
 20
85.2246
 30
0.000000
  70
    32
  0
VERTEX
  8
0
  5
A3CF
 10
96.1865
 20
85.2148
 30
0.000000
  70
    32
  0
VERTEX
  8
0
  5
A3D0
 10
96.2243
 20
85.2050
 30
0.000000
  70
    32
  0
VERTEX
  8
0
  5
A3D1
 10
96.2621
 20
85.1952
 30
0.000000
  70
    32
  0
VERTEX
  8
0
  5
A3D2
 10
96.3000
 20
85.1855
 30
0.000000
  70
    32
  0
VERTEX
  8
0
  5
A3D3
 10
96.3378
 20
85.1758
 30
0.000000
  70
    32
  0
VERTEX
  8
0
  5
A3D4
 10
96.3756
 20
85.1661
 30
0.000000
  70
    32
  0
VERTEX
  8
0
  5
A3D5
 10
96.4135
 20
85.1565
 30
0.000000
  70
    32
  0
VERTEX
  8
0
  5
A3D6
 10
96.4513
 20
85.1468
 30
0.000000
  70
    32
  0
VERTEX
  8
0
  5
A3D7
 10
96.4892
 20
85.1373
 30
0.000000
  70
    32
  0
VERTEX
  8
0
  5
A3D8
 10
96.5270
 20
85.1277
 30
0.000000
  70
    32
  0
VERTEX
  8
0
  5
A3D9
 10
96.5649
 20
85.1182
 30
0.000000
  70
    32
  0
VERTEX
  8
0
  5
A3DA
 10
96.6028
 20
85.1087
 30
0.000000
  70
    32
  0
VERTEX
  8
0
  5
A3DB
 10
96.6407
 20
85.0992
 30
0.000000
  70
    32
  0
VERTEX
  8
0
  5
A3DC
 10
96.6786
 20
85.0898
 30
0.000000
  70
    32
  0
VERTEX
  8
0
  5
A3DD
 10
96.7165
 20
85.0804
 30
0.000000
  70
    32
  0
VERTEX
  8
0
  5
A3DE
 10
96.7544
 20
85.0710
 30
0.000000
  70
    32
  0
VERTEX
  8
0
  5
A3DF
 10
96.7923
 20
85.0617
 30
0.000000
  70
    32
  0
VERTEX
  8
0
  5
A3E0
 10
96.8302
 20
85.0524
 30
0.000000
  70
    32
  0
VERTEX
  8
0
  5
A3E1
 10
96.8682
 20
85.0431
 30
0.000000
  70
    32
  0
VERTEX
  8
0
  5
A3E2
 10
96.9061
 20
85.0338
 30
0.000000
  70
    32
  0
VERTEX
  8
0
  5
A3E3
 10
96.9440
 20
85.0246
 30
0.000000
  70
    32
  0
VERTEX
  8
0
  5
A3E4
 10
96.9820
 20
85.0154
 30
0.000000
  70
    32
  0
VERTEX
  8
0
  5
A3E5
 10
97.0200
 20
85.0063
 30
0.000000
  70
    32
  0
VERTEX
  8
0
  5
A3E6
 10
97.0579
 20
84.9972
 30
0.000000
  70
    32
  0
VERTEX
  8
0
  5
A3E7
 10
97.0959
 20
84.9881
 30
0.000000
  70
    32
  0
VERTEX
  8
0
  5
A3E8
 10
97.1339
 20
84.9790
 30
0.000000
  70
    32
  0
VERTEX
  8
0
  5
A3E9
 10
97.1719
 20
84.9700
 30
0.000000
  70
    32
  0
VERTEX
  8
0
  5
A3EA
 10
97.2099
 20
84.9609
 30
0.000000
  70
    32
  0
VERTEX
  8
0
  5
A3EB
 10
97.2479
 20
84.9520
 30
0.000000
  70
    32
  0
VERTEX
  8
0
  5
A3EC
 10
97.2859
 20
84.9430
 30
0.000000
  70
    32
  0
VERTEX
  8
0
  5
A3ED
 10
97.3239
 20
84.9341
 30
0.000000
  70
    32
  0
VERTEX
  8
0
  5
A3EE
 10
97.3620
 20
84.9252
 30
0.000000
  70
    32
  0
VERTEX
  8
0
  5
A3EF
 10
97.4000
 20
84.9164
 30
0.000000
  70
    32
  0
VERTEX
  8
0
  5
A3F0
 10
97.4380
 20
84.9076
 30
0.000000
  70
    32
  0
VERTEX
  8
0
  5
A3F1
 10
97.4761
 20
84.8988
 30
0.000000
  70
    32
  0
VERTEX
  8
0
  5
A3F2
 10
97.5141
 20
84.8900
 30
0.000000
  70
    32
  0
VERTEX
  8
0
  5
A3F3
 10
97.5522
 20
84.8813
 30
0.000000
  70
    32
  0
VERTEX
  8
0
  5
A3F4
 10
97.5903
 20
84.8726
 30
0.000000
  70
    32
  0
VERTEX
  8
0
  5
A3F5
 10
97.6283
 20
84.8639
 30
0.000000
  70
    32
  0
VERTEX
  8
0
  5
A3F6
 10
97.6664
 20
84.8553
 30
0.000000
  70
    32
  0
VERTEX
  8
0
  5
A3F7
 10
97.7045
 20
84.8467
 30
0.000000
  70
    32
  0
VERTEX
  8
0
  5
A3F8
 10
97.7426
 20
84.8381
 30
0.000000
  70
    32
  0
VERTEX
  8
0
  5
A3F9
 10
97.7807
 20
84.8295
 30
0.000000
  70
    32
  0
VERTEX
  8
0
  5
A3FA
 10
97.8188
 20
84.8210
 30
0.000000
  70
    32
  0
VERTEX
  8
0
  5
A3FB
 10
97.8569
 20
84.8125
 30
0.000000
  70
    32
  0
VERTEX
  8
0
  5
A3FC
 10
97.8951
 20
84.8041
 30
0.000000
  70
    32
  0
VERTEX
  8
0
  5
A3FD
 10
97.9332
 20
84.7956
 30
0.000000
  70
    32
  0
VERTEX
  8
0
  5
A3FE
 10
97.9713
 20
84.7872
 30
0.000000
  70
    32
  0
VERTEX
  8
0
  5
A3FF
 10
98.0095
 20
84.7789
 30
0.000000
  70
    32
  0
VERTEX
  8
0
  5
A400
 10
98.0476
 20
84.7706
 30
0.000000
  70
    32
  0
VERTEX
  8
0
  5
A401
 10
98.0858
 20
84.7622
 30
0.000000
  70
    32
  0
VERTEX
  8
0
  5
A402
 10
98.1240
 20
84.7540
 30
0.000000
  70
    32
  0
VERTEX
  8
0
  5
A403
 10
98.1621
 20
84.7457
 30
0.000000
  70
    32
  0
VERTEX
  8
0
  5
A404
 10
98.2003
 20
84.7375
 30
0.000000
  70
    32
  0
VERTEX
  8
0
  5
A405
 10
98.2385
 20
84.7293
 30
0.000000
  70
    32
  0
VERTEX
  8
0
  5
A406
 10
98.2767
 20
84.7212
 30
0.000000
  70
    32
  0
VERTEX
  8
0
  5
A407
 10
98.3149
 20
84.7131
 30
0.000000
  70
    32
  0
VERTEX
  8
0
  5
A408
 10
98.3531
 20
84.7050
 30
0.000000
  70
    32
  0
VERTEX
  8
0
  5
A409
 10
98.3913
 20
84.6969
 30
0.000000
  70
    32
  0
VERTEX
  8
0
  5
A40A
 10
98.4295
 20
84.6889
 30
0.000000
  70
    32
  0
VERTEX
  8
0
  5
A40B
 10
98.4677
 20
84.6809
 30
0.000000
  70
    32
  0
VERTEX
  8
0
  5
A40C
 10
98.5060
 20
84.6729
 30
0.000000
  70
    32
  0
VERTEX
  8
0
  5
A40D
 10
98.5442
 20
84.6650
 30
0.000000
  70
    32
  0
VERTEX
  8
0
  5
A40E
 10
98.5824
 20
84.6571
 30
0.000000
  70
    32
  0
VERTEX
  8
0
  5
A40F
 10
98.6207
 20
84.6492
 30
0.000000
  70
    32
  0
VERTEX
  8
0
  5
A410
 10
98.6589
 20
84.6414
 30
0.000000
  70
    32
  0
VERTEX
  8
0
  5
A411
 10
98.6972
 20
84.6336
 30
0.000000
  70
    32
  0
VERTEX
  8
0
  5
A412
 10
98.7355
 20
84.6258
 30
0.000000
  70
    32
  0
VERTEX
  8
0
  5
A413
 10
98.7737
 20
84.6180
 30
0.000000
  70
    32
  0
VERTEX
  8
0
  5
A414
 10
98.8120
 20
84.6103
 30
0.000000
  70
    32
  0
VERTEX
  8
0
  5
A415
 10
98.8503
 20
84.6026
 30
0.000000
  70
    32
  0
VERTEX
  8
0
  5
A416
 10
98.8886
 20
84.5950
 30
0.000000
  70
    32
  0
VERTEX
  8
0
  5
A417
 10
98.9269
 20
84.5873
 30
0.000000
  70
    32
  0
VERTEX
  8
0
  5
A418
 10
98.9652
 20
84.5797
 30
0.000000
  70
    32
  0
VERTEX
  8
0
  5
A419
 10
99.0035
 20
84.5722
 30
0.000000
  70
    32
  0
VERTEX
  8
0
  5
A41A
 10
99.0418
 20
84.5646
 30
0.000000
  70
    32
  0
VERTEX
  8
0
  5
A41B
 10
99.0802
 20
84.5571
 30
0.000000
  70
    32
  0
VERTEX
  8
0
  5
A41C
 10
99.1185
 20
84.5497
 30
0.000000
  70
    32
  0
VERTEX
  8
0
  5
A41D
 10
99.1568
 20
84.5422
 30
0.000000
  70
    32
  0
VERTEX
  8
0
  5
A41E
 10
99.1952
 20
84.5348
 30
0.000000
  70
    32
  0
VERTEX
  8
0
  5
A41F
 10
99.2335
 20
84.5274
 30
0.000000
  70
    32
  0
VERTEX
  8
0
  5
A420
 10
99.2719
 20
84.5201
 30
0.000000
  70
    32
  0
VERTEX
  8
0
  5
A421
 10
99.3102
 20
84.5127
 30
0.000000
  70
    32
  0
VERTEX
  8
0
  5
A422
 10
99.3486
 20
84.5055
 30
0.000000
  70
    32
  0
VERTEX
  8
0
  5
A423
 10
99.3869
 20
84.4982
 30
0.000000
  70
    32
  0
VERTEX
  8
0
  5
A424
 10
99.4253
 20
84.4910
 30
0.000000
  70
    32
  0
VERTEX
  8
0
  5
A425
 10
99.4637
 20
84.4838
 30
0.000000
  70
    32
  0
VERTEX
  8
0
  5
A426
 10
99.5021
 20
84.4766
 30
0.000000
  70
    32
  0
VERTEX
  8
0
  5
A427
 10
99.5405
 20
84.4695
 30
0.000000
  70
    32
  0
VERTEX
  8
0
  5
A428
 10
99.5789
 20
84.4624
 30
0.000000
  70
    32
  0
VERTEX
  8
0
  5
A429
 10
99.6173
 20
84.4553
 30
0.000000
  70
    32
  0
VERTEX
  8
0
  5
A42A
 10
99.6557
 20
84.4482
 30
0.000000
  70
    32
  0
VERTEX
  8
0
  5
A42B
 10
99.6941
 20
84.4412
 30
0.000000
  70
    32
  0
VERTEX
  8
0
  5
A42C
 10
99.7325
 20
84.4342
 30
0.000000
  70
    32
  0
VERTEX
  8
0
  5
A42D
 10
99.7709
 20
84.4273
 30
0.000000
  70
    32
  0
VERTEX
  8
0
  5
A42E
 10
99.8094
 20
84.4204
 30
0.000000
  70
    32
  0
VERTEX
  8
0
  5
A42F
 10
99.8478
 20
84.4135
 30
0.000000
  70
    32
  0
VERTEX
  8
0
  5
A430
 10
99.8863
 20
84.4066
 30
0.000000
  70
    32
  0
VERTEX
  8
0
  5
A431
 10
99.9247
 20
84.3998
 30
0.000000
  70
    32
  0
VERTEX
  8
0
  5
A432
 10
99.9632
 20
84.3930
 30
0.000000
  70
    32
  0
VERTEX
  8
0
  5
A433
 10
100.002
 20
84.3862
 30
0.000000
  70
    32
  0
VERTEX
  8
0
  5
A434
 10
100.040
 20
84.3795
 30
0.000000
  70
    32
  0
VERTEX
  8
0
  5
A435
 10
100.079
 20
84.3728
 30
0.000000
  70
    32
  0
VERTEX
  8
0
  5
A436
 10
100.117
 20
84.3661
 30
0.000000
  70
    32
  0
VERTEX
  8
0
  5
A437
 10
100.156
 20
84.3595
 30
0.000000
  70
    32
  0
VERTEX
  8
0
  5
A438
 10
100.194
 20
84.3529
 30
0.000000
  70
    32
  0
SEQEND
  8
0
  5
A439
  0
LINE
  5
4FF9
  8
0
 10
116.0100063651646
 20
84.293782935220577
 30
0.0
 11
116.0027882792795
 21
84.292651783476799
 31
0.0
  0
POLYLINE
  5
4FFA
  8
0
 10
92.268652214637427
 20
74.227601729080902
 30
0.0
 66
     1
 70
     8
  0
VERTEX
  8
0
  5
A43A
 10
92.2687
 20
74.2276
 30
0.000000
  70
    32
  0
VERTEX
  8
0
  5
A43B
 10
92.4980
 20
74.2332
 30
0.000000
  70
    32
  0
VERTEX
  8
0
  5
A43C
 10
92.7267
 20
74.2502
 30
0.000000
  70
    32
  0
VERTEX
  8
0
  5
A43D
 10
92.9544
 20
74.2783
 30
0.000000
  70
    32
  0
VERTEX
  8
0
  5
A43E
 10
93.1804
 20
74.3176
 30
0.000000
  70
    32
  0
VERTEX
  8
0
  5
A43F
 10
93.4042
 20
74.3680
 30
0.000000
  70
    32
  0
VERTEX
  8
0
  5
A440
 10
93.6252
 20
74.4293
 30
0.000000
  70
    32
  0
VERTEX
  8
0
  5
A441
 10
93.8430
 20
74.5014
 30
0.000000
  70
    32
  0
VERTEX
  8
0
  5
A442
 10
94.0571
 20
74.5841
 30
0.000000
  70
    32
  0
VERTEX
  8
0
  5
A443
 10
94.2668
 20
74.6773
 30
0.000000
  70
    32
  0
VERTEX
  8
0
  5
A444
 10
94.4716
 20
74.7807
 30
0.000000
  70
    32
  0
VERTEX
  8
0
  5
A445
 10
94.6712
 20
74.8940
 30
0.000000
  70
    32
  0
VERTEX
  8
0
  5
A446
 10
94.8650
 20
75.0170
 30
0.000000
  70
    32
  0
VERTEX
  8
0
  5
A447
 10
95.0525
 20
75.1493
 30
0.000000
  70
    32
  0
VERTEX
  8
0
  5
A448
 10
95.2334
 20
75.2908
 30
0.000000
  70
    32
  0
VERTEX
  8
0
  5
A449
 10
95.4071
 20
75.4409
 30
0.000000
  70
    32
  0
VERTEX
  8
0
  5
A44A
 10
95.5732
 20
75.5994
 30
0.000000
  70
    32
  0
VERTEX
  8
0
  5
A44B
 10
95.7314
 20
75.7659
 30
0.000000
  70
    32
  0
VERTEX
  8
0
  5
A44C
 10
95.8812
 20
75.9400
 30
0.000000
  70
    32
  0
VERTEX
  8
0
  5
A44D
 10
96.0223
 20
76.1212
 30
0.000000
  70
    32
  0
VERTEX
  8
0
  5
A44E
 10
96.1544
 20
76.3092
 30
0.000000
  70
    32
  0
VERTEX
  8
0
  5
A44F
 10
96.2771
 20
76.5034
 30
0.000000
  70
    32
  0
VERTEX
  8
0
  5
A450
 10
96.3902
 20
76.7034
 30
0.000000
  70
    32
  0
VERTEX
  8
0
  5
A451
 10
96.4933
 20
76.9088
 30
0.000000
  70
    32
  0
VERTEX
  8
0
  5
A452
 10
96.5862
 20
77.1190
 30
0.000000
  70
    32
  0
VERTEX
  8
0
  5
A453
 10
96.6688
 20
77.3334
 30
0.000000
  70
    32
  0
VERTEX
  8
0
  5
A454
 10
96.7407
 20
77.5517
 30
0.000000
  70
    32
  0
VERTEX
  8
0
  5
A455
 10
96.8019
 20
77.7733
 30
0.000000
  70
    32
  0
VERTEX
  8
0
  5
A456
 10
96.8522
 20
77.9976
 30
0.000000
  70
    32
  0
VERTEX
  8
0
  5
A457
 10
96.8914
 20
78.2241
 30
0.000000
  70
    32
  0
VERTEX
  8
0
  5
A458
 10
96.9195
 20
78.4523
 30
0.000000
  70
    32
  0
VERTEX
  8
0
  5
A459
 10
96.9363
 20
78.6815
 30
0.000000
  70
    32
  0
VERTEX
  8
0
  5
A45A
 10
96.9420
 20
78.9114
 30
0.000000
  70
    32
  0
VERTEX
  8
0
  5
A45B
 10
96.9363
 20
79.1412
 30
0.000000
  70
    32
  0
VERTEX
  8
0
  5
A45C
 10
96.9195
 20
79.3704
 30
0.000000
  70
    32
  0
VERTEX
  8
0
  5
A45D
 10
96.8914
 20
79.5986
 30
0.000000
  70
    32
  0
VERTEX
  8
0
  5
A45E
 10
96.8522
 20
79.8251
 30
0.000000
  70
    32
  0
VERTEX
  8
0
  5
A45F
 10
96.8019
 20
80.0494
 30
0.000000
  70
    32
  0
VERTEX
  8
0
  5
A460
 10
96.7407
 20
80.2710
 30
0.000000
  70
    32
  0
VERTEX
  8
0
  5
A461
 10
96.6688
 20
80.4893
 30
0.000000
  70
    32
  0
VERTEX
  8
0
  5
A462
 10
96.5862
 20
80.7037
 30
0.000000
  70
    32
  0
VERTEX
  8
0
  5
A463
 10
96.4933
 20
80.9139
 30
0.000000
  70
    32
  0
VERTEX
  8
0
  5
A464
 10
96.3902
 20
81.1193
 30
0.000000
  70
    32
  0
VERTEX
  8
0
  5
A465
 10
96.2771
 20
81.3193
 30
0.000000
  70
    32
  0
VERTEX
  8
0
  5
A466
 10
96.1544
 20
81.5135
 30
0.000000
  70
    32
  0
VERTEX
  8
0
  5
A467
 10
96.0223
 20
81.7015
 30
0.000000
  70
    32
  0
VERTEX
  8
0
  5
A468
 10
95.8812
 20
81.8827
 30
0.000000
  70
    32
  0
VERTEX
  8
0
  5
A469
 10
95.7314
 20
82.0568
 30
0.000000
  70
    32
  0
VERTEX
  8
0
  5
A46A
 10
95.5732
 20
82.2233
 30
0.000000
  70
    32
  0
VERTEX
  8
0
  5
A46B
 10
95.4071
 20
82.3818
 30
0.000000
  70
    32
  0
VERTEX
  8
0
  5
A46C
 10
95.2334
 20
82.5319
 30
0.000000
  70
    32
  0
VERTEX
  8
0
  5
A46D
 10
95.0525
 20
82.6734
 30
0.000000
  70
    32
  0
VERTEX
  8
0
  5
A46E
 10
94.8650
 20
82.8057
 30
0.000000
  70
    32
  0
VERTEX
  8
0
  5
A46F
 10
94.6712
 20
82.9287
 30
0.000000
  70
    32
  0
VERTEX
  8
0
  5
A470
 10
94.4716
 20
83.0420
 30
0.000000
  70
    32
  0
VERTEX
  8
0
  5
A471
 10
94.2668
 20
83.1454
 30
0.000000
  70
    32
  0
VERTEX
  8
0
  5
A472
 10
94.0571
 20
83.2386
 30
0.000000
  70
    32
  0
VERTEX
  8
0
  5
A473
 10
93.8430
 20
83.3213
 30
0.000000
  70
    32
  0
VERTEX
  8
0
  5
A474
 10
93.6252
 20
83.3934
 30
0.000000
  70
    32
  0
VERTEX
  8
0
  5
A475
 10
93.4042
 20
83.4547
 30
0.000000
  70
    32
  0
VERTEX
  8
0
  5
A476
 10
93.1804
 20
83.5051
 30
0.000000
  70
    32
  0
VERTEX
  8
0
  5
A477
 10
92.9544
 20
83.5444
 30
0.000000
  70
    32
  0
VERTEX
  8
0
  5
A478
 10
92.7267
 20
83.5725
 30
0.000000
  70
    32
  0
VERTEX
  8
0
  5
A479
 10
92.4980
 20
83.5895
 30
0.000000
  70
    32
  0
VERTEX
  8
0
  5
A47A
 10
92.2687
 20
83.5951
 30
0.000000
  70
    32
  0
VERTEX
  8
0
  5
A47B
 10
92.0393
 20
83.5895
 30
0.000000
  70
    32
  0
VERTEX
  8
0
  5
A47C
 10
91.8106
 20
83.5725
 30
0.000000
  70
    32
  0
VERTEX
  8
0
  5
A47D
 10
91.5829
 20
83.5444
 30
0.000000
  70
    32
  0
VERTEX
  8
0
  5
A47E
 10
91.3569
 20
83.5051
 30
0.000000
  70
    32
  0
VERTEX
  8
0
  5
A47F
 10
91.1331
 20
83.4547
 30
0.000000
  70
    32
  0
VERTEX
  8
0
  5
A480
 10
90.9121
 20
83.3934
 30
0.000000
  70
    32
  0
VERTEX
  8
0
  5
A481
 10
90.6943
 20
83.3213
 30
0.000000
  70
    32
  0
VERTEX
  8
0
  5
A482
 10
90.4802
 20
83.2386
 30
0.000000
  70
    32
  0
VERTEX
  8
0
  5
A483
 10
90.2705
 20
83.1454
 30
0.000000
  70
    32
  0
VERTEX
  8
0
  5
A484
 10
90.0657
 20
83.0420
 30
0.000000
  70
    32
  0
VERTEX
  8
0
  5
A485
 10
89.8661
 20
82.9287
 30
0.000000
  70
    32
  0
VERTEX
  8
0
  5
A486
 10
89.6723
 20
82.8057
 30
0.000000
  70
    32
  0
VERTEX
  8
0
  5
A487
 10
89.4848
 20
82.6734
 30
0.000000
  70
    32
  0
VERTEX
  8
0
  5
A488
 10
89.3039
 20
82.5319
 30
0.000000
  70
    32
  0
VERTEX
  8
0
  5
A489
 10
89.1302
 20
82.3818
 30
0.000000
  70
    32
  0
VERTEX
  8
0
  5
A48A
 10
88.9641
 20
82.2233
 30
0.000000
  70
    32
  0
VERTEX
  8
0
  5
A48B
 10
88.8059
 20
82.0568
 30
0.000000
  70
    32
  0
VERTEX
  8
0
  5
A48C
 10
88.6561
 20
81.8827
 30
0.000000
  70
    32
  0
VERTEX
  8
0
  5
A48D
 10
88.5150
 20
81.7015
 30
0.000000
  70
    32
  0
VERTEX
  8
0
  5
A48E
 10
88.3829
 20
81.5135
 30
0.000000
  70
    32
  0
VERTEX
  8
0
  5
A48F
 10
88.2602
 20
81.3193
 30
0.000000
  70
    32
  0
VERTEX
  8
0
  5
A490
 10
88.1471
 20
81.1193
 30
0.000000
  70
    32
  0
VERTEX
  8
0
  5
A491
 10
88.0440
 20
80.9139
 30
0.000000
  70
    32
  0
VERTEX
  8
0
  5
A492
 10
87.9511
 20
80.7037
 30
0.000000
  70
    32
  0
VERTEX
  8
0
  5
A493
 10
87.8685
 20
80.4893
 30
0.000000
  70
    32
  0
VERTEX
  8
0
  5
A494
 10
87.7966
 20
80.2710
 30
0.000000
  70
    32
  0
VERTEX
  8
0
  5
A495
 10
87.7354
 20
80.0494
 30
0.000000
  70
    32
  0
VERTEX
  8
0
  5
A496
 10
87.6851
 20
79.8251
 30
0.000000
  70
    32
  0
VERTEX
  8
0
  5
A497
 10
87.6459
 20
79.5986
 30
0.000000
  70
    32
  0
VERTEX
  8
0
  5
A498
 10
87.6178
 20
79.3704
 30
0.000000
  70
    32
  0
VERTEX
  8
0
  5
A499
 10
87.6010
 20
79.1412
 30
0.000000
  70
    32
  0
VERTEX
  8
0
  5
A49A
 10
87.5953
 20
78.9114
 30
0.000000
  70
    32
  0
VERTEX
  8
0
  5
A49B
 10
87.6010
 20
78.6815
 30
0.000000
  70
    32
  0
VERTEX
  8
0
  5
A49C
 10
87.6178
 20
78.4523
 30
0.000000
  70
    32
  0
VERTEX
  8
0
  5
A49D
 10
87.6459
 20
78.2241
 30
0.000000
  70
    32
  0
VERTEX
  8
0
  5
A49E
 10
87.6851
 20
77.9976
 30
0.000000
  70
    32
  0
VERTEX
  8
0
  5
A49F
 10
87.7354
 20
77.7733
 30
0.000000
  70
    32
  0
VERTEX
  8
0
  5
A4A0
 10
87.7966
 20
77.5517
 30
0.000000
  70
    32
  0
VERTEX
  8
0
  5
A4A1
 10
87.8685
 20
77.3334
 30
0.000000
  70
    32
  0
VERTEX
  8
0
  5
A4A2
 10
87.9511
 20
77.1190
 30
0.000000
  70
    32
  0
VERTEX
  8
0
  5
A4A3
 10
88.0440
 20
76.9088
 30
0.000000
  70
    32
  0
VERTEX
  8
0
  5
A4A4
 10
88.1471
 20
76.7034
 30
0.000000
  70
    32
  0
VERTEX
  8
0
  5
A4A5
 10
88.2602
 20
76.5034
 30
0.000000
  70
    32
  0
VERTEX
  8
0
  5
A4A6
 10
88.3829
 20
76.3092
 30
0.000000
  70
    32
  0
VERTEX
  8
0
  5
A4A7
 10
88.5150
 20
76.1212
 30
0.000000
  70
    32
  0
VERTEX
  8
0
  5
A4A8
 10
88.6561
 20
75.9400
 30
0.000000
  70
    32
  0
VERTEX
  8
0
  5
A4A9
 10
88.8059
 20
75.7659
 30
0.000000
  70
    32
  0
VERTEX
  8
0
  5
A4AA
 10
88.9641
 20
75.5994
 30
0.000000
  70
    32
  0
VERTEX
  8
0
  5
A4AB
 10
89.1302
 20
75.4409
 30
0.000000
  70
    32
  0
VERTEX
  8
0
  5
A4AC
 10
89.3039
 20
75.2908
 30
0.000000
  70
    32
  0
VERTEX
  8
0
  5
A4AD
 10
89.4848
 20
75.1493
 30
0.000000
  70
    32
  0
VERTEX
  8
0
  5
A4AE
 10
89.6723
 20
75.0170
 30
0.000000
  70
    32
  0
VERTEX
  8
0
  5
A4AF
 10
89.8661
 20
74.8940
 30
0.000000
  70
    32
  0
VERTEX
  8
0
  5
A4B0
 10
90.0657
 20
74.7807
 30
0.000000
  70
    32
  0
VERTEX
  8
0
  5
A4B1
 10
90.2705
 20
74.6773
 30
0.000000
  70
    32
  0
VERTEX
  8
0
  5
A4B2
 10
90.4802
 20
74.5841
 30
0.000000
  70
    32
  0
VERTEX
  8
0
  5
A4B3
 10
90.6943
 20
74.5014
 30
0.000000
  70
    32
  0
VERTEX
  8
0
  5
A4B4
 10
90.9121
 20
74.4293
 30
0.000000
  70
    32
  0
VERTEX
  8
0
  5
A4B5
 10
91.1331
 20
74.3680
 30
0.000000
  70
    32
  0
VERTEX
  8
0
  5
A4B6
 10
91.3569
 20
74.3176
 30
0.000000
  70
    32
  0
VERTEX
  8
0
  5
A4B7
 10
91.5829
 20
74.2783
 30
0.000000
  70
    32
  0
VERTEX
  8
0
  5
A4B8
 10
91.8106
 20
74.2502
 30
0.000000
  70
    32
  0
VERTEX
  8
0
  5
A4B9
 10
92.0393
 20
74.2332
 30
0.000000
  70
    32
  0
VERTEX
  8
0
  5
A4BA
 10
92.2687
 20
74.2276
 30
0.000000
  70
    32
  0
SEQEND
  8
0
  5
A4BB
  0
POLYLINE
  5
4FFB
  8
0
 10
124.2953642794597
 20
83.595098726678515
 30
0.0
 66
     1
 70
     8
  0
VERTEX
  8
0
  5
A4BC
 10
124.295
 20
83.5951
 30
0.000000
  70
    32
  0
VERTEX
  8
0
  5
A4BD
 10
124.066
 20
83.5895
 30
0.000000
  70
    32
  0
VERTEX
  8
0
  5
A4BE
 10
123.837
 20
83.5725
 30
0.000000
  70
    32
  0
VERTEX
  8
0
  5
A4BF
 10
123.610
 20
83.5444
 30
0.000000
  70
    32
  0
VERTEX
  8
0
  5
A4C0
 10
123.384
 20
83.5051
 30
0.000000
  70
    32
  0
VERTEX
  8
0
  5
A4C1
 10
123.160
 20
83.4547
 30
0.000000
  70
    32
  0
VERTEX
  8
0
  5
A4C2
 10
122.939
 20
83.3934
 30
0.000000
  70
    32
  0
VERTEX
  8
0
  5
A4C3
 10
122.721
 20
83.3213
 30
0.000000
  70
    32
  0
VERTEX
  8
0
  5
A4C4
 10
122.507
 20
83.2386
 30
0.000000
  70
    32
  0
VERTEX
  8
0
  5
A4C5
 10
122.297
 20
83.1454
 30
0.000000
  70
    32
  0
VERTEX
  8
0
  5
A4C6
 10
122.092
 20
83.0420
 30
0.000000
  70
    32
  0
VERTEX
  8
0
  5
A4C7
 10
121.893
 20
82.9287
 30
0.000000
  70
    32
  0
VERTEX
  8
0
  5
A4C8
 10
121.699
 20
82.8057
 30
0.000000
  70
    32
  0
VERTEX
  8
0
  5
A4C9
 10
121.511
 20
82.6734
 30
0.000000
  70
    32
  0
VERTEX
  8
0
  5
A4CA
 10
121.331
 20
82.5319
 30
0.000000
  70
    32
  0
VERTEX
  8
0
  5
A4CB
 10
121.157
 20
82.3818
 30
0.000000
  70
    32
  0
VERTEX
  8
0
  5
A4CC
 10
120.991
 20
82.2233
 30
0.000000
  70
    32
  0
VERTEX
  8
0
  5
A4CD
 10
120.833
 20
82.0568
 30
0.000000
  70
    32
  0
VERTEX
  8
0
  5
A4CE
 10
120.683
 20
81.8827
 30
0.000000
  70
    32
  0
VERTEX
  8
0
  5
A4CF
 10
120.542
 20
81.7015
 30
0.000000
  70
    32
  0
VERTEX
  8
0
  5
A4D0
 10
120.410
 20
81.5135
 30
0.000000
  70
    32
  0
VERTEX
  8
0
  5
A4D1
 10
120.287
 20
81.3193
 30
0.000000
  70
    32
  0
VERTEX
  8
0
  5
A4D2
 10
120.174
 20
81.1193
 30
0.000000
  70
    32
  0
VERTEX
  8
0
  5
A4D3
 10
120.071
 20
80.9139
 30
0.000000
  70
    32
  0
VERTEX
  8
0
  5
A4D4
 10
119.978
 20
80.7037
 30
0.000000
  70
    32
  0
VERTEX
  8
0
  5
A4D5
 10
119.895
 20
80.4893
 30
0.000000
  70
    32
  0
VERTEX
  8
0
  5
A4D6
 10
119.823
 20
80.2710
 30
0.000000
  70
    32
  0
VERTEX
  8
0
  5
A4D7
 10
119.762
 20
80.0494
 30
0.000000
  70
    32
  0
VERTEX
  8
0
  5
A4D8
 10
119.712
 20
79.8251
 30
0.000000
  70
    32
  0
VERTEX
  8
0
  5
A4D9
 10
119.673
 20
79.5986
 30
0.000000
  70
    32
  0
VERTEX
  8
0
  5
A4DA
 10
119.645
 20
79.3704
 30
0.000000
  70
    32
  0
VERTEX
  8
0
  5
A4DB
 10
119.628
 20
79.1412
 30
0.000000
  70
    32
  0
VERTEX
  8
0
  5
A4DC
 10
119.622
 20
78.9114
 30
0.000000
  70
    32
  0
VERTEX
  8
0
  5
A4DD
 10
119.628
 20
78.6815
 30
0.000000
  70
    32
  0
VERTEX
  8
0
  5
A4DE
 10
119.645
 20
78.4523
 30
0.000000
  70
    32
  0
VERTEX
  8
0
  5
A4DF
 10
119.673
 20
78.2241
 30
0.000000
  70
    32
  0
VERTEX
  8
0
  5
A4E0
 10
119.712
 20
77.9976
 30
0.000000
  70
    32
  0
VERTEX
  8
0
  5
A4E1
 10
119.762
 20
77.7733
 30
0.000000
  70
    32
  0
VERTEX
  8
0
  5
A4E2
 10
119.823
 20
77.5517
 30
0.000000
  70
    32
  0
VERTEX
  8
0
  5
A4E3
 10
119.895
 20
77.3334
 30
0.000000
  70
    32
  0
VERTEX
  8
0
  5
A4E4
 10
119.978
 20
77.1190
 30
0.000000
  70
    32
  0
VERTEX
  8
0
  5
A4E5
 10
120.071
 20
76.9088
 30
0.000000
  70
    32
  0
VERTEX
  8
0
  5
A4E6
 10
120.174
 20
76.7034
 30
0.000000
  70
    32
  0
VERTEX
  8
0
  5
A4E7
 10
120.287
 20
76.5034
 30
0.000000
  70
    32
  0
VERTEX
  8
0
  5
A4E8
 10
120.410
 20
76.3092
 30
0.000000
  70
    32
  0
VERTEX
  8
0
  5
A4E9
 10
120.542
 20
76.1212
 30
0.000000
  70
    32
  0
VERTEX
  8
0
  5
A4EA
 10
120.683
 20
75.9400
 30
0.000000
  70
    32
  0
VERTEX
  8
0
  5
A4EB
 10
120.833
 20
75.7659
 30
0.000000
  70
    32
  0
VERTEX
  8
0
  5
A4EC
 10
120.991
 20
75.5994
 30
0.000000
  70
    32
  0
VERTEX
  8
0
  5
A4ED
 10
121.157
 20
75.4409
 30
0.000000
  70
    32
  0
VERTEX
  8
0
  5
A4EE
 10
121.331
 20
75.2908
 30
0.000000
  70
    32
  0
VERTEX
  8
0
  5
A4EF
 10
121.511
 20
75.1493
 30
0.000000
  70
    32
  0
VERTEX
  8
0
  5
A4F0
 10
121.699
 20
75.0170
 30
0.000000
  70
    32
  0
VERTEX
  8
0
  5
A4F1
 10
121.893
 20
74.8940
 30
0.000000
  70
    32
  0
VERTEX
  8
0
  5
A4F2
 10
122.092
 20
74.7807
 30
0.000000
  70
    32
  0
VERTEX
  8
0
  5
A4F3
 10
122.297
 20
74.6773
 30
0.000000
  70
    32
  0
VERTEX
  8
0
  5
A4F4
 10
122.507
 20
74.5841
 30
0.000000
  70
    32
  0
VERTEX
  8
0
  5
A4F5
 10
122.721
 20
74.5014
 30
0.000000
  70
    32
  0
VERTEX
  8
0
  5
A4F6
 10
122.939
 20
74.4293
 30
0.000000
  70
    32
  0
VERTEX
  8
0
  5
A4F7
 10
123.160
 20
74.3680
 30
0.000000
  70
    32
  0
VERTEX
  8
0
  5
A4F8
 10
123.384
 20
74.3176
 30
0.000000
  70
    32
  0
VERTEX
  8
0
  5
A4F9
 10
123.610
 20
74.2783
 30
0.000000
  70
    32
  0
VERTEX
  8
0
  5
A4FA
 10
123.837
 20
74.2502
 30
0.000000
  70
    32
  0
VERTEX
  8
0
  5
A4FB
 10
124.066
 20
74.2332
 30
0.000000
  70
    32
  0
VERTEX
  8
0
  5
A4FC
 10
124.295
 20
74.2276
 30
0.000000
  70
    32
  0
VERTEX
  8
0
  5
A4FD
 10
124.525
 20
74.2332
 30
0.000000
  70
    32
  0
VERTEX
  8
0
  5
A4FE
 10
124.753
 20
74.2502
 30
0.000000
  70
    32
  0
VERTEX
  8
0
  5
A4FF
 10
124.981
 20
74.2783
 30
0.000000
  70
    32
  0
VERTEX
  8
0
  5
A500
 10
125.207
 20
74.3176
 30
0.000000
  70
    32
  0
VERTEX
  8
0
  5
A501
 10
125.431
 20
74.3680
 30
0.000000
  70
    32
  0
VERTEX
  8
0
  5
A502
 10
125.652
 20
74.4293
 30
0.000000
  70
    32
  0
VERTEX
  8
0
  5
A503
 10
125.870
 20
74.5014
 30
0.000000
  70
    32
  0
VERTEX
  8
0
  5
A504
 10
126.084
 20
74.5841
 30
0.000000
  70
    32
  0
VERTEX
  8
0
  5
A505
 10
126.293
 20
74.6773
 30
0.000000
  70
    32
  0
VERTEX
  8
0
  5
A506
 10
126.498
 20
74.7807
 30
0.000000
  70
    32
  0
VERTEX
  8
0
  5
A507
 10
126.698
 20
74.8940
 30
0.000000
  70
    32
  0
VERTEX
  8
0
  5
A508
 10
126.892
 20
75.0170
 30
0.000000
  70
    32
  0
VERTEX
  8
0
  5
A509
 10
127.079
 20
75.1493
 30
0.000000
  70
    32
  0
VERTEX
  8
0
  5
A50A
 10
127.260
 20
75.2908
 30
0.000000
  70
    32
  0
VERTEX
  8
0
  5
A50B
 10
127.434
 20
75.4409
 30
0.000000
  70
    32
  0
VERTEX
  8
0
  5
A50C
 10
127.600
 20
75.5994
 30
0.000000
  70
    32
  0
VERTEX
  8
0
  5
A50D
 10
127.758
 20
75.7659
 30
0.000000
  70
    32
  0
VERTEX
  8
0
  5
A50E
 10
127.908
 20
75.9400
 30
0.000000
  70
    32
  0
VERTEX
  8
0
  5
A50F
 10
128.049
 20
76.1212
 30
0.000000
  70
    32
  0
VERTEX
  8
0
  5
A510
 10
128.181
 20
76.3092
 30
0.000000
  70
    32
  0
VERTEX
  8
0
  5
A511
 10
128.304
 20
76.5034
 30
0.000000
  70
    32
  0
VERTEX
  8
0
  5
A512
 10
128.417
 20
76.7034
 30
0.000000
  70
    32
  0
VERTEX
  8
0
  5
A513
 10
128.520
 20
76.9088
 30
0.000000
  70
    32
  0
VERTEX
  8
0
  5
A514
 10
128.613
 20
77.1190
 30
0.000000
  70
    32
  0
VERTEX
  8
0
  5
A515
 10
128.696
 20
77.3334
 30
0.000000
  70
    32
  0
VERTEX
  8
0
  5
A516
 10
128.767
 20
77.5517
 30
0.000000
  70
    32
  0
VERTEX
  8
0
  5
A517
 10
128.829
 20
77.7733
 30
0.000000
  70
    32
  0
VERTEX
  8
0
  5
A518
 10
128.879
 20
77.9976
 30
0.000000
  70
    32
  0
VERTEX
  8
0
  5
A519
 10
128.918
 20
78.2241
 30
0.000000
  70
    32
  0
VERTEX
  8
0
  5
A51A
 10
128.946
 20
78.4523
 30
0.000000
  70
    32
  0
VERTEX
  8
0
  5
A51B
 10
128.963
 20
78.6815
 30
0.000000
  70
    32
  0
VERTEX
  8
0
  5
A51C
 10
128.969
 20
78.9114
 30
0.000000
  70
    32
  0
VERTEX
  8
0
  5
A51D
 10
128.963
 20
79.1412
 30
0.000000
  70
    32
  0
VERTEX
  8
0
  5
A51E
 10
128.946
 20
79.3704
 30
0.000000
  70
    32
  0
VERTEX
  8
0
  5
A51F
 10
128.918
 20
79.5986
 30
0.000000
  70
    32
  0
VERTEX
  8
0
  5
A520
 10
128.879
 20
79.8251
 30
0.000000
  70
    32
  0
VERTEX
  8
0
  5
A521
 10
128.829
 20
80.0494
 30
0.000000
  70
    32
  0
VERTEX
  8
0
  5
A522
 10
128.767
 20
80.2710
 30
0.000000
  70
    32
  0
VERTEX
  8
0
  5
A523
 10
128.696
 20
80.4893
 30
0.000000
  70
    32
  0
VERTEX
  8
0
  5
A524
 10
128.613
 20
80.7037
 30
0.000000
  70
    32
  0
VERTEX
  8
0
  5
A525
 10
128.520
 20
80.9139
 30
0.000000
  70
    32
  0
VERTEX
  8
0
  5
A526
 10
128.417
 20
81.1193
 30
0.000000
  70
    32
  0
VERTEX
  8
0
  5
A527
 10
128.304
 20
81.3193
 30
0.000000
  70
    32
  0
VERTEX
  8
0
  5
A528
 10
128.181
 20
81.5135
 30
0.000000
  70
    32
  0
VERTEX
  8
0
  5
A529
 10
128.049
 20
81.7015
 30
0.000000
  70
    32
  0
VERTEX
  8
0
  5
A52A
 10
127.908
 20
81.8827
 30
0.000000
  70
    32
  0
VERTEX
  8
0
  5
A52B
 10
127.758
 20
82.0568
 30
0.000000
  70
    32
  0
VERTEX
  8
0
  5
A52C
 10
127.600
 20
82.2233
 30
0.000000
  70
    32
  0
VERTEX
  8
0
  5
A52D
 10
127.434
 20
82.3818
 30
0.000000
  70
    32
  0
VERTEX
  8
0
  5
A52E
 10
127.260
 20
82.5319
 30
0.000000
  70
    32
  0
VERTEX
  8
0
  5
A52F
 10
127.079
 20
82.6734
 30
0.000000
  70
    32
  0
VERTEX
  8
0
  5
A530
 10
126.892
 20
82.8057
 30
0.000000
  70
    32
  0
VERTEX
  8
0
  5
A531
 10
126.698
 20
82.9287
 30
0.000000
  70
    32
  0
VERTEX
  8
0
  5
A532
 10
126.498
 20
83.0420
 30
0.000000
  70
    32
  0
VERTEX
  8
0
  5
A533
 10
126.293
 20
83.1454
 30
0.000000
  70
    32
  0
VERTEX
  8
0
  5
A534
 10
126.084
 20
83.2386
 30
0.000000
  70
    32
  0
VERTEX
  8
0
  5
A535
 10
125.870
 20
83.3213
 30
0.000000
  70
    32
  0
VERTEX
  8
0
  5
A536
 10
125.652
 20
83.3934
 30
0.000000
  70
    32
  0
VERTEX
  8
0
  5
A537
 10
125.431
 20
83.4547
 30
0.000000
  70
    32
  0
VERTEX
  8
0
  5
A538
 10
125.207
 20
83.5051
 30
0.000000
  70
    32
  0
VERTEX
  8
0
  5
A539
 10
124.981
 20
83.5444
 30
0.000000
  70
    32
  0
VERTEX
  8
0
  5
A53A
 10
124.753
 20
83.5725
 30
0.000000
  70
    32
  0
VERTEX
  8
0
  5
A53B
 10
124.525
 20
83.5895
 30
0.000000
  70
    32
  0
VERTEX
  8
0
  5
A53C
 10
124.295
 20
83.5951
 30
0.000000
  70
    32
  0
SEQEND
  8
0
  5
A53D
  0
LINE
  5
52F9
  8
1
 10
108.28200824704849
 20
108.5332942437844
 30
0.0
 11
108.28200824704849
 21
130.7695149966957
 31
0.0
  0
LINE
  5
52FA
  8
1
 10
136.29286667112501
 20
119.6514046202401
 30
0.0
 11
80.271149822972106
 21
119.6514046202401
 31
0.0
  0
ARC
  5
52FB
  8
0
 10
108.28200824704879
 20
119.6514046202401
 30
0.0
 40
23.50000000000027
 50
174.5473778497101
 51
185.45262198781111
  0
ARC
  5
52FC
  8
0
 10
108.2820082470482
 20
119.6514046202401
 30
0.0
 40
23.500000000000281
 50
354.54737784971007
 51
5.4526219878110789
  0
LINE
  5
52FD
  8
0
 10
96.941974663976964
 20
116.8638637247121
 30
0.0
 11
96.931213392653007
 21
116.8680847887739
 31
0.0
  0
LINE
  5
52FE
  8
0
 10
119.6220418301202
 20
122.438945515768
 30
0.0
 11
119.6328031014441
 21
122.4347244517062
 31
0.0
  0
POLYLINE
  5
5303
  8
0
 66
     1
 10
0.0
 20
0.0
 30
0.0
  0
VERTEX
  5
A1AE
  8
0
 10
100.193993179166
 20
117.08121245813579
 30
0.0
  0
VERTEX
  5
A1AF
  8
0
 10
100.2714760001066
 20
117.0853135532336
 30
0.0
  0
VERTEX
  5
A1B0
  8
0
 10
100.4288181069881
 20
117.0870320391527
 30
0.0
  0
VERTEX
  5
A1B1
  8
0
 10
100.58845483336989
 20
117.0797282149196
 30
0.0
  0
VERTEX
  5
A1B2
  8
0
 10
100.6688043889073
 20
117.0725851829053
 30
0.0
  0
VERTEX
  5
A1B3
  8
0
 10
100.7493351071427
 20
117.0630747471705
 30
0.0
  0
VERTEX
  5
A1B4
  8
0
 10
100.9104343297961
 20
117.0368810492886
 30
0.0
  0
VERTEX
  5
A1B5
  8
0
 10
101.070739155583
 20
117.00108972586069
 30
0.0
  0
VERTEX
  5
A1B6
  8
0
 10
101.22924340364411
 20
116.95577789783179
 30
0.0
  0
VERTEX
  5
A1B7
  8
0
 10
101.3850180139253
 20
116.9011351557576
 30
0.0
  0
VERTEX
  5
A1B8
  8
0
 10
101.53724547351349
 20
116.8374328242689
 30
0.0
  0
VERTEX
  5
A1B9
  8
0
 10
101.6117486746822
 20
116.80231212653899
 30
0.0
  0
VERTEX
  5
A1BA
  8
0
 10
101.6850325998831
 20
116.7650963279507
 30
0.0
  0
VERTEX
  5
A1BB
  8
0
 10
101.8275327037779
 20
116.6846765072804
 30
0.0
  0
VERTEX
  5
A1BC
  8
0
 10
101.963976956602
 20
116.59683492102511
 30
0.0
  0
VERTEX
  5
A1BD
  8
0
 10
102.09365520928429
 20
116.5023571729419
 30
0.0
  0
VERTEX
  5
A1BE
  8
0
 10
102.21592649031329
 20
116.40215508552529
 30
0.0
  0
VERTEX
  5
A1BF
  8
0
 10
102.3195842625328
 20
116.3069513109825
 30
0.0
  0
SEQEND
  5
A1C0
  8
0
  0
LINE
  5
5305
  8
0
 10
116.3700233149311
 20
117.08121245813579
 30
0.0
 11
130.28200824704851
 21
116.1514046202401
 31
0.0
  0
POLYLINE
  5
5306
  8
0
 66
     1
 10
0.0
 20
0.0
 30
0.0
  0
VERTEX
  5
A1C1
  8
0
 10
130.28200824704851
 20
116.1514046202401
 30
0.0
  0
VERTEX
  5
A1C2
  8
0
 10
130.3490563996582
 20
116.1530110614621
 30
0.0
  0
VERTEX
  5
A1C3
  8
0
 10
130.47905552870421
 20
116.16534099659501
 30
0.0
  0
VERTEX
  5
A1C4
  8
0
 10
130.60307947289681
 20
116.188718571316
 30
0.0
  0
VERTEX
  5
A1C5
  8
0
 10
130.66281100102259
 20
116.2041892467508
 30
0.0
  0
VERTEX
  5
A1C6
  8
0
 10
130.72100227045351
 20
116.2220121847965
 30
0.0
  0
VERTEX
  5
A1C7
  8
0
 10
130.83261698557681
 20
116.2642255273955
 30
0.0
  0
VERTEX
  5
A1C8
  8
0
 10
130.9376514517437
 20
116.3144195806632
 30
0.0
  0
VERTEX
  5
A1C9
  8
0
 10
131.03587102672321
 20
116.3717051206127
 30
0.0
  0
VERTEX
  5
A1CA
  8
0
 10
131.12771015938961
 20
116.4357038200868
 30
0.0
  0
VERTEX
  5
A1CB
  8
0
 10
131.2134848337468
 20
116.50624847476089
 30
0.0
  0
VERTEX
  5
A1CC
  8
0
 10
131.2540158478231
 20
116.5438326753963
 30
0.0
  0
VERTEX
  5
A1CD
  8
0
 10
131.29293221667061
 20
116.58288372338571
 30
0.0
  0
VERTEX
  5
A1CE
  8
0
 10
131.36578986459361
 20
116.6651668386761
 30
0.0
  0
VERTEX
  5
A1CF
  8
0
 10
131.43179570074139
 20
116.7526626022327
 30
0.0
  0
VERTEX
  5
A1D0
  8
0
 10
131.49068796243691
 20
116.8449392314144
 30
0.0
  0
VERTEX
  5
A1D1
  8
0
 10
131.5422049369644
 20
116.9415650489387
 30
0.0
  0
VERTEX
  5
A1D2
  8
0
 10
131.58608436600849
 20
117.042105615766
 30
0.0
  0
VERTEX
  5
A1D3
  8
0
 10
131.6050776581389
 20
117.0937067576308
 30
0.0
  0
VERTEX
  5
A1D4
  8
0
 10
131.62206244140989
 20
117.14612106990209
 30
0.0
  0
VERTEX
  5
A1D5
  8
0
 10
131.64987234497741
 20
117.2531634265776
 30
0.0
  0
VERTEX
  5
A1D6
  8
0
 10
131.66924230712681
 20
117.36277359798
 30
0.0
  0
VERTEX
  5
A1D7
  8
0
 10
131.67567339908729
 20
117.41837287969349
 30
0.0
  0
SEQEND
  5
A1D8
  8
0
  0
LINE
  5
5307
  8
0
 10
100.193993179166
 20
122.22159678234441
 30
0.0
 11
86.282008247048566
 21
123.1514046202401
 31
0.0
  0
POLYLINE
  5
5308
  8
0
 66
     1
 10
0.0
 20
0.0
 30
0.0
  0
VERTEX
  5
A1D9
  8
0
 10
86.282008247048623
 20
123.1514046202401
 30
0.0
  0
VERTEX
  5
A1DA
  8
0
 10
86.214960094438993
 20
123.14979817901801
 30
0.0
  0
VERTEX
  5
A1DB
  8
0
 10
86.084960965392966
 20
123.13746824388519
 30
0.0
  0
VERTEX
  5
A1DC
  8
0
 10
85.960937021200365
 20
123.1140906691641
 30
0.0
  0
VERTEX
  5
A1DD
  8
0
 10
85.901205493074556
 20
123.0986199937293
 30
0.0
  0
VERTEX
  5
A1DE
  8
0
 10
85.843014223643578
 20
123.0807970556837
 30
0.0
  0
VERTEX
  5
A1DF
  8
0
 10
85.731399508520241
 20
123.03858371308461
 30
0.0
  0
VERTEX
  5
A1E0
  8
0
 10
85.626365042353385
 20
122.988389659817
 30
0.0
  0
VERTEX
  5
A1E1
  8
0
 10
85.528145467373832
 20
122.9311041198675
 30
0.0
  0
VERTEX
  5
A1E2
  8
0
 10
85.436306334707439
 20
122.8671054203933
 30
0.0
  0
VERTEX
  5
A1E3
  8
0
 10
85.350531660350285
 20
122.79656076571921
 30
0.0
  0
VERTEX
  5
A1E4
  8
0
 10
85.310000646273949
 20
122.7589765650839
 30
0.0
  0
VERTEX
  5
A1E5
  8
0
 10
85.271084277426525
 20
122.7199255170944
 30
0.0
  0
VERTEX
  5
A1E6
  8
0
 10
85.19822662950348
 20
122.637642401804
 30
0.0
  0
VERTEX
  5
A1E7
  8
0
 10
85.132220793355714
 20
122.5501466382475
 30
0.0
  0
VERTEX
  5
A1E8
  8
0
 10
85.073328531660167
 20
122.4578700090658
 30
0.0
  0
VERTEX
  5
A1E9
  8
0
 10
85.021811557132679
 20
122.3612441915414
 30
0.0
  0
VERTEX
  5
A1EA
  8
0
 10
84.977932128088611
 20
122.2607036247142
 30
0.0
  0
VERTEX
  5
A1EB
  8
0
 10
84.958938835958236
 20
122.2091024828494
 30
0.0
  0
VERTEX
  5
A1EC
  8
0
 10
84.941954052687208
 20
122.15668817057799
 30
0.0
  0
VERTEX
  5
A1ED
  8
0
 10
84.914144149119679
 20
122.0496458139025
 30
0.0
  0
VERTEX
  5
A1EE
  8
0
 10
84.894774186970324
 20
121.94003564250011
 30
0.0
  0
VERTEX
  5
A1EF
  8
0
 10
84.88834309500983
 20
121.88443636078669
 30
0.0
  0
SEQEND
  5
A1F0
  8
0
  0
POLYLINE
  5
5309
  8
0
 66
     1
 10
0.0
 20
0.0
 30
0.0
  0
VERTEX
  5
A1F1
  8
0
 10
131.67567340541959
 20
121.88443629444819
 30
0.0
  0
VERTEX
  5
A1F2
  8
0
 10
131.66924231618489
 20
121.94003557588481
 30
0.0
  0
VERTEX
  5
A1F3
  8
0
 10
131.64987235835579
 20
122.0496457525436
 30
0.0
  0
VERTEX
  5
A1F4
  8
0
 10
131.6220624583558
 20
122.15668811454699
 30
0.0
  0
VERTEX
  5
A1F5
  8
0
 10
131.6050776765972
 20
122.20910242949179
 30
0.0
  0
VERTEX
  5
A1F6
  8
0
 10
131.58608438580379
 20
122.2607035740277
 30
0.0
  0
VERTEX
  5
A1F7
  8
0
 10
131.54220495892349
 20
122.3612441461644
 30
0.0
  0
VERTEX
  5
A1F8
  8
0
 10
131.4906879859052
 20
122.4578699689143
 30
0.0
  0
VERTEX
  5
A1F9
  8
0
 10
131.4317957250947
 20
122.5501466031909
 30
0.0
  0
VERTEX
  5
A1FA
  8
0
 10
131.3657898892375
 20
122.6376423716669
 30
0.0
  0
VERTEX
  5
A1FB
  8
0
 10
131.29293224104029
 20
122.7199254916578
 30
0.0
  0
VERTEX
  5
A1FC
  8
0
 10
131.25401587185331
 20
122.7589765419019
 30
0.0
  0
VERTEX
  5
A1FD
  8
0
 10
131.21348485730729
 20
122.7965607447214
 30
0.0
  0
VERTEX
  5
A1FE
  8
0
 10
131.12771018163559
 20
122.8671054035309
 30
0.0
  0
VERTEX
  5
A1FF
  8
0
 10
131.03587104717889
 20
122.9311041067957
 30
0.0
  0
VERTEX
  5
A200
  8
0
 10
130.93765147033119
 20
122.988389649965
 30
0.0
  0
VERTEX
  5
A201
  8
0
 10
130.83261700180449
 20
123.038583706143
 30
0.0
  0
VERTEX
  5
A202
  8
0
 10
130.72100228383431
 20
123.08079705126509
 30
0.0
  0
VERTEX
  5
A203
  8
0
 10
130.66281101280501
 20
123.0986199903989
 30
0.0
  0
VERTEX
  5
A204
  8
0
 10
130.60307948296889
 20
123.114090666791
 30
0.0
  0
VERTEX
  5
A205
  8
0
 10
130.4790555350535
 20
123.13746824298249
 30
0.0
  0
VERTEX
  5
A206
  8
0
 10
130.34905640186949
 20
123.14979817891199
 30
0.0
  0
VERTEX
  5
A207
  8
0
 10
130.28200824704851
 20
123.1514046202401
 30
0.0
  0
SEQEND
  5
A208
  8
0
  0
LINE
  5
530A
  8
0
 10
86.282008247048566
 20
116.1514046202401
 30
0.0
 11
100.193993179166
 21
117.08121245813579
 31
0.0
  0
POLYLINE
  5
530B
  8
0
 66
     1
 10
0.0
 20
0.0
 30
0.0
  0
VERTEX
  5
A209
  8
0
 10
84.888343088677516
 20
117.41837294603199
 30
0.0
  0
VERTEX
  5
A20A
  8
0
 10
84.894774177912225
 20
117.36277366459539
 30
0.0
  0
VERTEX
  5
A20B
  8
0
 10
84.914144135741324
 20
117.2531634879366
 30
0.0
  0
VERTEX
  5
A20C
  8
0
 10
84.941954035741304
 20
117.14612112593321
 30
0.0
  0
VERTEX
  5
A20D
  8
0
 10
84.958938817499913
 20
117.09370681098839
 30
0.0
  0
VERTEX
  5
A20E
  8
0
 10
84.977932108293274
 20
117.0421056664525
 30
0.0
  0
VERTEX
  5
A20F
  8
0
 10
85.021811535173597
 20
116.94156509431581
 30
0.0
  0
VERTEX
  5
A210
  8
0
 10
85.073328508191864
 20
116.84493927156591
 30
0.0
  0
VERTEX
  5
A211
  8
0
 10
85.132220769002444
 20
116.75266263728921
 30
0.0
  0
VERTEX
  5
A212
  8
0
 10
85.198226604859613
 20
116.6651668688132
 30
0.0
  0
VERTEX
  5
A213
  8
0
 10
85.271084253056813
 20
116.5828837488223
 30
0.0
  0
VERTEX
  5
A214
  8
0
 10
85.310000622243834
 20
116.5438326985781
 30
0.0
  0
VERTEX
  5
A215
  8
0
 10
85.350531636789839
 20
116.5062484957587
 30
0.0
  0
VERTEX
  5
A216
  8
0
 10
85.436306312461625
 20
116.4357038369492
 30
0.0
  0
VERTEX
  5
A217
  8
0
 10
85.528145446918245
 20
116.3717051336844
 30
0.0
  0
VERTEX
  5
A218
  8
0
 10
85.626365023765985
 20
116.3144195905152
 30
0.0
  0
VERTEX
  5
A219
  8
0
 10
85.731399492292681
 20
116.2642255343371
 30
0.0
  0
VERTEX
  5
A21A
  8
0
 10
85.843014210262865
 20
116.22201218921511
 30
0.0
  0
VERTEX
  5
A21B
  8
0
 10
85.901205481292237
 20
116.2041892500812
 30
0.0
  0
VERTEX
  5
A21C
  8
0
 10
85.960937011128237
 20
116.1887185736892
 30
0.0
  0
VERTEX
  5
A21D
  8
0
 10
86.084960959043599
 20
116.16534099749759
 30
0.0
  0
VERTEX
  5
A21E
  8
0
 10
86.214960092227614
 20
116.15301106156819
 30
0.0
  0
VERTEX
  5
A21F
  8
0
 10
86.282008247048637
 20
116.1514046202401
 30
0.0
  0
SEQEND
  5
A220
  8
0
  0
LINE
  5
530C
  8
0
 10
130.28200824704851
 20
123.1514046202401
 30
0.0
 11
116.3700233149311
 21
122.22159678234441
 31
0.0
  0
POLYLINE
  5
530D
  8
0
 66
     1
 10
0.0
 20
0.0
 30
0.0
  0
VERTEX
  5
A221
  8
0
 10
116.3700233149311
 20
122.22159678234441
 30
0.0
  0
VERTEX
  5
A222
  8
0
 10
116.2925404939905
 20
122.2174956872466
 30
0.0
  0
VERTEX
  5
A223
  8
0
 10
116.135198387109
 20
122.2157772013274
 30
0.0
  0
VERTEX
  5
A224
  8
0
 10
115.97556166072719
 20
122.2230810255605
 30
0.0
  0
VERTEX
  5
A225
  8
0
 10
115.8952121051897
 20
122.2302240575748
 30
0.0
  0
VERTEX
  5
A226
  8
0
 10
115.8146813869544
 20
122.2397344933097
 30
0.0
  0
VERTEX
  5
A227
  8
0
 10
115.653582164301
 20
122.26592819119151
 30
0.0
  0
VERTEX
  5
A228
  8
0
 10
115.4932773385141
 20
122.30171951461941
 30
0.0
  0
VERTEX
  5
A229
  8
0
 10
115.334773090453
 20
122.34703134264841
 30
0.0
  0
VERTEX
  5
A22A
  8
0
 10
115.1789984801718
 20
122.4016740847226
 30
0.0
  0
VERTEX
  5
A22B
  8
0
 10
115.0267710205836
 20
122.4653764162113
 30
0.0
  0
VERTEX
  5
A22C
  8
0
 10
114.9522678194149
 20
122.50049711394119
 30
0.0
  0
VERTEX
  5
A22D
  8
0
 10
114.878983894214
 20
122.5377129125295
 30
0.0
  0
VERTEX
  5
A22E
  8
0
 10
114.7364837903192
 20
122.6181327331998
 30
0.0
  0
VERTEX
  5
A22F
  8
0
 10
114.60003953749511
 20
122.70597431945509
 30
0.0
  0
VERTEX
  5
A230
  8
0
 10
114.4703612848128
 20
122.8004520675383
 30
0.0
  0
VERTEX
  5
A231
  8
0
 10
114.3480900037838
 20
122.90065415495491
 30
0.0
  0
VERTEX
  5
A232
  8
0
 10
114.2444322315641
 20
122.9958579294979
 30
0.0
  0
SEQEND
  5
A233
  8
0
  0
LINE
  5
53C0
  8
1
 10
60.051080359811287
 20
27.7574135435347
 30
0.0
 11
60.051080359811287
 21
90.462069531329234
 31
0.0
  0
LINE
  5
53C1
  8
0
 10
63.150248068562178
 20
86.111350227879711
 30
0.0
 11
56.951912651060411
 21
86.111350227879711
 31
0.0
  0
LINE
  5
53C2
  8
0
 10
53.301080359811301
 20
84.079131107668104
 30
0.0
 11
53.301080359811301
 21
62.111350227879711
 31
0.0
  0
LINE
  5
53C3
  8
0
 10
66.801080359811294
 20
62.111350227879711
 30
0.0
 11
66.801080359811294
 21
84.079131107668104
 31
0.0
  0
LINE
  5
53C7
  8
0
 10
53.301080359811301
 20
84.079131107668104
 30
0.0
 11
56.259800193098329
 21
84.079131107668104
 31
0.0
  0
LINE
  5
53C8
  8
0
 10
63.842360526524253
 20
67.611350227879711
 30
0.0
 11
56.259800193098329
 21
67.611350227879711
 31
0.0
  0
LINE
  5
53C9
  8
0
 10
63.842360526524253
 20
84.079131107668104
 30
0.0
 11
66.801080359811294
 21
84.079131107668104
 31
0.0
  0
LINE
  5
53CA
  8
0
 10
66.801080359811294
 20
62.111350227879711
 30
0.0
 11
53.301080359811301
 21
62.111350227879711
 31
0.0
  0
POLYLINE
  5
53CB
  8
0
 66
     1
 10
0.0
 20
0.0
 30
0.0
  0
VERTEX
  5
A234
  8
0
 10
63.48510549800401
 20
84.086540506760457
 30
0.0
  0
VERTEX
  5
A235
  8
0
 10
63.540589937139707
 20
84.084305332529524
 30
0.0
  0
VERTEX
  5
A236
  8
0
 10
63.656619399850513
 20
84.081011538793462
 30
0.0
  0
VERTEX
  5
A237
  8
0
 10
63.778978265937802
 20
84.079341574406214
 30
0.0
  0
VERTEX
  5
A238
  8
0
 10
63.842360526524253
 20
84.079131107668104
 30
0.0
  0
SEQEND
  5
A239
  8
0
  0
LINE
  5
53CC
  8
0
 10
63.842360526524253
 20
84.079131107668104
 30
0.0
 11
63.842360526524253
 21
67.611350227879711
 31
0.0
  0
POLYLINE
  5
53CD
  8
0
 66
     1
 10
0.0
 20
0.0
 30
0.0
  0
VERTEX
  5
A23A
  8
0
 10
63.842360526524253
 20
67.611350227879711
 30
0.0
  0
VERTEX
  5
A23B
  8
0
 10
63.779284409353963
 20
67.611728389616076
 30
0.0
  0
VERTEX
  5
A23C
  8
0
 10
63.657070061771009
 20
67.614743567414735
 30
0.0
  0
VERTEX
  5
A23D
  8
0
 10
63.540305712558329
 20
67.620744670822035
 30
0.0
  0
VERTEX
  5
A23E
  8
0
 10
63.484042418268643
 20
67.624853728184235
 30
0.0
  0
VERTEX
  5
A23F
  8
0
 10
63.429231922696943
 20
67.629695030875268
 30
0.0
  0
VERTEX
  5
A240
  8
0
 10
63.32409472299085
 20
67.641551374854203
 30
0.0
  0
VERTEX
  5
A241
  8
0
 10
63.225435350868793
 20
67.656214949407342
 30
0.0
  0
VERTEX
  5
A242
  8
0
 10
63.133606845178491
 20
67.67357099649621
 30
0.0
  0
VERTEX
  5
A243
  8
0
 10
63.048752959472303
 20
67.693522874334164
 30
0.0
  0
VERTEX
  5
A244
  8
0
 10
62.971018378109477
 20
67.715972247422314
 30
0.0
  0
VERTEX
  5
A245
  8
0
 10
62.934866086141007
 20
67.728102452010134
 30
0.0
  0
VERTEX
  5
A246
  8
0
 10
62.900547884536962
 20
67.740819703843783
 30
0.0
  0
VERTEX
  5
A247
  8
0
 10
62.837598296298687
 20
67.767911825049495
 30
0.0
  0
VERTEX
  5
A248
  8
0
 10
62.782390292951497
 20
67.797066120331579
 30
0.0
  0
VERTEX
  5
A249
  8
0
 10
62.734964505234501
 20
67.828161364692392
 30
0.0
  0
VERTEX
  5
A24A
  8
0
 10
62.695362347576157
 20
67.861079421541035
 30
0.0
  0
VERTEX
  5
A24B
  8
0
 10
62.663625176549182
 20
67.895704913149928
 30
0.0
  0
VERTEX
  5
A24C
  8
0
 10
62.650718568228712
 20
67.913622637559556
 30
0.0
  0
VERTEX
  5
A24D
  8
0
 10
62.639798530490452
 20
67.931915072729964
 30
0.0
  0
VERTEX
  5
A24E
  8
0
 10
62.623939829586028
 20
67.969515120476899
 30
0.0
  0
VERTEX
  5
A24F
  8
0
 10
62.616027161738863
 20
68.008373774963275
 30
0.0
  0
VERTEX
  5
A250
  8
0
 10
62.615039706790377
 20
68.02824061546653
 30
0.0
  0
SEQEND
  5
A251
  8
0
  0
POLYLINE
  5
53CE
  8
0
 66
     1
 10
0.0
 20
0.0
 30
0.0
  0
VERTEX
  5
A252
  8
0
 10
62.615039706790377
 20
68.02824061546653
 30
0.0
  0
VERTEX
  5
A253
  8
0
 10
62.61521311279693
 20
68.036652528906473
 30
0.0
  0
VERTEX
  5
A254
  8
0
 10
62.616599386415139
 20
68.053616790958472
 30
0.0
  0
VERTEX
  5
A255
  8
0
 10
62.61936942293022
 20
68.070761842436184
 30
0.0
  0
VERTEX
  5
A256
  8
0
 10
62.6212725219156
 20
68.079399764086304
 30
0.0
  0
SEQEND
  5
A257
  8
0
  0
POLYLINE
  5
53D0
  8
0
 66
     1
 10
0.0
 20
0.0
 30
0.0
  0
VERTEX
  5
A258
  8
0
 10
63.387133777164649
 20
72.635866318374951
 30
0.0
  0
VERTEX
  5
A259
  8
0
 10
63.376078704921177
 20
72.545927902735343
 30
0.0
  0
VERTEX
  5
A25A
  8
0
 10
63.35394274978519
 20
72.382084347975933
 30
0.0
  0
VERTEX
  5
A25B
  8
0
 10
63.332064288544878
 20
72.240150110632555
 30
0.0
  0
VERTEX
  5
A25C
  8
0
 10
63.320929732150987
 20
72.175136389662327
 30
0.0
  0
SEQEND
  5
A25D
  8
0
  0
POLYLINE
  5
53D1
  8
0
 66
     1
 10
0.0
 20
0.0
 30
0.0
  0
VERTEX
  5
A25E
  8
0
 10
56.951912651060411
 20
86.111350227879711
 30
0.0
  0
VERTEX
  5
A25F
  8
0
 10
56.939396068032437
 20
86.108940709537876
 30
0.0
  0
VERTEX
  5
A260
  8
0
 10
56.913632785190913
 20
86.088773490337516
 30
0.0
  0
VERTEX
  5
A261
  8
0
 10
56.887261535266838
 20
86.046741167488847
 30
0.0
  0
VERTEX
  5
A262
  8
0
 10
56.873983161312736
 20
86.017267131889085
 30
0.0
  0
VERTEX
  5
A263
  8
0
 10
56.860714295922882
 20
85.982162883582987
 30
0.0
  0
VERTEX
  5
A264
  8
0
 10
56.83440850341907
 20
85.895509364681516
 30
0.0
  0
VERTEX
  5
A265
  8
0
 10
56.808743840255488
 20
85.788394100420533
 30
0.0
  0
VERTEX
  5
A266
  8
0
 10
56.784108535597738
 20
85.663599350519235
 30
0.0
  0
VERTEX
  5
A267
  8
0
 10
56.760789830304461
 20
85.524517760443345
 30
0.0
  0
VERTEX
  5
A268
  8
0
 10
56.737553434409648
 20
85.364312673046484
 30
0.0
  0
VERTEX
  5
A269
  8
0
 10
56.725867321829242
 20
85.275078785758069
 30
0.0
  0
VERTEX
  5
A26A
  8
0
 10
56.714209834717657
 20
85.179962866761215
 30
0.0
  0
VERTEX
  5
A26B
  8
0
 10
56.691188548490118
 20
84.973091028974977
 30
0.0
  0
VERTEX
  5
A26C
  8
0
 10
56.668878678580967
 20
84.746344551273182
 30
0.0
  0
VERTEX
  5
A26D
  8
0
 10
56.647620248924888
 20
84.503316828496452
 30
0.0
  0
VERTEX
  5
A26E
  8
0
 10
56.62771431444969
 20
84.248653568014603
 30
0.0
  0
VERTEX
  5
A26F
  8
0
 10
56.609409464993121
 20
83.987886778975565
 30
0.0
  0
VERTEX
  5
A270
  8
0
 10
56.600656964634233
 20
83.852997113970446
 30
0.0
  0
VERTEX
  5
A271
  8
0
 10
56.591964491438972
 20
83.711758724724177
 30
0.0
  0
VERTEX
  5
A272
  8
0
 10
56.574962758585798
 20
83.411915355524798
 30
0.0
  0
VERTEX
  5
A273
  8
0
 10
56.558772642062451
 20
83.092176770553905
 30
0.0
  0
VERTEX
  5
A274
  8
0
 10
56.551080359811287
 20
82.926250321807629
 30
0.0
  0
SEQEND
  5
A275
  8
0
  0
POLYLINE
  5
53D2
  8
0
 66
     1
 10
0.0
 20
0.0
 30
0.0
  0
VERTEX
  5
A276
  8
0
 10
56.551080359811287
 20
74.896450133951816
 30
0.0
  0
VERTEX
  5
A277
  8
0
 10
56.555909292128412
 20
74.791131706105659
 30
0.0
  0
VERTEX
  5
A278
  8
0
 10
56.565909181437434
 20
74.585000732322143
 30
0.0
  0
VERTEX
  5
A279
  8
0
 10
56.576303971478829
 20
74.385890953407909
 30
0.0
  0
VERTEX
  5
A27A
  8
0
 10
56.581624127340632
 20
74.289320796233312
 30
0.0
  0
VERTEX
  5
A27B
  8
0
 10
56.587011445716428
 20
74.194911485781745
 30
0.0
  0
VERTEX
  5
A27C
  8
0
 10
56.597939740678271
 20
74.013045944455655
 30
0.0
  0
VERTEX
  5
A27D
  8
0
 10
56.608987140074532
 20
73.841162470755648
 30
0.0
  0
VERTEX
  5
A27E
  8
0
 10
56.62034759609503
 20
73.675710453572037
 30
0.0
  0
VERTEX
  5
A27F
  8
0
 10
56.632379004582717
 20
73.511822081917501
 30
0.0
  0
VERTEX
  5
A280
  8
0
 10
56.645028118285161
 20
73.350983990950454
 30
0.0
  0
VERTEX
  5
A281
  8
0
 10
56.651564568198381
 20
73.272148790745405
 30
0.0
  0
VERTEX
  5
A282
  8
0
 10
56.658230792348832
 20
73.194585503936253
 30
0.0
  0
VERTEX
  5
A283
  8
0
 10
56.671914812628891
 20
73.043870326109015
 30
0.0
  0
VERTEX
  5
A284
  8
0
 10
56.685999870622638
 20
72.899932533469666
 30
0.0
  0
VERTEX
  5
A285
  8
0
 10
56.700401579575242
 20
72.763676542439612
 30
0.0
  0
VERTEX
  5
A286
  8
0
 10
56.715026942457911
 20
72.635866318375179
 30
0.0
  0
VERTEX
  5
A287
  8
0
 10
56.729774669559902
 20
72.517117282594143
 30
0.0
  0
VERTEX
  5
A288
  8
0
 10
56.73716125134834
 20
72.461285910974595
 30
0.0
  0
VERTEX
  5
A289
  8
0
 10
56.744537866075689
 20
72.407873547621463
 30
0.0
  0
VERTEX
  5
A28A
  8
0
 10
56.759203524813159
 20
72.308416603044407
 30
0.0
  0
VERTEX
  5
A28B
  8
0
 10
56.773769815514953
 20
72.218175839807657
 30
0.0
  0
VERTEX
  5
A28C
  8
0
 10
56.781230987471609
 20
72.175136389662271
 30
0.0
  0
SEQEND
  5
A28D
  8
0
  0
POLYLINE
  5
53D3
  8
0
 66
     1
 10
0.0
 20
0.0
 30
0.0
  0
VERTEX
  5
A28E
  8
0
 10
56.781230987471609
 20
72.175136389662271
 30
0.0
  0
VERTEX
  5
A28F
  8
0
 10
56.88954665721166
 20
71.378540215286307
 30
0.0
  0
VERTEX
  5
A290
  8
0
 10
57.118519354054513
 20
69.898118407990523
 30
0.0
  0
VERTEX
  5
A291
  8
0
 10
57.358729611726922
 20
68.62350092155998
 30
0.0
  0
VERTEX
  5
A292
  8
0
 10
57.480888197706989
 20
68.079399764086304
 30
0.0
  0
SEQEND
  5
A293
  8
0
  0
LINE
  5
53D4
  8
0
 10
56.551080359811287
 20
82.926250321807629
 30
0.0
 11
56.551080359811287
 21
74.896450133951816
 31
0.0
  0
POLYLINE
  5
53D7
  8
0
 66
     1
 10
0.0
 20
0.0
 30
0.0
  0
VERTEX
  5
A294
  8
0
 10
63.320929732150972
 20
72.175136389662271
 30
0.0
  0
VERTEX
  5
A295
  8
0
 10
63.328390904107643
 20
72.218175839807657
 30
0.0
  0
VERTEX
  5
A296
  8
0
 10
63.342957194809429
 20
72.308416603044407
 30
0.0
  0
VERTEX
  5
A297
  8
0
 10
63.357622853546893
 20
72.407873547621463
 30
0.0
  0
VERTEX
  5
A298
  8
0
 10
63.364999468274249
 20
72.461285910974595
 30
0.0
  0
VERTEX
  5
A299
  8
0
 10
63.372386050062687
 20
72.517117282594143
 30
0.0
  0
VERTEX
  5
A29A
  8
0
 10
63.387133777164678
 20
72.635866318375179
 30
0.0
  0
VERTEX
  5
A29B
  8
0
 10
63.401759140047353
 20
72.763676542439555
 30
0.0
  0
VERTEX
  5
A29C
  8
0
 10
63.416160848999951
 20
72.899932533469666
 30
0.0
  0
VERTEX
  5
A29D
  8
0
 10
63.43024590699369
 20
73.043870326109015
 30
0.0
  0
VERTEX
  5
A29E
  8
0
 10
63.44392992727375
 20
73.194585503936253
 30
0.0
  0
VERTEX
  5
A29F
  8
0
 10
63.450596151424207
 20
73.272148790745405
 30
0.0
  0
VERTEX
  5
A2A0
  8
0
 10
63.457132601337428
 20
73.350983990950454
 30
0.0
  0
VERTEX
  5
A2A1
  8
0
 10
63.469781715039858
 20
73.511822081917501
 30
0.0
  0
VERTEX
  5
A2A2
  8
0
 10
63.481813123527559
 20
73.675710453572037
 30
0.0
  0
VERTEX
  5
A2A3
  8
0
 10
63.493173579548063
 20
73.841162470755648
 30
0.0
  0
VERTEX
  5
A2A4
  8
0
 10
63.504220978944318
 20
74.013045944455655
 30
0.0
  0
VERTEX
  5
A2A5
  8
0
 10
63.515149273906161
 20
74.194911485781745
 30
0.0
  0
VERTEX
  5
A2A6
  8
0
 10
63.520536592281957
 20
74.289320796233312
 30
0.0
  0
VERTEX
  5
A2A7
  8
0
 10
63.525856748143752
 20
74.385890953407909
 30
0.0
  0
VERTEX
  5
A2A8
  8
0
 10
63.536251538185162
 20
74.585000732322143
 30
0.0
  0
VERTEX
  5
A2A9
  8
0
 10
63.546251427494177
 20
74.791131706105659
 30
0.0
  0
VERTEX
  5
A2AA
  8
0
 10
63.551080359811287
 20
74.896450133951816
 30
0.0
  0
SEQEND
  5
A2AB
  8
0
  0
POLYLINE
  5
53D8
  8
0
 66
     1
 10
0.0
 20
0.0
 30
0.0
  0
VERTEX
  5
A2AC
  8
0
 10
63.551080359811287
 20
82.926250321807629
 30
0.0
  0
VERTEX
  5
A2AD
  8
0
 10
63.543388077560138
 20
83.092176770553905
 30
0.0
  0
VERTEX
  5
A2AE
  8
0
 10
63.527197961036791
 20
83.411915355524798
 30
0.0
  0
VERTEX
  5
A2AF
  8
0
 10
63.510196228183617
 20
83.711758724724177
 30
0.0
  0
VERTEX
  5
A2B0
  8
0
 10
63.501503754988363
 20
83.852997113970446
 30
0.0
  0
VERTEX
  5
A2B1
  8
0
 10
63.492751254629468
 20
83.987886778975607
 30
0.0
  0
VERTEX
  5
A2B2
  8
0
 10
63.474446405172898
 20
84.248653568014674
 30
0.0
  0
VERTEX
  5
A2B3
  8
0
 10
63.454540470697708
 20
84.503316828496452
 30
0.0
  0
VERTEX
  5
A2B4
  8
0
 10
63.433282041041622
 20
84.746344551273182
 30
0.0
  0
VERTEX
  5
A2B5
  8
0
 10
63.410972171132471
 20
84.973091028974977
 30
0.0
  0
VERTEX
  5
A2B6
  8
0
 10
63.387950884904917
 20
85.179962866761215
 30
0.0
  0
VERTEX
  5
A2B7
  8
0
 10
63.376293397793347
 20
85.275078785758069
 30
0.0
  0
VERTEX
  5
A2B8
  8
0
 10
63.364607285212941
 20
85.364312673046484
 30
0.0
  0
VERTEX
  5
A2B9
  8
0
 10
63.341370889318107
 20
85.524517760443345
 30
0.0
  0
VERTEX
  5
A2BA
  8
0
 10
63.31805218402485
 20
85.663599350519235
 30
0.0
  0
VERTEX
  5
A2BB
  8
0
 10
63.293416879367101
 20
85.788394100420533
 30
0.0
  0
VERTEX
  5
A2BC
  8
0
 10
63.267752216203512
 20
85.895509364681516
 30
0.0
  0
VERTEX
  5
A2BD
  8
0
 10
63.241446423699699
 20
85.982162883582987
 30
0.0
  0
VERTEX
  5
A2BE
  8
0
 10
63.228177558309852
 20
86.017267131889085
 30
0.0
  0
VERTEX
  5
A2BF
  8
0
 10
63.214899184355737
 20
86.046741167488847
 30
0.0
  0
VERTEX
  5
A2C0
  8
0
 10
63.188527934431669
 20
86.088773490337516
 30
0.0
  0
VERTEX
  5
A2C1
  8
0
 10
63.162764651590152
 20
86.108940709537876
 30
0.0
  0
VERTEX
  5
A2C2
  8
0
 10
63.150248068562178
 20
86.111350227879711
 30
0.0
  0
SEQEND
  5
A2C3
  8
0
  0
POLYLINE
  5
53D9
  8
0
 66
     1
 10
0.0
 20
0.0
 30
0.0
  0
VERTEX
  5
A2C4
  8
0
 10
62.6212725219156
 20
68.079399764086304
 30
0.0
  0
VERTEX
  5
A2C5
  8
0
 10
62.743431107895667
 20
68.62350092155998
 30
0.0
  0
VERTEX
  5
A2C6
  8
0
 10
62.983641365568069
 20
69.898118407990523
 30
0.0
  0
VERTEX
  5
A2C7
  8
0
 10
63.212614062410921
 20
71.378540215286307
 30
0.0
  0
VERTEX
  5
A2C8
  8
0
 10
63.320929732150972
 20
72.175136389662271
 30
0.0
  0
SEQEND
  5
A2C9
  8
0
  0
LINE
  5
53DB
  8
0
 10
63.551080359811287
 20
82.926250321807629
 30
0.0
 11
63.551080359811287
 21
74.896450133951816
 31
0.0
  0
POLYLINE
  5
53DD
  8
0
 66
     1
 10
0.0
 20
0.0
 30
0.0
  0
VERTEX
  5
A2CA
  8
0
 10
56.781230987471609
 20
72.175136389662271
 30
0.0
  0
VERTEX
  5
A2CB
  8
0
 10
56.77009643107769
 20
72.240150110632612
 30
0.0
  0
VERTEX
  5
A2CC
  8
0
 10
56.748217969837349
 20
72.382084347976161
 30
0.0
  0
VERTEX
  5
A2CD
  8
0
 10
56.726082014701348
 20
72.545927902735741
 30
0.0
  0
VERTEX
  5
A2CE
  8
0
 10
56.715026942457868
 20
72.63586631837552
 30
0.0
  0
SEQEND
  5
A2CF
  8
0
  0
LINE
  5
53DF
  8
0
 10
56.259800193098329
 20
84.079131107668104
 30
0.0
 11
56.259800193098329
 21
67.611350227879711
 31
0.0
  0
POLYLINE
  5
53E0
  8
0
 66
     1
 10
0.0
 20
0.0
 30
0.0
  0
VERTEX
  5
A2D0
  8
0
 10
56.259800193098329
 20
84.079131107668104
 30
0.0
  0
VERTEX
  5
A2D1
  8
0
 10
56.321339357235431
 20
84.079329399586186
 30
0.0
  0
VERTEX
  5
A2D2
  8
0
 10
56.442313146210658
 20
84.080944752615906
 30
0.0
  0
VERTEX
  5
A2D3
  8
0
 10
56.559668135311078
 20
84.084236628493954
 30
0.0
  0
VERTEX
  5
A2D4
  8
0
 10
56.61670106485726
 20
84.086524782193067
 30
0.0
  0
SEQEND
  5
A2D5
  8
0
  0
POLYLINE
  5
53E1
  8
0
 66
     1
 10
0.0
 20
0.0
 30
0.0
  0
VERTEX
  5
A2D6
  8
0
 10
57.480888197706989
 20
68.079399764086304
 30
0.0
  0
VERTEX
  5
A2D7
  8
0
 10
57.482790809166922
 20
68.070764269814276
 30
0.0
  0
VERTEX
  5
A2D8
  8
0
 10
57.485560803184541
 20
68.053621139706252
 30
0.0
  0
VERTEX
  5
A2D9
  8
0
 10
57.48694750798694
 20
68.036654933032693
 30
0.0
  0
VERTEX
  5
A2DA
  8
0
 10
57.487121012832212
 20
68.02824061546653
 30
0.0
  0
SEQEND
  5
A2DB
  8
0
  0
POLYLINE
  5
53E2
  8
0
 66
     1
 10
0.0
 20
0.0
 30
0.0
  0
VERTEX
  5
A2DC
  8
0
 10
57.487121012832212
 20
68.02824061546653
 30
0.0
  0
VERTEX
  5
A2DD
  8
0
 10
57.48612947817481
 20
68.008333084167191
 30
0.0
  0
VERTEX
  5
A2DE
  8
0
 10
57.478181276330609
 20
67.969387730417566
 30
0.0
  0
VERTEX
  5
A2DF
  8
0
 10
57.462266891283832
 20
67.931737888712348
 30
0.0
  0
VERTEX
  5
A2E0
  8
0
 10
57.451319765959788
 20
67.913436802379124
 30
0.0
  0
VERTEX
  5
A2E1
  8
0
 10
57.438377887942089
 20
67.895504046706606
 30
0.0
  0
VERTEX
  5
A2E2
  8
0
 10
57.406507149443428
 20
67.860803896278696
 30
0.0
  0
VERTEX
  5
A2E3
  8
0
 10
57.366746316859043
 20
67.827830699017511
 30
0.0
  0
VERTEX
  5
A2E4
  8
0
 10
57.31920814425407
 20
67.796736257210227
 30
0.0
  0
VERTEX
  5
A2E5
  8
0
 10
57.263973444073237
 20
67.767631566798684
 30
0.0
  0
VERTEX
  5
A2E6
  8
0
 10
57.201124060181712
 20
67.740629476363779
 30
0.0
  0
VERTEX
  5
A2E7
  8
0
 10
57.166869468729821
 20
67.727952619003929
 30
0.0
  0
VERTEX
  5
A2E8
  8
0
 10
57.130741829268658
 20
67.715844452117778
 30
0.0
  0
VERTEX
  5
A2E9
  8
0
 10
57.052907362612324
 20
67.693392395886633
 30
0.0
  0
VERTEX
  5
A2EA
  8
0
 10
56.967717016368418
 20
67.673394363545853
 30
0.0
  0
VERTEX
  5
A2EB
  8
0
 10
56.875687957993122
 20
67.656040665913906
 30
0.0
  0
VERTEX
  5
A2EC
  8
0
 10
56.777192269061644
 20
67.641437735045258
 30
0.0
  0
VERTEX
  5
A2ED
  8
0
 10
56.672449243459511
 20
67.629648899273832
 30
0.0
  0
VERTEX
  5
A2EE
  8
0
 10
56.617803357114383
 20
67.624828360779816
 30
0.0
  0
VERTEX
  5
A2EF
  8
0
 10
56.561677607235438
 20
67.620733027087397
 30
0.0
  0
VERTEX
  5
A2F0
  8
0
 10
56.44509529855091
 20
67.614743742661403
 30
0.0
  0
VERTEX
  5
A2F1
  8
0
 10
56.32291895070631
 20
67.611728906015173
 30
0.0
  0
VERTEX
  5
A2F2
  8
0
 10
56.259800193098322
 20
67.611350227879711
 30
0.0
  0
SEQEND
  5
A2F3
  8
0
  0
LINE
  5
58B3
  8
0
 10
91.982008247048554
 20
86.111350227879711
 30
0.0
 11
92.279347233547185
 21
86.111350227879711
 31
0.0
  0
POLYLINE
  5
58B4
  8
0
 66
     1
 10
0.0
 20
0.0
 30
0.0
  0
VERTEX
  5
A2F4
  8
0
 10
95.319242881203877
 20
85.448445913739135
 30
0.0
  0
VERTEX
  5
A2F5
  8
0
 10
95.241795910601866
 20
85.48331735437074
 30
0.0
  0
VERTEX
  5
A2F6
  8
0
 10
95.08796369687866
 20
85.54942285430559
 30
0.0
  0
VERTEX
  5
A2F7
  8
0
 10
94.933949844803976
 20
85.611496646267653
 30
0.0
  0
VERTEX
  5
A2F8
  8
0
 10
94.855300771774012
 20
85.641645221070405
 30
0.0
  0
VERTEX
  5
A2F9
  8
0
 10
94.775575340165247
 20
85.671155297770213
 30
0.0
  0
VERTEX
  5
A2FA
  8
0
 10
94.613129217521816
 20
85.728064080606885
 30
0.0
  0
VERTEX
  5
A2FB
  8
0
 10
94.447088149486376
 20
85.781856959197626
 30
0.0
  0
VERTEX
  5
A2FC
  8
0
 10
94.277940153105007
 20
85.832210685366988
 30
0.0
  0
VERTEX
  5
A2FD
  8
0
 10
94.10618454209316
 20
85.878845370574993
 30
0.0
  0
VERTEX
  5
A2FE
  8
0
 10
93.932336652043546
 20
85.921523841410817
 30
0.0
  0
VERTEX
  5
A2FF
  8
0
 10
93.844792823069895
 20
85.941317462073926
 30
0.0
  0
VERTEX
  5
A300
  8
0
 10
93.756924741130092
 20
85.960053284375405
 30
0.0
  0
VERTEX
  5
A301
  8
0
 10
93.580477281222329
 20
85.994288111378296
 30
0.0
  0
VERTEX
  5
A302
  8
0
 10
93.403510153363285
 20
86.024130890945912
 30
0.0
  0
VERTEX
  5
A303
  8
0
 10
93.226575213503452
 20
86.049523353554818
 30
0.0
  0
VERTEX
  5
A304
  8
0
 10
93.050235573187308
 20
86.070452483755275
 30
0.0
  0
VERTEX
  5
A305
  8
0
 10
92.875057727570891
 20
86.086951485750092
 30
0.0
  0
VERTEX
  5
A306
  8
0
 10
92.788081851326922
 20
86.093562579241166
 30
0.0
  0
VERTEX
  5
A307
  8
0
 10
92.701610142943196
 20
86.09909919413775
 30
0.0
  0
VERTEX
  5
A308
  8
0
 10
92.530468290158524
 20
86.107019027770363
 30
0.0
  0
VERTEX
  5
A309
  8
0
 10
92.362212068096156
 20
86.110878667348615
 30
0.0
  0
VERTEX
  5
A30A
  8
0
 10
92.279347233547185
 20
86.111350227879711
 30
0.0
  0
SEQEND
  5
A30B
  8
0
  0
CIRCLE
  5
59DA
  8
0
 10
108.28200824704849
 20
119.6514046202401
 30
0.0
 40
5.0
  0
CIRCLE
  5
59DB
  8
0
 10
108.28200824704849
 20
119.6514046202401
 30
0.0
 40
0.5127272724
  0
CIRCLE
  5
59DC
  8
0
 10
104.86382643104859
 20
119.6514046202401
 30
0.0
 40
0.5127272724
  0
CIRCLE
  5
59DD
  8
0
 10
106.5729173390485
 20
119.6514046202401
 30
0.0
 40
0.5127272724
  0
CIRCLE
  5
59DE
  8
0
 10
109.9910991550485
 20
119.6514046202401
 30
0.0
 40
0.5127272724
  0
CIRCLE
  5
59DF
  8
0
 10
111.7001900630485
 20
119.6514046202401
 30
0.0
 40
0.5127272724
  0
POLYLINE
  5
59FE
  8
0
 66
     1
 10
0.0
 20
0.0
 30
0.0
  0
VERTEX
  5
A30C
  8
0
 10
102.3198328424884
 20
122.9963010542408
 30
0.0
  0
VERTEX
  5
A30D
  8
0
 10
102.2153046041045
 20
122.90011462277261
 30
0.0
  0
VERTEX
  5
A30E
  8
0
 10
102.08720236187651
 20
122.7954766340667
 30
0.0
  0
VERTEX
  5
A30F
  8
0
 10
101.9528667730897
 20
122.6983966005883
 30
0.0
  0
VERTEX
  5
A310
  8
0
 10
101.8130628601517
 20
122.6094590076935
 30
0.0
  0
VERTEX
  5
A311
  8
0
 10
101.6685612962463
 20
122.52911155080081
 30
0.0
  0
VERTEX
  5
A312
  8
0
 10
101.5948392651631
 20
122.4922901518746
 30
0.0
  0
VERTEX
  5
A313
  8
0
 10
101.5203007715287
 20
122.4577589299176
 30
0.0
  0
VERTEX
  5
A314
  8
0
 10
101.36928294133629
 20
122.3956821580563
 30
0.0
  0
VERTEX
  5
A315
  8
0
 10
101.2165468390096
 20
122.34302705127649
 30
0.0
  0
VERTEX
  5
A316
  8
0
 10
101.06319304187301
 20
122.29981185435309
 30
0.0
  0
VERTEX
  5
A317
  8
0
 10
100.91036557433431
 20
122.2659149453218
 30
0.0
  0
VERTEX
  5
A318
  8
0
 10
100.7558631300127
 20
122.24060926885041
 30
0.0
  0
VERTEX
  5
A319
  8
0
 10
100.67724246405299
 20
122.23110979960821
 30
0.0
  0
VERTEX
  5
A31A
  8
0
 10
100.5978699319987
 20
122.2237974546638
 30
0.0
  0
VERTEX
  5
A31B
  8
0
 10
100.437359073785
 20
122.2159369879967
 30
0.0
  0
VERTEX
  5
A31C
  8
0
 10
100.2753018544017
 20
122.21734893198131
 30
0.0
  0
VERTEX
  5
A31D
  8
0
 10
100.193993179166
 20
122.22159678234441
 30
0.0
  0
SEQEND
  5
A31E
  8
0
  0
POLYLINE
  5
59FF
  8
0
 66
     1
 10
0.0
 20
0.0
 30
0.0
  0
VERTEX
  5
A31F
  8
0
 10
114.24418365160849
 20
116.3065081862391
 30
0.0
  0
VERTEX
  5
A320
  8
0
 10
114.3487118899926
 20
116.4026946177076
 30
0.0
  0
VERTEX
  5
A321
  8
0
 10
114.4768141322205
 20
116.5073326064135
 30
0.0
  0
VERTEX
  5
A322
  8
0
 10
114.61114972100729
 20
116.6044126398919
 30
0.0
  0
VERTEX
  5
A323
  8
0
 10
114.7509536339454
 20
116.6933502327866
 30
0.0
  0
VERTEX
  5
A324
  8
0
 10
114.89545519785069
 20
116.7736976896793
 30
0.0
  0
VERTEX
  5
A325
  8
0
 10
114.969177228934
 20
116.8105190886056
 30
0.0
  0
VERTEX
  5
A326
  8
0
 10
115.04371572256829
 20
116.8450503105625
 30
0.0
  0
VERTEX
  5
A327
  8
0
 10
115.19473355276079
 20
116.9071270824239
 30
0.0
  0
VERTEX
  5
A328
  8
0
 10
115.34746965508749
 20
116.95978218920369
 30
0.0
  0
VERTEX
  5
A329
  8
0
 10
115.5008234522241
 20
117.00299738612711
 30
0.0
  0
VERTEX
  5
A32A
  8
0
 10
115.6536509197628
 20
117.0368942951584
 30
0.0
  0
VERTEX
  5
A32B
  8
0
 10
115.8081533640844
 20
117.0621999716297
 30
0.0
  0
VERTEX
  5
A32C
  8
0
 10
115.88677403004409
 20
117.071699440872
 30
0.0
  0
VERTEX
  5
A32D
  8
0
 10
115.9661465620984
 20
117.07901178581641
 30
0.0
  0
VERTEX
  5
A32E
  8
0
 10
116.1266574203121
 20
117.0868722524834
 30
0.0
  0
VERTEX
  5
A32F
  8
0
 10
116.2887146396954
 20
117.0854603084988
 30
0.0
  0
VERTEX
  5
A330
  8
0
 10
116.3700233149311
 20
117.08121245813579
 30
0.0
  0
SEQEND
  5
A331
  8
0
  0
ARC
  5
5B81
  8
0
 10
60.051080359811372
 20
78.94743998887634
 30
0.0
 40
7.1639102390033456
 50
45.73780851685671
 51
62.36660903517091
  0
ARC
  5
5B82
  8
0
 10
60.051080359811372
 20
78.94743998887634
 30
0.0
 40
7.1639102390033456
 50
117.6333909648304
 51
134.2621914831432
  0
ARC
  5
5C4A
  8
0
 10
108.28200824704869
 20
78.944329146628888
 30
0.0
 40
7.1670210812507644
 50
45.762040348296139
 51
134.23795965170379
  0
ARC
  5
96E1
  8
0
 10
108.28200824704849
 20
119.6514046202401
 30
0.0
 40
6.8363636320000012
 50
29.289014949815328
 51
150.70672676414429
  0
ARC
  5
96E2
  8
0
 10
108.28200824704849
 20
119.6514046202401
 30
0.0
 40
6.8363636320000012
 50
209.28901494981531
 51
330.70672676414438
  0
LINE
  5
A018
  8
3
 10
110.4228563799571
 20
60.111350227879718
 30
0.0
 11
110.4228563799572
 21
32.355306350228659
 31
0.0
  0
LINE
  5
A019
  8
0
 10
111.28200824704849
 20
62.111350227879718
 30
0.0
 11
111.28200824704849
 21
33.843401035448608
 31
0.0
  0
LINE
  5
A01A
  8
0
 10
110.28200824704849
 20
32.111350227879711
 30
0.0
 11
111.28200824704849
 21
33.843401035448608
 31
0.0
  0
LINE
  5
A01B
  8
0
 10
110.28200824704849
 20
32.111350227879711
 30
0.0
 11
108.28200824704849
 21
32.111350227879711
 31
0.0
  0
LINE
  5
A01C
  8
0
 10
111.28200824704849
 20
33.843401035448608
 30
0.0
 11
108.28200824704849
 21
33.843401035448608
 31
0.0
  0
LINE
  5
A01D
  8
3
 10
110.4228563799571
 20
60.111350227879718
 30
0.0
 11
111.28200824704849
 21
60.97050209497116
 31
0.0
  0
LINE
  5
A01E
  8
0
 10
111.28200824704849
 20
60.111350227879718
 30
0.0
 11
108.28200824704849
 21
60.111350227879718
 31
0.0
  0
LINE
  5
A01F
  8
3
 10
106.14116011413989
 20
60.111350227879718
 30
0.0
 11
106.14116011413989
 21
32.35530635022878
 31
0.0
  0
LINE
  5
A020
  8
0
 10
105.28200824704849
 20
62.111350227879718
 30
0.0
 11
105.28200824704849
 21
33.843401035448608
 31
0.0
  0
LINE
  5
A021
  8
0
 10
106.28200824704849
 20
32.111350227879711
 30
0.0
 11
105.28200824704849
 21
33.843401035448608
 31
0.0
  0
LINE
  5
A022
  8
0
 10
106.28200824704849
 20
32.111350227879711
 30
0.0
 11
108.28200824704849
 21
32.111350227879711
 31
0.0
  0
LINE
  5
A023
  8
0
 10
105.28200824704849
 20
33.843401035448608
 30
0.0
 11
108.28200824704849
 21
33.843401035448608
 31
0.0
  0
LINE
  5
A024
  8
0
 10
105.28200824704849
 20
60.111350227879718
 30
0.0
 11
108.28200824704849
 21
60.111350227879718
 31
0.0
  0
LINE
  5
A025
  8
3
 10
106.14116011413989
 20
60.111350227879718
 30
0.0
 11
105.28200824704849
 21
60.97050209497116
 31
0.0
  0
LINE
  5
A026
  8
3
 10
62.191928492719853
 20
60.111350227879718
 30
0.0
 11
62.19192849271991
 21
32.355306350228659
 31
0.0
  0
LINE
  5
A027
  8
0
 10
63.051080359811287
 20
62.111350227879718
 30
0.0
 11
63.051080359811287
 21
33.843401035448608
 31
0.0
  0
LINE
  5
A028
  8
0
 10
62.051080359811301
 20
32.111350227879711
 30
0.0
 11
63.051080359811287
 21
33.843401035448608
 31
0.0
  0
LINE
  5
A029
  8
0
 10
62.051080359811301
 20
32.111350227879711
 30
0.0
 11
60.051080359811287
 21
32.111350227879711
 31
0.0
  0
LINE
  5
A02A
  8
0
 10
63.051080359811287
 20
33.843401035448608
 30
0.0
 11
60.051080359811287
 21
33.843401035448608
 31
0.0
  0
LINE
  5
A02B
  8
3
 10
62.191928492719853
 20
60.111350227879718
 30
0.0
 11
63.051080359811287
 21
60.97050209497116
 31
0.0
  0
LINE
  5
A02C
  8
0
 10
63.051080359811287
 20
60.111350227879718
 30
0.0
 11
60.051080359811287
 21
60.111350227879718
 31
0.0
  0
LINE
  5
A02D
  8
3
 10
57.910232226902679
 20
60.111350227879718
 30
0.0
 11
57.910232226902622
 21
32.35530635022878
 31
0.0
  0
LINE
  5
A02E
  8
0
 10
57.051080359811301
 20
62.111350227879718
 30
0.0
 11
57.051080359811301
 21
33.843401035448608
 31
0.0
  0
LINE
  5
A02F
  8
0
 10
58.051080359811287
 20
32.111350227879711
 30
0.0
 11
57.051080359811301
 21
33.843401035448608
 31
0.0
  0
LINE
  5
A030
  8
0
 10
58.051080359811287
 20
32.111350227879711
 30
0.0
 11
60.051080359811287
 21
32.111350227879711
 31
0.0
  0
LINE
  5
A031
  8
0
 10
57.051080359811301
 20
33.843401035448608
 30
0.0
 11
60.051080359811287
 21
33.843401035448608
 31
0.0
  0
LINE
  5
A032
  8
0
 10
57.051080359811301
 20
60.111350227879718
 30
0.0
 11
60.051080359811287
 21
60.111350227879718
 31
0.0
  0
LINE
  5
A033
  8
3
 10
57.910232226902679
 20
60.111350227879718
 30
0.0
 11
57.051080359811301
 21
60.97050209497116
 31
0.0
  0
TEXT
  5
A107
  8
0
 62
     3
 10
0.0
 20
0.0
 30
0.0
 40
10.0
  1
EWN48AX30-YE
  7
STANDARD1
  0
ENDSEC
  0
EOF
