  0
SECTION
  2
HEADER
  9
$ACADVER
  1
AC1009
  9
$INSBASE
 10
0.0
 20
0.0
 30
0.0
  9
$EXTMIN
 10
0.0
 20
-2.9604365620736979
 30
0.0
  9
$EXTMAX
 10
252.8333333333336
 20
179.47744460202739
 30
0.0
  9
$LIMMIN
 10
0.0
 20
0.0
  9
$LIMMAX
 10
385.0
 20
270.0
  9
$ORTHOMODE
 70
     1
  9
$REGENMODE
 70
     1
  9
$FILLMODE
 70
     1
  9
$QTEXTMODE
 70
     0
  9
$MIRRTEXT
 70
     0
  9
$DRAGMODE
 70
     2
  9
$LTSCALE
 40
5.0
  9
$OSMODE
 70
    37
  9
$ATTMODE
 70
     1
  9
$TEXTSIZE
 40
4.0
  9
$TRACEWID
 40
0.05
  9
$TEXTSTYLE
  7
STANDARD
  9
$CLAYER
  8
0
  9
$CELTYPE
  6
BYLAYER
  9
$CECOLOR
 62
   256
  9
$DIMSCALE
 40
1.0
  9
$DIMASZ
 40
3.0
  9
$DIMEXO
 40
1.0
  9
$DIMDLI
 40
6.0
  9
$DIMRND
 40
0.0
  9
$DIMDLE
 40
0.0
  9
$DIMEXE
 40
1.0
  9
$DIMTP
 40
495.0
  9
$DIMTM
 40
0.0
  9
$DIMTXT
 40
3.0
  9
$DIMCEN
 40
0.0
  9
$DIMTSZ
 40
0.0
  9
$DIMTOL
 70
     0
  9
$DIMLIM
 70
     0
  9
$DIMTIH
 70
     0
  9
$DIMTOH
 70
     0
  9
$DIMSE1
 70
     0
  9
$DIMSE2
 70
     0
  9
$DIMTAD
 70
     1
  9
$DIMZIN
 70
     8
  9
$DIMBLK
  1

  9
$DIMASO
 70
     1
  9
$DIMSHO
 70
     0
  9
$DIMPOST
  1

  9
$DIMAPOST
  1

  9
$DIMALT
 70
     0
  9
$DIMALTD
 70
     2
  9
$DIMALTF
 40
25.399999999999999
  9
$DIMLFAC
 40
1.0
  9
$DIMTOFL
 70
     1
  9
$DIMTVP
 40
0.0
  9
$DIMTIX
 70
     0
  9
$DIMSOXD
 70
     0
  9
$DIMSAH
 70
     0
  9
$DIMBLK1
  1

  9
$DIMBLK2
  1

  9
$DIMSTYLE
  2
STANDARD
  9
$DIMCLRD
 70
     0
  9
$DIMCLRE
 70
     0
  9
$DIMCLRT
 70
     0
  9
$DIMTFAC
 40
1.0
  9
$DIMGAP
 40
1.0
  9
$LUNITS
 70
     2
  9
$LUPREC
 70
     1
  9
$SKETCHINC
 40
0.1
  9
$FILLETRAD
 40
2.0
  9
$AUNITS
 70
     0
  9
$AUPREC
 70
     1
  9
$MENU
  1
E:\r13\win\SUPPORT\ACAD
  9
$ELEVATION
 40
0.0
  9
$PELEVATION
 40
0.0
  9
$THICKNESS
 40
0.0
  9
$LIMCHECK
 70
     0
  9
$BLIPMODE
 70
     0
  9
$CHAMFERA
 40
0.0
  9
$CHAMFERB
 40
0.0
  9
$SKPOLY
 70
     0
  9
$TDCREATE
 40
2450541.3939600689
  9
$TDUPDATE
 40
2459429.5742063308
  9
$TDINDWG
 40
1.9391244444
  9
$TDUSRTIMER
 40
1.9391244444
  9
$USRTIMER
 70
     1
  9
$ANGBASE
 50
0.0
  9
$ANGDIR
 70
     0
  9
$PDMODE
 70
     0
  9
$PDSIZE
 40
0.0
  9
$PLINEWID
 40
0.0
  9
$COORDS
 70
     1
  9
$SPLFRAME
 70
     0
  9
$SPLINETYPE
 70
     6
  9
$SPLINESEGS
 70
     8
  9
$ATTDIA
 70
     0
  9
$ATTREQ
 70
     1
  9
$HANDLING
 70
     1
  9
$HANDSEED
  5
1E831
  9
$SURFTAB1
 70
     6
  9
$SURFTAB2
 70
     6
  9
$SURFTYPE
 70
     6
  9
$SURFU
 70
     6
  9
$SURFV
 70
     6
  9
$UCSNAME
  2

  9
$UCSORG
 10
0.0
 20
0.0
 30
0.0
  9
$UCSXDIR
 10
1.0
 20
0.0
 30
0.0
  9
$UCSYDIR
 10
0.0
 20
1.0
 30
0.0
  9
$PUCSNAME
  2

  9
$PUCSORG
 10
0.0
 20
0.0
 30
0.0
  9
$PUCSXDIR
 10
1.0
 20
0.0
 30
0.0
  9
$PUCSYDIR
 10
0.0
 20
1.0
 30
0.0
  9
$USERI1
 70
     3
  9
$USERI2
 70
     1
  9
$USERI3
 70
     1
  9
$USERI4
 70
     0
  9
$USERI5
 70
     0
  9
$USERR1
 40
1.0
  9
$USERR2
 40
3.0
  9
$USERR3
 40
3.0
  9
$USERR4
 40
3.0
  9
$USERR5
 40
10.0
  9
$WORLDVIEW
 70
     1
  9
$SHADEDGE
 70
     3
  9
$SHADEDIF
 70
    70
  9
$TILEMODE
 70
     1
  9
$MAXACTVP
 70
    16
  9
$PLIMCHECK
 70
     0
  9
$PEXTMIN
 10
1.0000000000000000E+020
 20
1.0000000000000000E+020
 30
1.0000000000000000E+020
  9
$PEXTMAX
 10
-1.0000000000000000E+020
 20
-1.0000000000000000E+020
 30
-1.0000000000000000E+020
  9
$PLIMMIN
 10
0.0
 20
0.0
  9
$PLIMMAX
 10
12.0
 20
9.0
  9
$UNITMODE
 70
     0
  9
$VISRETAIN
 70
     0
  9
$PLINEGEN
 70
     0
  9
$PSLTSCALE
 70
     0
  0
ENDSEC
  0
SECTION
  2
TABLES
  0
TABLE
  2
VPORT
 70
     1
  0
VPORT
  2
*ACTIVE
 70
     0
 10
0.0
 20
0.0
 11
1.0
 21
1.0
 12
216.25733923713051
 22
88.265296951602707
 13
0.0
 23
0.0
 14
5.0
 24
5.0
 15
10.0
 25
10.0
 16
0.0
 26
0.0
 36
1.0
 17
0.0
 27
0.0
 37
0.0
 40
184.04587675887061
 41
2.3805970149253728
 42
50.0
 43
0.0
 44
0.0
 50
0.0
 51
0.0
 71
     0
 72
   100
 73
     1
 74
     0
 75
     0
 76
     0
 77
     0
 78
     0
  0
ENDTAB
  0
TABLE
  2
LTYPE
 70
     4
  0
LTYPE
  2
CONTINUOUS
 70
     0
  3
Solid Line
 72
    65
 73
     0
 40
0.0
  0
LTYPE
  2
CENTER
 70
     0
  3
____ _ ____ _ ____ _ ____ _ ____ _ ____ _ ____
 72
    65
 73
     4
 40
2.0
 49
1.25
 49
-0.25
 49
0.25
 49
-0.25
  0
LTYPE
  2
HIDDEN
 70
     0
  3
_ _ _ _ _ _ _ _ _ _ _ _ _ _ _ _ _ _ _ _ _ _ _
 72
    65
 73
     2
 40
0.375
 49
0.25
 49
-0.125
  0
LTYPE
  2
PHANTOM2
 70
     0
  3
___ _ _ ___ _ _ ___ _ _ ___ _ _
 72
    65
 73
     6
 40
1.25
 49
0.625
 49
-0.125
 49
0.125
 49
-0.125
 49
0.125
 49
-0.125
  0
ENDTAB
  0
TABLE
  2
LAYER
 70
     6
  0
LAYER
  2
0
 70
     0
 62
     7
  6
CONTINUOUS
  0
LAYER
  2
1
 70
     0
 62
     1
  6
CENTER
  0
LAYER
  2
2
 70
     0
 62
     2
  6
HIDDEN
  0
LAYER
  2
DEFPOINTS
 70
     0
 62
     7
  6
CONTINUOUS
  0
LAYER
  2
4
 70
     0
 62
     4
  6
CONTINUOUS
  0
LAYER
  2
3
 70
     0
 62
     3
  6
CONTINUOUS
  0
ENDTAB
  0
TABLE
  2
STYLE
 70
     2
  0
STYLE
  2
STANDARD
 70
     0
 40
0.0
 41
1.0
 50
0.0
 71
     0
 42
4.0
  3
SIMPLEX
  4
BIGFONT
  0
STYLE
  2
STANDARD1
 70
     0
 40
0.0
 41
1.0
 50
0.0
 71
     0
 42
3.0
  3
txt
  4

  0
ENDTAB
  0
TABLE
  2
VIEW
 70
     0
  0
ENDTAB
  0
TABLE
  2
UCS
 70
     0
  0
ENDTAB
  0
TABLE
  2
APPID
 70
    43
  0
APPID
  2
ACAD
 70
     0
  0
APPID
  2
ASM_BASE
 70
     0
  0
APPID
  2
ASM_EXPLO_VER_2_00
 70
     0
  0
APPID
  2
ASM_CADM_VER_12_00
 70
     0
  0
APPID
  2
ASM_BASEFORO
 70
     0
  0
APPID
  2
ASM_BASETRAVI
 70
     0
  0
APPID
  2
ASM_BASETRAVI1
 70
     0
  0
APPID
  2
ASM_GRUPPI
 70
     0
  0
APPID
  2
ASM_CADM_ALBERO
 70
     0
  0
APPID
  2
ASM_GOLE
 70
     0
  0
APPID
  2
ACAD_EXEMPT_FROM_CAD_STANDARDS
 70
     0
  0
APPID
  2
ACAD_DSTYLE_DIMJAG
 70
     0
  0
APPID
  2
ACAD_DSTYLE_DIMTALN
 70
     0
  0
APPID
  2
ACAD_MLEADERVER
 70
     0
  0
APPID
  2
ACAD_NAV_VCDISPLAY
 70
     0
  0
APPID
  2
ACAD_DSTYLE_DIMRADIAL_EXTENSION
 70
     0
  0
APPID
  2
DCO15
 70
     0
  0
APPID
  2
ACADANNOTATIVE
 70
     0
  0
APPID
  2
GENIUS_GENODEF_13
 70
     0
  0
APPID
  2
GENIUS_GENFIL_13
 70
     0
  0
APPID
  2
GENIUS_GENOBJ-N-CHA_13
 70
     0
  0
APPID
  2
GENIUS_GENOREF_13
 70
     0
  0
APPID
  2
GENIUS_GENOENT_13
 70
     0
  0
APPID
  2
GENIUS_GENBH_13
 70
     0
  0
APPID
  2
GENIUS_GENOBJ_13
 70
     0
  0
APPID
  2
GENIUS_GENOLIS_13
 70
     0
  0
APPID
  2
GENIUS_GENOBJ-NBEHI-BHF_13
 70
     0
  0
APPID
  2
GENIUS_GENOBJ-NBEHI-BHB_13
 70
     0
  0
APPID
  2
GENIUS_GENOBJ-F-PART_13
 70
     0
  0
APPID
  2
GENIUS_GEFSTDP_13
 70
     0
  0
APPID
  2
GENIUS_GENOBJ-N-RSSYM_13
 70
     0
  0
APPID
  2
GENIUS_GENSYMENT_13
 70
     0
  0
APPID
  2
GENIUS_GENOBJ-N-TIT_13
 70
     0
  0
APPID
  2
GENIUS_GENTITLE_13
 70
     0
  0
APPID
  2
GENIUS_GENZVEED_13
 70
     0
  0
APPID
  2
GENIUS_GENOBJ-N-LEADER_13
 70
     0
  0
APPID
  2
GENIUS_GENOBJ-N-FIL_13
 70
     0
  0
APPID
  2
GENIUS_GENOBJ-N-SEC_13
 70
     0
  0
APPID
  2
GENIUS_GENOBJ-N-CRS_13
 70
     0
  0
APPID
  2
GENIUS_GENOBJ-N-ZOO_13
 70
     0
  0
APPID
  2
GENIUS_GENZOO_13
 70
     0
  0
APPID
  2
GENIUS_GENOBJ-F-TOL_13
 70
     0
  0
APPID
  2
_CALL_MAC$
 70
     0
  0
ENDTAB
  0
TABLE
  2
DIMSTYLE
 70
     1
  0
DIMSTYLE
  2
STANDARD
 70
     0
  3

  4

  5

  6

  7

 40
1.0
 41
0.18
 42
0.0625
 43
0.38
 44
0.18
 45
0.0
 46
0.0
 47
0.0
 48
0.0
140
0.18
141
0.09
142
0.0
143
25.399999999999999
144
1.0
145
0.0
146
1.0
147
0.09
 71
     0
 72
     0
 73
     1
 74
     1
 75
     0
 76
     0
 77
     0
 78
     0
170
     0
171
     2
172
     0
173
     0
174
     0
175
     0
176
     0
177
     0
178
     0
  0
ENDTAB
  0
ENDSEC
  0
SECTION
  2
BLOCKS
  0
BLOCK
  8
0
  2
$MODEL_SPACE
 70
     0
 10
0.0
 20
0.0
 30
0.0
  3
$MODEL_SPACE
  1

  0
ENDBLK
  5
1CD3
  8
0
  0
BLOCK
 67
     1
  8
0
  2
$PAPER_SPACE
 70
     0
 10
0.0
 20
0.0
 30
0.0
  3
$PAPER_SPACE
  1

  0
ENDBLK
  5
1CD1
 67
     1
  8
0
  0
ENDSEC
  0
SECTION
  2
ENTITIES
  0
TEXT
  5
12011
  8
0
 62
     3
 10
0.0
 20
-0.0000000000000284
 30
0.0
 40
10.0
  1
EWN48AX30SUS-LP
  7
STANDARD1
  0
LINE
  5
1D3EC
  8
1
 10
166.3333333333313
 20
75.333333333333314
 30
0.0
 11
166.3333333333313
 21
94.333333333333314
 31
0.0
  0
ARC
  5
1D3EE
  8
0
 10
166.33333333333371
 20
84.833333333333314
 30
0.0
 40
7.9999999999999387
 50
355.33958061588447
 51
4.660419384115448
  0
ARC
  5
1D3EF
  8
0
 10
166.3333333333336
 20
84.833333333333314
 30
0.0
 40
8.0
 50
183.28436910836561
 51
329.99999999999989
  0
ARC
  5
1D3F0
  8
0
 10
166.3333333333336
 20
84.833333333333314
 30
0.0
 40
7.9999999999999991
 50
30.000000000000121
 51
176.71563089163419
  0
ARC
  5
1D3F1
  8
0
 10
166.3333333333336
 20
84.833333333333314
 30
0.0
 40
7.0
 50
183.75419509310899
 51
325.15009542095282
  0
ARC
  5
1D3F2
  8
0
 10
166.33333333333431
 20
84.833333333333314
 30
0.0
 40
6.9999999999992681
 50
354.67200209599798
 51
5.3279979040019549
  0
ARC
  5
1D3F3
  8
0
 10
166.3333333333336
 20
84.833333333333314
 30
0.0
 40
6.9999999999999973
 50
34.849904579047092
 51
176.24580490689081
  0
LINE
  5
1D42C
  8
1
 10
140.25000000000031
 20
50.0
 30
0.0
 11
140.25000000000031
 21
109.9774446020274
 31
0.0
  0
ARC
  5
1D438
  8
0
 10
160.36706341702879
 20
84.833333333333314
 30
0.0
 40
0.4583333333333333
 50
270.0
 51
90.0
  0
POLYLINE
  5
1D439
  8
0
 10
124.2366439675891
 20
95.116251501201219
 30
0.0
 66
     1
 70
     8
  0
VERTEX
  8
0
  5
1E629
 10
124.237
 20
95.1163
 30
0.000000
  70
    32
  0
VERTEX
  8
0
  5
1E62A
 10
124.466
 20
95.1219
 30
0.000000
  70
    32
  0
VERTEX
  8
0
  5
1E62B
 10
124.695
 20
95.1388
 30
0.000000
  70
    32
  0
VERTEX
  8
0
  5
1E62C
 10
124.922
 20
95.1669
 30
0.000000
  70
    32
  0
VERTEX
  8
0
  5
1E62D
 10
125.148
 20
95.2062
 30
0.000000
  70
    32
  0
VERTEX
  8
0
  5
1E62E
 10
125.372
 20
95.2566
 30
0.000000
  70
    32
  0
VERTEX
  8
0
  5
1E62F
 10
125.593
 20
95.3179
 30
0.000000
  70
    32
  0
VERTEX
  8
0
  5
1E630
 10
125.811
 20
95.3900
 30
0.000000
  70
    32
  0
VERTEX
  8
0
  5
1E631
 10
126.025
 20
95.4728
 30
0.000000
  70
    32
  0
VERTEX
  8
0
  5
1E632
 10
126.235
 20
95.5659
 30
0.000000
  70
    32
  0
VERTEX
  8
0
  5
1E633
 10
126.440
 20
95.6693
 30
0.000000
  70
    32
  0
VERTEX
  8
0
  5
1E634
 10
126.639
 20
95.7826
 30
0.000000
  70
    32
  0
VERTEX
  8
0
  5
1E635
 10
126.833
 20
95.9056
 30
0.000000
  70
    32
  0
VERTEX
  8
0
  5
1E636
 10
127.021
 20
96.0380
 30
0.000000
  70
    32
  0
VERTEX
  8
0
  5
1E637
 10
127.201
 20
96.1794
 30
0.000000
  70
    32
  0
VERTEX
  8
0
  5
1E638
 10
127.375
 20
96.3296
 30
0.000000
  70
    32
  0
VERTEX
  8
0
  5
1E639
 10
127.541
 20
96.4881
 30
0.000000
  70
    32
  0
VERTEX
  8
0
  5
1E63A
 10
127.699
 20
96.6546
 30
0.000000
  70
    32
  0
VERTEX
  8
0
  5
1E63B
 10
127.849
 20
96.8287
 30
0.000000
  70
    32
  0
VERTEX
  8
0
  5
1E63C
 10
127.990
 20
97.0099
 30
0.000000
  70
    32
  0
VERTEX
  8
0
  5
1E63D
 10
128.122
 20
97.1978
 30
0.000000
  70
    32
  0
VERTEX
  8
0
  5
1E63E
 10
128.245
 20
97.3921
 30
0.000000
  70
    32
  0
VERTEX
  8
0
  5
1E63F
 10
128.358
 20
97.5921
 30
0.000000
  70
    32
  0
VERTEX
  8
0
  5
1E640
 10
128.461
 20
97.7974
 30
0.000000
  70
    32
  0
VERTEX
  8
0
  5
1E641
 10
128.554
 20
98.0076
 30
0.000000
  70
    32
  0
VERTEX
  8
0
  5
1E642
 10
128.637
 20
98.2221
 30
0.000000
  70
    32
  0
VERTEX
  8
0
  5
1E643
 10
128.709
 20
98.4404
 30
0.000000
  70
    32
  0
VERTEX
  8
0
  5
1E644
 10
128.770
 20
98.6619
 30
0.000000
  70
    32
  0
VERTEX
  8
0
  5
1E645
 10
128.820
 20
98.8862
 30
0.000000
  70
    32
  0
VERTEX
  8
0
  5
1E646
 10
128.859
 20
99.1128
 30
0.000000
  70
    32
  0
VERTEX
  8
0
  5
1E647
 10
128.887
 20
99.3409
 30
0.000000
  70
    32
  0
VERTEX
  8
0
  5
1E648
 10
128.904
 20
99.5702
 30
0.000000
  70
    32
  0
VERTEX
  8
0
  5
1E649
 10
128.910
 20
99.8000
 30
0.000000
  70
    32
  0
VERTEX
  8
0
  5
1E64A
 10
128.904
 20
100.030
 30
0.000000
  70
    32
  0
VERTEX
  8
0
  5
1E64B
 10
128.887
 20
100.259
 30
0.000000
  70
    32
  0
VERTEX
  8
0
  5
1E64C
 10
128.859
 20
100.487
 30
0.000000
  70
    32
  0
VERTEX
  8
0
  5
1E64D
 10
128.820
 20
100.714
 30
0.000000
  70
    32
  0
VERTEX
  8
0
  5
1E64E
 10
128.770
 20
100.938
 30
0.000000
  70
    32
  0
VERTEX
  8
0
  5
1E64F
 10
128.709
 20
101.160
 30
0.000000
  70
    32
  0
VERTEX
  8
0
  5
1E650
 10
128.637
 20
101.378
 30
0.000000
  70
    32
  0
VERTEX
  8
0
  5
1E651
 10
128.554
 20
101.592
 30
0.000000
  70
    32
  0
VERTEX
  8
0
  5
1E652
 10
128.461
 20
101.803
 30
0.000000
  70
    32
  0
VERTEX
  8
0
  5
1E653
 10
128.358
 20
102.008
 30
0.000000
  70
    32
  0
VERTEX
  8
0
  5
1E654
 10
128.245
 20
102.208
 30
0.000000
  70
    32
  0
VERTEX
  8
0
  5
1E655
 10
128.122
 20
102.402
 30
0.000000
  70
    32
  0
VERTEX
  8
0
  5
1E656
 10
127.990
 20
102.590
 30
0.000000
  70
    32
  0
VERTEX
  8
0
  5
1E657
 10
127.849
 20
102.771
 30
0.000000
  70
    32
  0
VERTEX
  8
0
  5
1E658
 10
127.699
 20
102.945
 30
0.000000
  70
    32
  0
VERTEX
  8
0
  5
1E659
 10
127.541
 20
103.112
 30
0.000000
  70
    32
  0
VERTEX
  8
0
  5
1E65A
 10
127.375
 20
103.270
 30
0.000000
  70
    32
  0
VERTEX
  8
0
  5
1E65B
 10
127.201
 20
103.421
 30
0.000000
  70
    32
  0
VERTEX
  8
0
  5
1E65C
 10
127.021
 20
103.562
 30
0.000000
  70
    32
  0
VERTEX
  8
0
  5
1E65D
 10
126.833
 20
103.694
 30
0.000000
  70
    32
  0
VERTEX
  8
0
  5
1E65E
 10
126.639
 20
103.817
 30
0.000000
  70
    32
  0
VERTEX
  8
0
  5
1E65F
 10
126.440
 20
103.931
 30
0.000000
  70
    32
  0
VERTEX
  8
0
  5
1E660
 10
126.235
 20
104.034
 30
0.000000
  70
    32
  0
VERTEX
  8
0
  5
1E661
 10
126.025
 20
104.127
 30
0.000000
  70
    32
  0
VERTEX
  8
0
  5
1E662
 10
125.811
 20
104.210
 30
0.000000
  70
    32
  0
VERTEX
  8
0
  5
1E663
 10
125.593
 20
104.282
 30
0.000000
  70
    32
  0
VERTEX
  8
0
  5
1E664
 10
125.372
 20
104.343
 30
0.000000
  70
    32
  0
VERTEX
  8
0
  5
1E665
 10
125.148
 20
104.394
 30
0.000000
  70
    32
  0
VERTEX
  8
0
  5
1E666
 10
124.922
 20
104.433
 30
0.000000
  70
    32
  0
VERTEX
  8
0
  5
1E667
 10
124.695
 20
104.461
 30
0.000000
  70
    32
  0
VERTEX
  8
0
  5
1E668
 10
124.466
 20
104.478
 30
0.000000
  70
    32
  0
VERTEX
  8
0
  5
1E669
 10
124.237
 20
104.484
 30
0.000000
  70
    32
  0
VERTEX
  8
0
  5
1E66A
 10
124.007
 20
104.478
 30
0.000000
  70
    32
  0
VERTEX
  8
0
  5
1E66B
 10
123.779
 20
104.461
 30
0.000000
  70
    32
  0
VERTEX
  8
0
  5
1E66C
 10
123.551
 20
104.433
 30
0.000000
  70
    32
  0
VERTEX
  8
0
  5
1E66D
 10
123.325
 20
104.394
 30
0.000000
  70
    32
  0
VERTEX
  8
0
  5
1E66E
 10
123.101
 20
104.343
 30
0.000000
  70
    32
  0
VERTEX
  8
0
  5
1E66F
 10
122.880
 20
104.282
 30
0.000000
  70
    32
  0
VERTEX
  8
0
  5
1E670
 10
122.662
 20
104.210
 30
0.000000
  70
    32
  0
VERTEX
  8
0
  5
1E671
 10
122.448
 20
104.127
 30
0.000000
  70
    32
  0
VERTEX
  8
0
  5
1E672
 10
122.239
 20
104.034
 30
0.000000
  70
    32
  0
VERTEX
  8
0
  5
1E673
 10
122.034
 20
103.931
 30
0.000000
  70
    32
  0
VERTEX
  8
0
  5
1E674
 10
121.834
 20
103.817
 30
0.000000
  70
    32
  0
VERTEX
  8
0
  5
1E675
 10
121.640
 20
103.694
 30
0.000000
  70
    32
  0
VERTEX
  8
0
  5
1E676
 10
121.453
 20
103.562
 30
0.000000
  70
    32
  0
VERTEX
  8
0
  5
1E677
 10
121.272
 20
103.421
 30
0.000000
  70
    32
  0
VERTEX
  8
0
  5
1E678
 10
121.098
 20
103.270
 30
0.000000
  70
    32
  0
VERTEX
  8
0
  5
1E679
 10
120.932
 20
103.112
 30
0.000000
  70
    32
  0
VERTEX
  8
0
  5
1E67A
 10
120.774
 20
102.945
 30
0.000000
  70
    32
  0
VERTEX
  8
0
  5
1E67B
 10
120.624
 20
102.771
 30
0.000000
  70
    32
  0
VERTEX
  8
0
  5
1E67C
 10
120.483
 20
102.590
 30
0.000000
  70
    32
  0
VERTEX
  8
0
  5
1E67D
 10
120.351
 20
102.402
 30
0.000000
  70
    32
  0
VERTEX
  8
0
  5
1E67E
 10
120.228
 20
102.208
 30
0.000000
  70
    32
  0
VERTEX
  8
0
  5
1E67F
 10
120.115
 20
102.008
 30
0.000000
  70
    32
  0
VERTEX
  8
0
  5
1E680
 10
120.012
 20
101.803
 30
0.000000
  70
    32
  0
VERTEX
  8
0
  5
1E681
 10
119.919
 20
101.592
 30
0.000000
  70
    32
  0
VERTEX
  8
0
  5
1E682
 10
119.837
 20
101.378
 30
0.000000
  70
    32
  0
VERTEX
  8
0
  5
1E683
 10
119.765
 20
101.160
 30
0.000000
  70
    32
  0
VERTEX
  8
0
  5
1E684
 10
119.703
 20
100.938
 30
0.000000
  70
    32
  0
VERTEX
  8
0
  5
1E685
 10
119.653
 20
100.714
 30
0.000000
  70
    32
  0
VERTEX
  8
0
  5
1E686
 10
119.614
 20
100.487
 30
0.000000
  70
    32
  0
VERTEX
  8
0
  5
1E687
 10
119.586
 20
100.259
 30
0.000000
  70
    32
  0
VERTEX
  8
0
  5
1E688
 10
119.569
 20
100.030
 30
0.000000
  70
    32
  0
VERTEX
  8
0
  5
1E689
 10
119.563
 20
99.8000
 30
0.000000
  70
    32
  0
VERTEX
  8
0
  5
1E68A
 10
119.569
 20
99.5702
 30
0.000000
  70
    32
  0
VERTEX
  8
0
  5
1E68B
 10
119.586
 20
99.3409
 30
0.000000
  70
    32
  0
VERTEX
  8
0
  5
1E68C
 10
119.614
 20
99.1128
 30
0.000000
  70
    32
  0
VERTEX
  8
0
  5
1E68D
 10
119.653
 20
98.8862
 30
0.000000
  70
    32
  0
VERTEX
  8
0
  5
1E68E
 10
119.703
 20
98.6619
 30
0.000000
  70
    32
  0
VERTEX
  8
0
  5
1E68F
 10
119.765
 20
98.4404
 30
0.000000
  70
    32
  0
VERTEX
  8
0
  5
1E690
 10
119.837
 20
98.2221
 30
0.000000
  70
    32
  0
VERTEX
  8
0
  5
1E691
 10
119.919
 20
98.0076
 30
0.000000
  70
    32
  0
VERTEX
  8
0
  5
1E692
 10
120.012
 20
97.7974
 30
0.000000
  70
    32
  0
VERTEX
  8
0
  5
1E693
 10
120.115
 20
97.5921
 30
0.000000
  70
    32
  0
VERTEX
  8
0
  5
1E694
 10
120.228
 20
97.3921
 30
0.000000
  70
    32
  0
VERTEX
  8
0
  5
1E695
 10
120.351
 20
97.1978
 30
0.000000
  70
    32
  0
VERTEX
  8
0
  5
1E696
 10
120.483
 20
97.0099
 30
0.000000
  70
    32
  0
VERTEX
  8
0
  5
1E697
 10
120.624
 20
96.8287
 30
0.000000
  70
    32
  0
VERTEX
  8
0
  5
1E698
 10
120.774
 20
96.6546
 30
0.000000
  70
    32
  0
VERTEX
  8
0
  5
1E699
 10
120.932
 20
96.4881
 30
0.000000
  70
    32
  0
VERTEX
  8
0
  5
1E69A
 10
121.098
 20
96.3296
 30
0.000000
  70
    32
  0
VERTEX
  8
0
  5
1E69B
 10
121.272
 20
96.1794
 30
0.000000
  70
    32
  0
VERTEX
  8
0
  5
1E69C
 10
121.453
 20
96.0380
 30
0.000000
  70
    32
  0
VERTEX
  8
0
  5
1E69D
 10
121.640
 20
95.9056
 30
0.000000
  70
    32
  0
VERTEX
  8
0
  5
1E69E
 10
121.834
 20
95.7826
 30
0.000000
  70
    32
  0
VERTEX
  8
0
  5
1E69F
 10
122.034
 20
95.6693
 30
0.000000
  70
    32
  0
VERTEX
  8
0
  5
1E6A0
 10
122.239
 20
95.5659
 30
0.000000
  70
    32
  0
VERTEX
  8
0
  5
1E6A1
 10
122.448
 20
95.4728
 30
0.000000
  70
    32
  0
VERTEX
  8
0
  5
1E6A2
 10
122.662
 20
95.3900
 30
0.000000
  70
    32
  0
VERTEX
  8
0
  5
1E6A3
 10
122.880
 20
95.3179
 30
0.000000
  70
    32
  0
VERTEX
  8
0
  5
1E6A4
 10
123.101
 20
95.2566
 30
0.000000
  70
    32
  0
VERTEX
  8
0
  5
1E6A5
 10
123.325
 20
95.2062
 30
0.000000
  70
    32
  0
VERTEX
  8
0
  5
1E6A6
 10
123.551
 20
95.1669
 30
0.000000
  70
    32
  0
VERTEX
  8
0
  5
1E6A7
 10
123.779
 20
95.1388
 30
0.000000
  70
    32
  0
VERTEX
  8
0
  5
1E6A8
 10
124.007
 20
95.1219
 30
0.000000
  70
    32
  0
VERTEX
  8
0
  5
1E6A9
 10
124.237
 20
95.1163
 30
0.000000
  70
    32
  0
SEQEND
  8
0
  5
1E6AA
  0
POLYLINE
  5
1D43B
  8
0
 10
156.26335603241139
 20
95.116251501201219
 30
0.0
 66
     1
 70
     8
  0
VERTEX
  8
0
  5
1E6AB
 10
156.263
 20
95.1163
 30
0.000000
  70
    32
  0
VERTEX
  8
0
  5
1E6AC
 10
156.493
 20
95.1219
 30
0.000000
  70
    32
  0
VERTEX
  8
0
  5
1E6AD
 10
156.721
 20
95.1388
 30
0.000000
  70
    32
  0
VERTEX
  8
0
  5
1E6AE
 10
156.949
 20
95.1669
 30
0.000000
  70
    32
  0
VERTEX
  8
0
  5
1E6AF
 10
157.175
 20
95.2062
 30
0.000000
  70
    32
  0
VERTEX
  8
0
  5
1E6B0
 10
157.399
 20
95.2566
 30
0.000000
  70
    32
  0
VERTEX
  8
0
  5
1E6B1
 10
157.620
 20
95.3179
 30
0.000000
  70
    32
  0
VERTEX
  8
0
  5
1E6B2
 10
157.838
 20
95.3900
 30
0.000000
  70
    32
  0
VERTEX
  8
0
  5
1E6B3
 10
158.052
 20
95.4728
 30
0.000000
  70
    32
  0
VERTEX
  8
0
  5
1E6B4
 10
158.261
 20
95.5659
 30
0.000000
  70
    32
  0
VERTEX
  8
0
  5
1E6B5
 10
158.466
 20
95.6693
 30
0.000000
  70
    32
  0
VERTEX
  8
0
  5
1E6B6
 10
158.666
 20
95.7826
 30
0.000000
  70
    32
  0
VERTEX
  8
0
  5
1E6B7
 10
158.860
 20
95.9056
 30
0.000000
  70
    32
  0
VERTEX
  8
0
  5
1E6B8
 10
159.047
 20
96.0380
 30
0.000000
  70
    32
  0
VERTEX
  8
0
  5
1E6B9
 10
159.228
 20
96.1794
 30
0.000000
  70
    32
  0
VERTEX
  8
0
  5
1E6BA
 10
159.402
 20
96.3296
 30
0.000000
  70
    32
  0
VERTEX
  8
0
  5
1E6BB
 10
159.568
 20
96.4881
 30
0.000000
  70
    32
  0
VERTEX
  8
0
  5
1E6BC
 10
159.726
 20
96.6546
 30
0.000000
  70
    32
  0
VERTEX
  8
0
  5
1E6BD
 10
159.876
 20
96.8287
 30
0.000000
  70
    32
  0
VERTEX
  8
0
  5
1E6BE
 10
160.017
 20
97.0099
 30
0.000000
  70
    32
  0
VERTEX
  8
0
  5
1E6BF
 10
160.149
 20
97.1978
 30
0.000000
  70
    32
  0
VERTEX
  8
0
  5
1E6C0
 10
160.272
 20
97.3921
 30
0.000000
  70
    32
  0
VERTEX
  8
0
  5
1E6C1
 10
160.385
 20
97.5921
 30
0.000000
  70
    32
  0
VERTEX
  8
0
  5
1E6C2
 10
160.488
 20
97.7974
 30
0.000000
  70
    32
  0
VERTEX
  8
0
  5
1E6C3
 10
160.581
 20
98.0076
 30
0.000000
  70
    32
  0
VERTEX
  8
0
  5
1E6C4
 10
160.663
 20
98.2221
 30
0.000000
  70
    32
  0
VERTEX
  8
0
  5
1E6C5
 10
160.735
 20
98.4404
 30
0.000000
  70
    32
  0
VERTEX
  8
0
  5
1E6C6
 10
160.797
 20
98.6619
 30
0.000000
  70
    32
  0
VERTEX
  8
0
  5
1E6C7
 10
160.847
 20
98.8862
 30
0.000000
  70
    32
  0
VERTEX
  8
0
  5
1E6C8
 10
160.886
 20
99.1128
 30
0.000000
  70
    32
  0
VERTEX
  8
0
  5
1E6C9
 10
160.914
 20
99.3409
 30
0.000000
  70
    32
  0
VERTEX
  8
0
  5
1E6CA
 10
160.931
 20
99.5702
 30
0.000000
  70
    32
  0
VERTEX
  8
0
  5
1E6CB
 10
160.937
 20
99.8000
 30
0.000000
  70
    32
  0
VERTEX
  8
0
  5
1E6CC
 10
160.931
 20
100.030
 30
0.000000
  70
    32
  0
VERTEX
  8
0
  5
1E6CD
 10
160.914
 20
100.259
 30
0.000000
  70
    32
  0
VERTEX
  8
0
  5
1E6CE
 10
160.886
 20
100.487
 30
0.000000
  70
    32
  0
VERTEX
  8
0
  5
1E6CF
 10
160.847
 20
100.714
 30
0.000000
  70
    32
  0
VERTEX
  8
0
  5
1E6D0
 10
160.797
 20
100.938
 30
0.000000
  70
    32
  0
VERTEX
  8
0
  5
1E6D1
 10
160.735
 20
101.160
 30
0.000000
  70
    32
  0
VERTEX
  8
0
  5
1E6D2
 10
160.663
 20
101.378
 30
0.000000
  70
    32
  0
VERTEX
  8
0
  5
1E6D3
 10
160.581
 20
101.592
 30
0.000000
  70
    32
  0
VERTEX
  8
0
  5
1E6D4
 10
160.488
 20
101.803
 30
0.000000
  70
    32
  0
VERTEX
  8
0
  5
1E6D5
 10
160.385
 20
102.008
 30
0.000000
  70
    32
  0
VERTEX
  8
0
  5
1E6D6
 10
160.272
 20
102.208
 30
0.000000
  70
    32
  0
VERTEX
  8
0
  5
1E6D7
 10
160.149
 20
102.402
 30
0.000000
  70
    32
  0
VERTEX
  8
0
  5
1E6D8
 10
160.017
 20
102.590
 30
0.000000
  70
    32
  0
VERTEX
  8
0
  5
1E6D9
 10
159.876
 20
102.771
 30
0.000000
  70
    32
  0
VERTEX
  8
0
  5
1E6DA
 10
159.726
 20
102.945
 30
0.000000
  70
    32
  0
VERTEX
  8
0
  5
1E6DB
 10
159.568
 20
103.112
 30
0.000000
  70
    32
  0
VERTEX
  8
0
  5
1E6DC
 10
159.402
 20
103.270
 30
0.000000
  70
    32
  0
VERTEX
  8
0
  5
1E6DD
 10
159.228
 20
103.421
 30
0.000000
  70
    32
  0
VERTEX
  8
0
  5
1E6DE
 10
159.047
 20
103.562
 30
0.000000
  70
    32
  0
VERTEX
  8
0
  5
1E6DF
 10
158.860
 20
103.694
 30
0.000000
  70
    32
  0
VERTEX
  8
0
  5
1E6E0
 10
158.666
 20
103.817
 30
0.000000
  70
    32
  0
VERTEX
  8
0
  5
1E6E1
 10
158.466
 20
103.931
 30
0.000000
  70
    32
  0
VERTEX
  8
0
  5
1E6E2
 10
158.261
 20
104.034
 30
0.000000
  70
    32
  0
VERTEX
  8
0
  5
1E6E3
 10
158.052
 20
104.127
 30
0.000000
  70
    32
  0
VERTEX
  8
0
  5
1E6E4
 10
157.838
 20
104.210
 30
0.000000
  70
    32
  0
VERTEX
  8
0
  5
1E6E5
 10
157.620
 20
104.282
 30
0.000000
  70
    32
  0
VERTEX
  8
0
  5
1E6E6
 10
157.399
 20
104.343
 30
0.000000
  70
    32
  0
VERTEX
  8
0
  5
1E6E7
 10
157.175
 20
104.394
 30
0.000000
  70
    32
  0
VERTEX
  8
0
  5
1E6E8
 10
156.949
 20
104.433
 30
0.000000
  70
    32
  0
VERTEX
  8
0
  5
1E6E9
 10
156.721
 20
104.461
 30
0.000000
  70
    32
  0
VERTEX
  8
0
  5
1E6EA
 10
156.493
 20
104.478
 30
0.000000
  70
    32
  0
VERTEX
  8
0
  5
1E6EB
 10
156.263
 20
104.484
 30
0.000000
  70
    32
  0
VERTEX
  8
0
  5
1E6EC
 10
156.034
 20
104.478
 30
0.000000
  70
    32
  0
VERTEX
  8
0
  5
1E6ED
 10
155.805
 20
104.461
 30
0.000000
  70
    32
  0
VERTEX
  8
0
  5
1E6EE
 10
155.578
 20
104.433
 30
0.000000
  70
    32
  0
VERTEX
  8
0
  5
1E6EF
 10
155.352
 20
104.394
 30
0.000000
  70
    32
  0
VERTEX
  8
0
  5
1E6F0
 10
155.128
 20
104.343
 30
0.000000
  70
    32
  0
VERTEX
  8
0
  5
1E6F1
 10
154.907
 20
104.282
 30
0.000000
  70
    32
  0
VERTEX
  8
0
  5
1E6F2
 10
154.689
 20
104.210
 30
0.000000
  70
    32
  0
VERTEX
  8
0
  5
1E6F3
 10
154.475
 20
104.127
 30
0.000000
  70
    32
  0
VERTEX
  8
0
  5
1E6F4
 10
154.265
 20
104.034
 30
0.000000
  70
    32
  0
VERTEX
  8
0
  5
1E6F5
 10
154.060
 20
103.931
 30
0.000000
  70
    32
  0
VERTEX
  8
0
  5
1E6F6
 10
153.861
 20
103.817
 30
0.000000
  70
    32
  0
VERTEX
  8
0
  5
1E6F7
 10
153.667
 20
103.694
 30
0.000000
  70
    32
  0
VERTEX
  8
0
  5
1E6F8
 10
153.479
 20
103.562
 30
0.000000
  70
    32
  0
VERTEX
  8
0
  5
1E6F9
 10
153.299
 20
103.421
 30
0.000000
  70
    32
  0
VERTEX
  8
0
  5
1E6FA
 10
153.125
 20
103.270
 30
0.000000
  70
    32
  0
VERTEX
  8
0
  5
1E6FB
 10
152.959
 20
103.112
 30
0.000000
  70
    32
  0
VERTEX
  8
0
  5
1E6FC
 10
152.801
 20
102.945
 30
0.000000
  70
    32
  0
VERTEX
  8
0
  5
1E6FD
 10
152.651
 20
102.771
 30
0.000000
  70
    32
  0
VERTEX
  8
0
  5
1E6FE
 10
152.510
 20
102.590
 30
0.000000
  70
    32
  0
VERTEX
  8
0
  5
1E6FF
 10
152.378
 20
102.402
 30
0.000000
  70
    32
  0
VERTEX
  8
0
  5
1E700
 10
152.255
 20
102.208
 30
0.000000
  70
    32
  0
VERTEX
  8
0
  5
1E701
 10
152.142
 20
102.008
 30
0.000000
  70
    32
  0
VERTEX
  8
0
  5
1E702
 10
152.039
 20
101.803
 30
0.000000
  70
    32
  0
VERTEX
  8
0
  5
1E703
 10
151.946
 20
101.592
 30
0.000000
  70
    32
  0
VERTEX
  8
0
  5
1E704
 10
151.863
 20
101.378
 30
0.000000
  70
    32
  0
VERTEX
  8
0
  5
1E705
 10
151.791
 20
101.160
 30
0.000000
  70
    32
  0
VERTEX
  8
0
  5
1E706
 10
151.730
 20
100.938
 30
0.000000
  70
    32
  0
VERTEX
  8
0
  5
1E707
 10
151.680
 20
100.714
 30
0.000000
  70
    32
  0
VERTEX
  8
0
  5
1E708
 10
151.641
 20
100.487
 30
0.000000
  70
    32
  0
VERTEX
  8
0
  5
1E709
 10
151.613
 20
100.259
 30
0.000000
  70
    32
  0
VERTEX
  8
0
  5
1E70A
 10
151.596
 20
100.030
 30
0.000000
  70
    32
  0
VERTEX
  8
0
  5
1E70B
 10
151.590
 20
99.8000
 30
0.000000
  70
    32
  0
VERTEX
  8
0
  5
1E70C
 10
151.596
 20
99.5702
 30
0.000000
  70
    32
  0
VERTEX
  8
0
  5
1E70D
 10
151.613
 20
99.3409
 30
0.000000
  70
    32
  0
VERTEX
  8
0
  5
1E70E
 10
151.641
 20
99.1128
 30
0.000000
  70
    32
  0
VERTEX
  8
0
  5
1E70F
 10
151.680
 20
98.8862
 30
0.000000
  70
    32
  0
VERTEX
  8
0
  5
1E710
 10
151.730
 20
98.6619
 30
0.000000
  70
    32
  0
VERTEX
  8
0
  5
1E711
 10
151.791
 20
98.4404
 30
0.000000
  70
    32
  0
VERTEX
  8
0
  5
1E712
 10
151.863
 20
98.2221
 30
0.000000
  70
    32
  0
VERTEX
  8
0
  5
1E713
 10
151.946
 20
98.0076
 30
0.000000
  70
    32
  0
VERTEX
  8
0
  5
1E714
 10
152.039
 20
97.7974
 30
0.000000
  70
    32
  0
VERTEX
  8
0
  5
1E715
 10
152.142
 20
97.5921
 30
0.000000
  70
    32
  0
VERTEX
  8
0
  5
1E716
 10
152.255
 20
97.3921
 30
0.000000
  70
    32
  0
VERTEX
  8
0
  5
1E717
 10
152.378
 20
97.1978
 30
0.000000
  70
    32
  0
VERTEX
  8
0
  5
1E718
 10
152.510
 20
97.0099
 30
0.000000
  70
    32
  0
VERTEX
  8
0
  5
1E719
 10
152.651
 20
96.8287
 30
0.000000
  70
    32
  0
VERTEX
  8
0
  5
1E71A
 10
152.801
 20
96.6546
 30
0.000000
  70
    32
  0
VERTEX
  8
0
  5
1E71B
 10
152.959
 20
96.4881
 30
0.000000
  70
    32
  0
VERTEX
  8
0
  5
1E71C
 10
153.125
 20
96.3296
 30
0.000000
  70
    32
  0
VERTEX
  8
0
  5
1E71D
 10
153.299
 20
96.1794
 30
0.000000
  70
    32
  0
VERTEX
  8
0
  5
1E71E
 10
153.479
 20
96.0380
 30
0.000000
  70
    32
  0
VERTEX
  8
0
  5
1E71F
 10
153.667
 20
95.9056
 30
0.000000
  70
    32
  0
VERTEX
  8
0
  5
1E720
 10
153.861
 20
95.7826
 30
0.000000
  70
    32
  0
VERTEX
  8
0
  5
1E721
 10
154.060
 20
95.6693
 30
0.000000
  70
    32
  0
VERTEX
  8
0
  5
1E722
 10
154.265
 20
95.5659
 30
0.000000
  70
    32
  0
VERTEX
  8
0
  5
1E723
 10
154.475
 20
95.4728
 30
0.000000
  70
    32
  0
VERTEX
  8
0
  5
1E724
 10
154.689
 20
95.3900
 30
0.000000
  70
    32
  0
VERTEX
  8
0
  5
1E725
 10
154.907
 20
95.3179
 30
0.000000
  70
    32
  0
VERTEX
  8
0
  5
1E726
 10
155.128
 20
95.2566
 30
0.000000
  70
    32
  0
VERTEX
  8
0
  5
1E727
 10
155.352
 20
95.2062
 30
0.000000
  70
    32
  0
VERTEX
  8
0
  5
1E728
 10
155.578
 20
95.1669
 30
0.000000
  70
    32
  0
VERTEX
  8
0
  5
1E729
 10
155.805
 20
95.1388
 30
0.000000
  70
    32
  0
VERTEX
  8
0
  5
1E72A
 10
156.034
 20
95.1219
 30
0.000000
  70
    32
  0
VERTEX
  8
0
  5
1E72B
 10
156.263
 20
95.1163
 30
0.000000
  70
    32
  0
SEQEND
  8
0
  5
1E72C
  0
LINE
  5
1D443
  8
0
 10
156.55000000000061
 20
107.0000000000001
 30
0.0
 11
156.25236630445281
 21
107.0000000000001
 31
0.0
  0
ARC
  5
1D444
  8
0
 10
156.55000000000061
 20
99.800000000000125
 30
0.0
 40
7.1999999999999957
 50
290.67709639263569
 51
90.0
  0
POLYLINE
  5
1D445
  8
0
 66
     1
 10
0.0
 20
0.0
 30
0.0
  0
VERTEX
  5
1E42A
  8
0
 10
156.25236630445281
 20
107.0000000000001
 30
0.0
  0
VERTEX
  5
1E42B
  8
0
 10
156.02285762658991
 20
106.9963730404141
 30
0.0
  0
VERTEX
  5
1E42C
  8
0
 10
155.4198376053003
 20
106.95220420004669
 30
0.0
  0
VERTEX
  5
1E42D
  8
0
 10
154.8225036191169
 20
106.8583465394824
 30
0.0
  0
VERTEX
  5
1E42E
  8
0
 10
154.2182802551994
 20
106.7105275919139
 30
0.0
  0
VERTEX
  5
1E42F
  8
0
 10
153.6286966102081
 20
106.5120142805895
 30
0.0
  0
VERTEX
  5
1E430
  8
0
 10
153.21276536584489
 20
106.33709568585959
 30
0.0
  0
SEQEND
  5
1E431
  8
0
  0
POLYLINE
  5
1D446
  8
0
 66
     1
 10
0.0
 20
0.0
 30
0.0
  0
VERTEX
  5
1E432
  8
0
 10
127.2872346341554
 20
106.3370956858595
 30
0.0
  0
VERTEX
  5
1E433
  8
0
 10
127.2568954639422
 20
106.350884854906
 30
0.0
  0
VERTEX
  5
1E434
  8
0
 10
126.6913855618151
 20
106.5785079041212
 30
0.0
  0
VERTEX
  5
1E435
  8
0
 10
126.1090070143801
 20
106.7583998042191
 30
0.0
  0
VERTEX
  5
1E436
  8
0
 10
125.49625278544261
 20
106.8921591516707
 30
0.0
  0
VERTEX
  5
1E437
  8
0
 10
124.8743395726615
 20
106.97296674144749
 30
0.0
  0
VERTEX
  5
1E438
  8
0
 10
124.26576165959069
 20
106.9999324395208
 30
0.0
  0
VERTEX
  5
1E439
  8
0
 10
124.2474459349083
 20
107.0000000000001
 30
0.0
  0
SEQEND
  5
1E43A
  8
0
  0
LINE
  5
1D44A
  8
0
 10
124.2474459349083
 20
107.0000000000001
 30
0.0
 11
123.95
 21
107.0000000000001
 31
0.0
  0
ARC
  5
1D44B
  8
0
 10
123.95
 20
99.800000000000125
 30
0.0
 40
7.1999999999999948
 50
90.0
 51
249.32290360736431
  0
ARC
  5
1D450
  8
0
 10
133.0019036319697
 20
143.8916836159427
 30
0.0
 40
57.133049242425081
 50
284.18235019523388
 51
297.1718425900379
  0
ARC
  5
1D453
  8
0
 10
147.4980963680307
 20
143.8916836159423
 30
0.0
 40
57.13304924242464
 50
242.8281574099619
 51
255.81764980476601
  0
LINE
  5
1D455
  8
0
 10
140.8000000000003
 20
106.9774446020274
 30
0.0
 11
139.7000000000003
 21
106.9774446020274
 31
0.0
  0
ARC
  5
1D456
  8
0
 10
140.2500000000008
 20
100.2830104273629
 30
0.0
 40
6.7169895726371172
 50
94.696746754375724
 51
98.746697778422828
  0
ARC
  5
1D457
  8
0
 10
140.24999992602361
 20
100.28301062655009
 30
0.0
 40
6.7169893601574993
 50
108.4109431001682
 51
112.70675251360259
  0
ARC
  5
1D458
  8
0
 10
140.24999999491359
 20
100.283010432887
 30
0.0
 40
6.7169895651375988
 50
123.3518254280763
 51
135.77715419928089
  0
ARC
  5
1D459
  8
0
 10
140.2500000000891
 20
100.2830104274634
 30
0.0
 40
6.7169895725019719
 50
44.222845804141407
 51
56.648174551474789
  0
ARC
  5
1D45A
  8
0
 10
140.25000007420209
 20
100.2830106142504
 30
0.0
 40
6.7169893715946341
 50
67.293247549338346
 51
71.589056952116493
  0
ARC
  5
1D45B
  8
0
 10
140.25
 20
100.2830104273651
 30
0.0
 40
6.7169895726348896
 50
81.253302221709887
 51
85.303253245624276
  0
POLYLINE
  5
1D45C
  8
0
 66
     1
 10
0.0
 20
0.0
 30
0.0
  0
VERTEX
  5
1E43B
  8
0
 10
136.5571428660727
 20
105.89378177416771
 30
0.0
  0
VERTEX
  5
1E43C
  8
0
 10
136.55737597302121
 20
105.8939123468228
 30
0.0
  0
VERTEX
  5
1E43D
  8
0
 10
136.58602641145379
 20
105.9099375478698
 30
0.0
  0
VERTEX
  5
1E43E
  8
0
 10
136.65799890063451
 20
105.94999439785261
 30
0.0
  0
VERTEX
  5
1E43F
  8
0
 10
136.7727061521785
 20
106.0132568731705
 30
0.0
  0
VERTEX
  5
1E440
  8
0
 10
136.9306202025343
 20
106.0992228486424
 30
0.0
  0
VERTEX
  5
1E441
  8
0
 10
137.1241364057077
 20
106.202868068321
 30
0.0
  0
VERTEX
  5
1E442
  8
0
 10
137.32845809016061
 20
106.3103665821663
 30
0.0
  0
VERTEX
  5
1E443
  8
0
 10
137.50313021364011
 20
106.4007682908268
 30
0.0
  0
VERTEX
  5
1E444
  8
0
 10
137.61429681855299
 20
106.45761347458971
 30
0.0
  0
VERTEX
  5
1E445
  8
0
 10
137.65608080210399
 20
106.4788449129256
 30
0.0
  0
VERTEX
  5
1E446
  8
0
 10
137.65714286287101
 20
106.4793836232741
 30
0.0
  0
SEQEND
  5
1E447
  8
0
  0
LINE
  5
1D45D
  8
0
 10
139.2285714285529
 20
106.9218832678642
 30
0.0
 11
138.12857143007739
 21
106.6561956388542
 31
0.0
  0
POLYLINE
  5
1D45E
  8
0
 66
     1
 10
0.0
 20
0.0
 30
0.0
  0
VERTEX
  5
1E448
  8
0
 10
142.84285713529621
 20
106.479383624204
 30
0.0
  0
VERTEX
  5
1E449
  8
0
 10
142.8567592105058
 20
106.4723283479421
 30
0.0
  0
VERTEX
  5
1E44A
  8
0
 10
142.91607863301539
 20
106.4421330419441
 30
0.0
  0
VERTEX
  5
1E44B
  8
0
 10
143.0186408587227
 20
106.3895736617652
 30
0.0
  0
VERTEX
  5
1E44C
  8
0
 10
143.16296328605409
 20
106.3148380935678
 30
0.0
  0
VERTEX
  5
1E44D
  8
0
 10
143.3439141668423
 20
106.2198058138702
 30
0.0
  0
VERTEX
  5
1E44E
  8
0
 10
143.5452262516005
 20
106.1122598831133
 30
0.0
  0
VERTEX
  5
1E44F
  8
0
 10
143.73434725827059
 20
106.00938699610001
 30
0.0
  0
VERTEX
  5
1E450
  8
0
 10
143.8711840499399
 20
105.9337866247472
 30
0.0
  0
VERTEX
  5
1E451
  8
0
 10
143.93540474956461
 20
105.8979546536989
 30
0.0
  0
VERTEX
  5
1E452
  8
0
 10
143.94285713498121
 20
105.8937817735777
 30
0.0
  0
SEQEND
  5
1E453
  8
0
  0
LINE
  5
1D45F
  8
0
 10
142.3714285679448
 20
106.656195639342
 30
0.0
 11
141.2714285714853
 21
106.9218832678537
 31
0.0
  0
ARC
  5
1D460
  8
0
 10
146.8316123188408
 20
84.833333333333343
 30
0.0
 40
0.598278985507225
 50
111.0555722399251
 51
129.99626903834189
  0
ARC
  5
1D461
  8
0
 10
146.8316123188408
 20
84.833333333333343
 30
0.0
 40
0.5982789855072606
 50
230.00373096165811
 51
248.94442776007219
  0
ARC
  5
1D462
  8
0
 10
133.66838768115969
 20
84.833333333333343
 30
0.0
 40
0.5982789855072375
 50
50.0037309616581
 51
68.944427760072159
  0
ARC
  5
1D463
  8
0
 10
133.66838768115969
 20
84.833333333333314
 30
0.0
 40
0.5982789855072054
 50
291.0555722399252
 51
309.99626903834172
  0
POLYLINE
  5
1D465
  8
0
 10
127.2872346341555
 20
106.33709568585937
 30
0.0
 66
     1
 70
     8
  0
VERTEX
  8
0
  5
1E72D
 10
127.287
 20
106.337
 30
0.000000
  70
    32
  0
VERTEX
  8
0
  5
1E72E
 10
127.325
 20
106.327
 30
0.000000
  70
    32
  0
VERTEX
  8
0
  5
1E72F
 10
127.362
 20
106.316
 30
0.000000
  70
    32
  0
VERTEX
  8
0
  5
1E730
 10
127.400
 20
106.306
 30
0.000000
  70
    32
  0
VERTEX
  8
0
  5
1E731
 10
127.438
 20
106.295
 30
0.000000
  70
    32
  0
VERTEX
  8
0
  5
1E732
 10
127.475
 20
106.285
 30
0.000000
  70
    32
  0
VERTEX
  8
0
  5
1E733
 10
127.513
 20
106.275
 30
0.000000
  70
    32
  0
VERTEX
  8
0
  5
1E734
 10
127.551
 20
106.264
 30
0.000000
  70
    32
  0
VERTEX
  8
0
  5
1E735
 10
127.588
 20
106.254
 30
0.000000
  70
    32
  0
VERTEX
  8
0
  5
1E736
 10
127.626
 20
106.244
 30
0.000000
  70
    32
  0
VERTEX
  8
0
  5
1E737
 10
127.664
 20
106.234
 30
0.000000
  70
    32
  0
VERTEX
  8
0
  5
1E738
 10
127.701
 20
106.223
 30
0.000000
  70
    32
  0
VERTEX
  8
0
  5
1E739
 10
127.739
 20
106.213
 30
0.000000
  70
    32
  0
VERTEX
  8
0
  5
1E73A
 10
127.777
 20
106.203
 30
0.000000
  70
    32
  0
VERTEX
  8
0
  5
1E73B
 10
127.815
 20
106.193
 30
0.000000
  70
    32
  0
VERTEX
  8
0
  5
1E73C
 10
127.852
 20
106.183
 30
0.000000
  70
    32
  0
VERTEX
  8
0
  5
1E73D
 10
127.890
 20
106.173
 30
0.000000
  70
    32
  0
VERTEX
  8
0
  5
1E73E
 10
127.928
 20
106.163
 30
0.000000
  70
    32
  0
VERTEX
  8
0
  5
1E73F
 10
127.966
 20
106.153
 30
0.000000
  70
    32
  0
VERTEX
  8
0
  5
1E740
 10
128.003
 20
106.143
 30
0.000000
  70
    32
  0
VERTEX
  8
0
  5
1E741
 10
128.041
 20
106.133
 30
0.000000
  70
    32
  0
VERTEX
  8
0
  5
1E742
 10
128.079
 20
106.123
 30
0.000000
  70
    32
  0
VERTEX
  8
0
  5
1E743
 10
128.117
 20
106.113
 30
0.000000
  70
    32
  0
VERTEX
  8
0
  5
1E744
 10
128.155
 20
106.103
 30
0.000000
  70
    32
  0
VERTEX
  8
0
  5
1E745
 10
128.192
 20
106.094
 30
0.000000
  70
    32
  0
VERTEX
  8
0
  5
1E746
 10
128.230
 20
106.084
 30
0.000000
  70
    32
  0
VERTEX
  8
0
  5
1E747
 10
128.268
 20
106.074
 30
0.000000
  70
    32
  0
VERTEX
  8
0
  5
1E748
 10
128.306
 20
106.064
 30
0.000000
  70
    32
  0
VERTEX
  8
0
  5
1E749
 10
128.344
 20
106.055
 30
0.000000
  70
    32
  0
VERTEX
  8
0
  5
1E74A
 10
128.381
 20
106.045
 30
0.000000
  70
    32
  0
VERTEX
  8
0
  5
1E74B
 10
128.419
 20
106.035
 30
0.000000
  70
    32
  0
VERTEX
  8
0
  5
1E74C
 10
128.457
 20
106.026
 30
0.000000
  70
    32
  0
VERTEX
  8
0
  5
1E74D
 10
128.495
 20
106.016
 30
0.000000
  70
    32
  0
VERTEX
  8
0
  5
1E74E
 10
128.533
 20
106.007
 30
0.000000
  70
    32
  0
VERTEX
  8
0
  5
1E74F
 10
128.571
 20
105.997
 30
0.000000
  70
    32
  0
VERTEX
  8
0
  5
1E750
 10
128.609
 20
105.988
 30
0.000000
  70
    32
  0
VERTEX
  8
0
  5
1E751
 10
128.647
 20
105.978
 30
0.000000
  70
    32
  0
VERTEX
  8
0
  5
1E752
 10
128.684
 20
105.969
 30
0.000000
  70
    32
  0
VERTEX
  8
0
  5
1E753
 10
128.722
 20
105.960
 30
0.000000
  70
    32
  0
VERTEX
  8
0
  5
1E754
 10
128.760
 20
105.950
 30
0.000000
  70
    32
  0
VERTEX
  8
0
  5
1E755
 10
128.798
 20
105.941
 30
0.000000
  70
    32
  0
VERTEX
  8
0
  5
1E756
 10
128.836
 20
105.932
 30
0.000000
  70
    32
  0
VERTEX
  8
0
  5
1E757
 10
128.874
 20
105.922
 30
0.000000
  70
    32
  0
VERTEX
  8
0
  5
1E758
 10
128.912
 20
105.913
 30
0.000000
  70
    32
  0
VERTEX
  8
0
  5
1E759
 10
128.950
 20
105.904
 30
0.000000
  70
    32
  0
VERTEX
  8
0
  5
1E75A
 10
128.988
 20
105.895
 30
0.000000
  70
    32
  0
VERTEX
  8
0
  5
1E75B
 10
129.026
 20
105.886
 30
0.000000
  70
    32
  0
VERTEX
  8
0
  5
1E75C
 10
129.064
 20
105.877
 30
0.000000
  70
    32
  0
VERTEX
  8
0
  5
1E75D
 10
129.102
 20
105.868
 30
0.000000
  70
    32
  0
VERTEX
  8
0
  5
1E75E
 10
129.140
 20
105.859
 30
0.000000
  70
    32
  0
VERTEX
  8
0
  5
1E75F
 10
129.178
 20
105.850
 30
0.000000
  70
    32
  0
VERTEX
  8
0
  5
1E760
 10
129.216
 20
105.841
 30
0.000000
  70
    32
  0
VERTEX
  8
0
  5
1E761
 10
129.254
 20
105.832
 30
0.000000
  70
    32
  0
VERTEX
  8
0
  5
1E762
 10
129.292
 20
105.823
 30
0.000000
  70
    32
  0
VERTEX
  8
0
  5
1E763
 10
129.330
 20
105.814
 30
0.000000
  70
    32
  0
VERTEX
  8
0
  5
1E764
 10
129.368
 20
105.805
 30
0.000000
  70
    32
  0
VERTEX
  8
0
  5
1E765
 10
129.406
 20
105.796
 30
0.000000
  70
    32
  0
VERTEX
  8
0
  5
1E766
 10
129.444
 20
105.787
 30
0.000000
  70
    32
  0
VERTEX
  8
0
  5
1E767
 10
129.482
 20
105.779
 30
0.000000
  70
    32
  0
VERTEX
  8
0
  5
1E768
 10
129.520
 20
105.770
 30
0.000000
  70
    32
  0
VERTEX
  8
0
  5
1E769
 10
129.558
 20
105.761
 30
0.000000
  70
    32
  0
VERTEX
  8
0
  5
1E76A
 10
129.596
 20
105.753
 30
0.000000
  70
    32
  0
VERTEX
  8
0
  5
1E76B
 10
129.634
 20
105.744
 30
0.000000
  70
    32
  0
VERTEX
  8
0
  5
1E76C
 10
129.673
 20
105.735
 30
0.000000
  70
    32
  0
VERTEX
  8
0
  5
1E76D
 10
129.711
 20
105.727
 30
0.000000
  70
    32
  0
VERTEX
  8
0
  5
1E76E
 10
129.749
 20
105.718
 30
0.000000
  70
    32
  0
VERTEX
  8
0
  5
1E76F
 10
129.787
 20
105.710
 30
0.000000
  70
    32
  0
VERTEX
  8
0
  5
1E770
 10
129.825
 20
105.701
 30
0.000000
  70
    32
  0
VERTEX
  8
0
  5
1E771
 10
129.863
 20
105.693
 30
0.000000
  70
    32
  0
VERTEX
  8
0
  5
1E772
 10
129.901
 20
105.684
 30
0.000000
  70
    32
  0
VERTEX
  8
0
  5
1E773
 10
129.939
 20
105.676
 30
0.000000
  70
    32
  0
VERTEX
  8
0
  5
1E774
 10
129.977
 20
105.668
 30
0.000000
  70
    32
  0
VERTEX
  8
0
  5
1E775
 10
130.016
 20
105.659
 30
0.000000
  70
    32
  0
VERTEX
  8
0
  5
1E776
 10
130.054
 20
105.651
 30
0.000000
  70
    32
  0
VERTEX
  8
0
  5
1E777
 10
130.092
 20
105.643
 30
0.000000
  70
    32
  0
VERTEX
  8
0
  5
1E778
 10
130.130
 20
105.634
 30
0.000000
  70
    32
  0
VERTEX
  8
0
  5
1E779
 10
130.168
 20
105.626
 30
0.000000
  70
    32
  0
VERTEX
  8
0
  5
1E77A
 10
130.206
 20
105.618
 30
0.000000
  70
    32
  0
VERTEX
  8
0
  5
1E77B
 10
130.245
 20
105.610
 30
0.000000
  70
    32
  0
VERTEX
  8
0
  5
1E77C
 10
130.283
 20
105.602
 30
0.000000
  70
    32
  0
VERTEX
  8
0
  5
1E77D
 10
130.321
 20
105.594
 30
0.000000
  70
    32
  0
VERTEX
  8
0
  5
1E77E
 10
130.359
 20
105.586
 30
0.000000
  70
    32
  0
VERTEX
  8
0
  5
1E77F
 10
130.398
 20
105.578
 30
0.000000
  70
    32
  0
VERTEX
  8
0
  5
1E780
 10
130.436
 20
105.570
 30
0.000000
  70
    32
  0
VERTEX
  8
0
  5
1E781
 10
130.474
 20
105.562
 30
0.000000
  70
    32
  0
VERTEX
  8
0
  5
1E782
 10
130.512
 20
105.554
 30
0.000000
  70
    32
  0
VERTEX
  8
0
  5
1E783
 10
130.550
 20
105.546
 30
0.000000
  70
    32
  0
VERTEX
  8
0
  5
1E784
 10
130.589
 20
105.538
 30
0.000000
  70
    32
  0
VERTEX
  8
0
  5
1E785
 10
130.627
 20
105.530
 30
0.000000
  70
    32
  0
VERTEX
  8
0
  5
1E786
 10
130.665
 20
105.522
 30
0.000000
  70
    32
  0
VERTEX
  8
0
  5
1E787
 10
130.703
 20
105.514
 30
0.000000
  70
    32
  0
VERTEX
  8
0
  5
1E788
 10
130.742
 20
105.507
 30
0.000000
  70
    32
  0
VERTEX
  8
0
  5
1E789
 10
130.780
 20
105.499
 30
0.000000
  70
    32
  0
VERTEX
  8
0
  5
1E78A
 10
130.818
 20
105.491
 30
0.000000
  70
    32
  0
VERTEX
  8
0
  5
1E78B
 10
130.857
 20
105.484
 30
0.000000
  70
    32
  0
VERTEX
  8
0
  5
1E78C
 10
130.895
 20
105.476
 30
0.000000
  70
    32
  0
VERTEX
  8
0
  5
1E78D
 10
130.933
 20
105.468
 30
0.000000
  70
    32
  0
VERTEX
  8
0
  5
1E78E
 10
130.972
 20
105.461
 30
0.000000
  70
    32
  0
VERTEX
  8
0
  5
1E78F
 10
131.010
 20
105.453
 30
0.000000
  70
    32
  0
VERTEX
  8
0
  5
1E790
 10
131.048
 20
105.446
 30
0.000000
  70
    32
  0
VERTEX
  8
0
  5
1E791
 10
131.086
 20
105.438
 30
0.000000
  70
    32
  0
VERTEX
  8
0
  5
1E792
 10
131.125
 20
105.431
 30
0.000000
  70
    32
  0
VERTEX
  8
0
  5
1E793
 10
131.163
 20
105.423
 30
0.000000
  70
    32
  0
VERTEX
  8
0
  5
1E794
 10
131.201
 20
105.416
 30
0.000000
  70
    32
  0
VERTEX
  8
0
  5
1E795
 10
131.240
 20
105.409
 30
0.000000
  70
    32
  0
VERTEX
  8
0
  5
1E796
 10
131.278
 20
105.401
 30
0.000000
  70
    32
  0
VERTEX
  8
0
  5
1E797
 10
131.317
 20
105.394
 30
0.000000
  70
    32
  0
VERTEX
  8
0
  5
1E798
 10
131.355
 20
105.387
 30
0.000000
  70
    32
  0
VERTEX
  8
0
  5
1E799
 10
131.393
 20
105.380
 30
0.000000
  70
    32
  0
VERTEX
  8
0
  5
1E79A
 10
131.432
 20
105.372
 30
0.000000
  70
    32
  0
VERTEX
  8
0
  5
1E79B
 10
131.470
 20
105.365
 30
0.000000
  70
    32
  0
VERTEX
  8
0
  5
1E79C
 10
131.508
 20
105.358
 30
0.000000
  70
    32
  0
VERTEX
  8
0
  5
1E79D
 10
131.547
 20
105.351
 30
0.000000
  70
    32
  0
VERTEX
  8
0
  5
1E79E
 10
131.585
 20
105.344
 30
0.000000
  70
    32
  0
VERTEX
  8
0
  5
1E79F
 10
131.624
 20
105.337
 30
0.000000
  70
    32
  0
VERTEX
  8
0
  5
1E7A0
 10
131.662
 20
105.330
 30
0.000000
  70
    32
  0
VERTEX
  8
0
  5
1E7A1
 10
131.701
 20
105.323
 30
0.000000
  70
    32
  0
VERTEX
  8
0
  5
1E7A2
 10
131.739
 20
105.316
 30
0.000000
  70
    32
  0
VERTEX
  8
0
  5
1E7A3
 10
131.777
 20
105.309
 30
0.000000
  70
    32
  0
VERTEX
  8
0
  5
1E7A4
 10
131.816
 20
105.302
 30
0.000000
  70
    32
  0
VERTEX
  8
0
  5
1E7A5
 10
131.854
 20
105.295
 30
0.000000
  70
    32
  0
VERTEX
  8
0
  5
1E7A6
 10
131.893
 20
105.288
 30
0.000000
  70
    32
  0
VERTEX
  8
0
  5
1E7A7
 10
131.931
 20
105.282
 30
0.000000
  70
    32
  0
VERTEX
  8
0
  5
1E7A8
 10
131.970
 20
105.275
 30
0.000000
  70
    32
  0
VERTEX
  8
0
  5
1E7A9
 10
132.008
 20
105.268
 30
0.000000
  70
    32
  0
VERTEX
  8
0
  5
1E7AA
 10
132.047
 20
105.261
 30
0.000000
  70
    32
  0
VERTEX
  8
0
  5
1E7AB
 10
132.085
 20
105.255
 30
0.000000
  70
    32
  0
VERTEX
  8
0
  5
1E7AC
 10
132.123
 20
105.248
 30
0.000000
  70
    32
  0
VERTEX
  8
0
  5
1E7AD
 10
132.162
 20
105.242
 30
0.000000
  70
    32
  0
SEQEND
  8
0
  5
1E7AE
  0
POLYLINE
  5
1D466
  8
0
 66
     1
 10
0.0
 20
0.0
 30
0.0
  0
VERTEX
  5
1E454
  8
0
 10
134.66531606109299
 20
104.9677808797888
 30
0.0
  0
VERTEX
  5
1E455
  8
0
 10
134.3729251252791
 20
104.97544270418049
 30
0.0
  0
VERTEX
  5
1E456
  8
0
 10
134.025502669346
 20
104.9979759461327
 30
0.0
  0
VERTEX
  5
1E457
  8
0
 10
133.6324985695727
 20
105.0348962644521
 30
0.0
  0
VERTEX
  5
1E458
  8
0
 10
133.20570775885591
 20
105.08491560813169
 30
0.0
  0
VERTEX
  5
1E459
  8
0
 10
132.7530834243361
 20
105.14730207923159
 30
0.0
  0
VERTEX
  5
1E45A
  8
0
 10
132.2908296411733
 20
105.2197714129925
 30
0.0
  0
VERTEX
  5
1E45B
  8
0
 10
132.16198493211769
 20
105.24151784556
 30
0.0
  0
SEQEND
  5
1E45C
  8
0
  0
POLYLINE
  5
1D467
  8
0
 66
     1
 10
0.0
 20
0.0
 30
0.0
  0
VERTEX
  5
1E45D
  8
0
 10
148.33801506788279
 20
105.24151784556
 30
0.0
  0
VERTEX
  5
1E45E
  8
0
 10
147.87462824059679
 20
105.16643500039081
 30
0.0
  0
VERTEX
  5
1E45F
  8
0
 10
147.40452003186061
 20
105.0992750197093
 30
0.0
  0
VERTEX
  5
1E460
  8
0
 10
146.9667727470806
 20
105.04566614080041
 30
0.0
  0
VERTEX
  5
1E461
  8
0
 10
146.54932544647281
 20
105.00419673912
 30
0.0
  0
VERTEX
  5
1E462
  8
0
 10
146.1653545934069
 20
104.97729168104701
 30
0.0
  0
VERTEX
  5
1E463
  8
0
 10
145.99073759351921
 20
104.9701697899494
 30
0.0
  0
VERTEX
  5
1E464
  8
0
 10
145.83468393890749
 20
104.9677808797888
 30
0.0
  0
SEQEND
  5
1E465
  8
0
  0
POLYLINE
  5
1D468
  8
0
 10
148.33801506788285
 20
105.24151784556
 30
0.0
 66
     1
 70
     8
  0
VERTEX
  8
0
  5
1E7AF
 10
148.338
 20
105.242
 30
0.000000
  70
    32
  0
VERTEX
  8
0
  5
1E7B0
 10
148.377
 20
105.248
 30
0.000000
  70
    32
  0
VERTEX
  8
0
  5
1E7B1
 10
148.415
 20
105.255
 30
0.000000
  70
    32
  0
VERTEX
  8
0
  5
1E7B2
 10
148.453
 20
105.261
 30
0.000000
  70
    32
  0
VERTEX
  8
0
  5
1E7B3
 10
148.492
 20
105.268
 30
0.000000
  70
    32
  0
VERTEX
  8
0
  5
1E7B4
 10
148.530
 20
105.275
 30
0.000000
  70
    32
  0
VERTEX
  8
0
  5
1E7B5
 10
148.569
 20
105.282
 30
0.000000
  70
    32
  0
VERTEX
  8
0
  5
1E7B6
 10
148.607
 20
105.288
 30
0.000000
  70
    32
  0
VERTEX
  8
0
  5
1E7B7
 10
148.646
 20
105.295
 30
0.000000
  70
    32
  0
VERTEX
  8
0
  5
1E7B8
 10
148.684
 20
105.302
 30
0.000000
  70
    32
  0
VERTEX
  8
0
  5
1E7B9
 10
148.723
 20
105.309
 30
0.000000
  70
    32
  0
VERTEX
  8
0
  5
1E7BA
 10
148.761
 20
105.316
 30
0.000000
  70
    32
  0
VERTEX
  8
0
  5
1E7BB
 10
148.799
 20
105.323
 30
0.000000
  70
    32
  0
VERTEX
  8
0
  5
1E7BC
 10
148.838
 20
105.330
 30
0.000000
  70
    32
  0
VERTEX
  8
0
  5
1E7BD
 10
148.876
 20
105.337
 30
0.000000
  70
    32
  0
VERTEX
  8
0
  5
1E7BE
 10
148.915
 20
105.344
 30
0.000000
  70
    32
  0
VERTEX
  8
0
  5
1E7BF
 10
148.953
 20
105.351
 30
0.000000
  70
    32
  0
VERTEX
  8
0
  5
1E7C0
 10
148.992
 20
105.358
 30
0.000000
  70
    32
  0
VERTEX
  8
0
  5
1E7C1
 10
149.030
 20
105.365
 30
0.000000
  70
    32
  0
VERTEX
  8
0
  5
1E7C2
 10
149.068
 20
105.372
 30
0.000000
  70
    32
  0
VERTEX
  8
0
  5
1E7C3
 10
149.107
 20
105.380
 30
0.000000
  70
    32
  0
VERTEX
  8
0
  5
1E7C4
 10
149.145
 20
105.387
 30
0.000000
  70
    32
  0
VERTEX
  8
0
  5
1E7C5
 10
149.183
 20
105.394
 30
0.000000
  70
    32
  0
VERTEX
  8
0
  5
1E7C6
 10
149.222
 20
105.401
 30
0.000000
  70
    32
  0
VERTEX
  8
0
  5
1E7C7
 10
149.260
 20
105.409
 30
0.000000
  70
    32
  0
VERTEX
  8
0
  5
1E7C8
 10
149.299
 20
105.416
 30
0.000000
  70
    32
  0
VERTEX
  8
0
  5
1E7C9
 10
149.337
 20
105.423
 30
0.000000
  70
    32
  0
VERTEX
  8
0
  5
1E7CA
 10
149.375
 20
105.431
 30
0.000000
  70
    32
  0
VERTEX
  8
0
  5
1E7CB
 10
149.414
 20
105.438
 30
0.000000
  70
    32
  0
VERTEX
  8
0
  5
1E7CC
 10
149.452
 20
105.446
 30
0.000000
  70
    32
  0
VERTEX
  8
0
  5
1E7CD
 10
149.490
 20
105.453
 30
0.000000
  70
    32
  0
VERTEX
  8
0
  5
1E7CE
 10
149.528
 20
105.461
 30
0.000000
  70
    32
  0
VERTEX
  8
0
  5
1E7CF
 10
149.567
 20
105.468
 30
0.000000
  70
    32
  0
VERTEX
  8
0
  5
1E7D0
 10
149.605
 20
105.476
 30
0.000000
  70
    32
  0
VERTEX
  8
0
  5
1E7D1
 10
149.643
 20
105.484
 30
0.000000
  70
    32
  0
VERTEX
  8
0
  5
1E7D2
 10
149.682
 20
105.491
 30
0.000000
  70
    32
  0
VERTEX
  8
0
  5
1E7D3
 10
149.720
 20
105.499
 30
0.000000
  70
    32
  0
VERTEX
  8
0
  5
1E7D4
 10
149.758
 20
105.507
 30
0.000000
  70
    32
  0
VERTEX
  8
0
  5
1E7D5
 10
149.797
 20
105.514
 30
0.000000
  70
    32
  0
VERTEX
  8
0
  5
1E7D6
 10
149.835
 20
105.522
 30
0.000000
  70
    32
  0
VERTEX
  8
0
  5
1E7D7
 10
149.873
 20
105.530
 30
0.000000
  70
    32
  0
VERTEX
  8
0
  5
1E7D8
 10
149.911
 20
105.538
 30
0.000000
  70
    32
  0
VERTEX
  8
0
  5
1E7D9
 10
149.950
 20
105.546
 30
0.000000
  70
    32
  0
VERTEX
  8
0
  5
1E7DA
 10
149.988
 20
105.554
 30
0.000000
  70
    32
  0
VERTEX
  8
0
  5
1E7DB
 10
150.026
 20
105.562
 30
0.000000
  70
    32
  0
VERTEX
  8
0
  5
1E7DC
 10
150.064
 20
105.570
 30
0.000000
  70
    32
  0
VERTEX
  8
0
  5
1E7DD
 10
150.102
 20
105.578
 30
0.000000
  70
    32
  0
VERTEX
  8
0
  5
1E7DE
 10
150.141
 20
105.586
 30
0.000000
  70
    32
  0
VERTEX
  8
0
  5
1E7DF
 10
150.179
 20
105.594
 30
0.000000
  70
    32
  0
VERTEX
  8
0
  5
1E7E0
 10
150.217
 20
105.602
 30
0.000000
  70
    32
  0
VERTEX
  8
0
  5
1E7E1
 10
150.255
 20
105.610
 30
0.000000
  70
    32
  0
VERTEX
  8
0
  5
1E7E2
 10
150.294
 20
105.618
 30
0.000000
  70
    32
  0
VERTEX
  8
0
  5
1E7E3
 10
150.332
 20
105.626
 30
0.000000
  70
    32
  0
VERTEX
  8
0
  5
1E7E4
 10
150.370
 20
105.634
 30
0.000000
  70
    32
  0
VERTEX
  8
0
  5
1E7E5
 10
150.408
 20
105.643
 30
0.000000
  70
    32
  0
VERTEX
  8
0
  5
1E7E6
 10
150.446
 20
105.651
 30
0.000000
  70
    32
  0
VERTEX
  8
0
  5
1E7E7
 10
150.484
 20
105.659
 30
0.000000
  70
    32
  0
VERTEX
  8
0
  5
1E7E8
 10
150.523
 20
105.668
 30
0.000000
  70
    32
  0
VERTEX
  8
0
  5
1E7E9
 10
150.561
 20
105.676
 30
0.000000
  70
    32
  0
VERTEX
  8
0
  5
1E7EA
 10
150.599
 20
105.684
 30
0.000000
  70
    32
  0
VERTEX
  8
0
  5
1E7EB
 10
150.637
 20
105.693
 30
0.000000
  70
    32
  0
VERTEX
  8
0
  5
1E7EC
 10
150.675
 20
105.701
 30
0.000000
  70
    32
  0
VERTEX
  8
0
  5
1E7ED
 10
150.713
 20
105.710
 30
0.000000
  70
    32
  0
VERTEX
  8
0
  5
1E7EE
 10
150.751
 20
105.718
 30
0.000000
  70
    32
  0
VERTEX
  8
0
  5
1E7EF
 10
150.789
 20
105.727
 30
0.000000
  70
    32
  0
VERTEX
  8
0
  5
1E7F0
 10
150.827
 20
105.735
 30
0.000000
  70
    32
  0
VERTEX
  8
0
  5
1E7F1
 10
150.866
 20
105.744
 30
0.000000
  70
    32
  0
VERTEX
  8
0
  5
1E7F2
 10
150.904
 20
105.753
 30
0.000000
  70
    32
  0
VERTEX
  8
0
  5
1E7F3
 10
150.942
 20
105.761
 30
0.000000
  70
    32
  0
VERTEX
  8
0
  5
1E7F4
 10
150.980
 20
105.770
 30
0.000000
  70
    32
  0
VERTEX
  8
0
  5
1E7F5
 10
151.018
 20
105.779
 30
0.000000
  70
    32
  0
VERTEX
  8
0
  5
1E7F6
 10
151.056
 20
105.787
 30
0.000000
  70
    32
  0
VERTEX
  8
0
  5
1E7F7
 10
151.094
 20
105.796
 30
0.000000
  70
    32
  0
VERTEX
  8
0
  5
1E7F8
 10
151.132
 20
105.805
 30
0.000000
  70
    32
  0
VERTEX
  8
0
  5
1E7F9
 10
151.170
 20
105.814
 30
0.000000
  70
    32
  0
VERTEX
  8
0
  5
1E7FA
 10
151.208
 20
105.823
 30
0.000000
  70
    32
  0
VERTEX
  8
0
  5
1E7FB
 10
151.246
 20
105.832
 30
0.000000
  70
    32
  0
VERTEX
  8
0
  5
1E7FC
 10
151.284
 20
105.841
 30
0.000000
  70
    32
  0
VERTEX
  8
0
  5
1E7FD
 10
151.322
 20
105.850
 30
0.000000
  70
    32
  0
VERTEX
  8
0
  5
1E7FE
 10
151.360
 20
105.859
 30
0.000000
  70
    32
  0
VERTEX
  8
0
  5
1E7FF
 10
151.398
 20
105.868
 30
0.000000
  70
    32
  0
VERTEX
  8
0
  5
1E800
 10
151.436
 20
105.877
 30
0.000000
  70
    32
  0
VERTEX
  8
0
  5
1E801
 10
151.474
 20
105.886
 30
0.000000
  70
    32
  0
VERTEX
  8
0
  5
1E802
 10
151.512
 20
105.895
 30
0.000000
  70
    32
  0
VERTEX
  8
0
  5
1E803
 10
151.550
 20
105.904
 30
0.000000
  70
    32
  0
VERTEX
  8
0
  5
1E804
 10
151.588
 20
105.913
 30
0.000000
  70
    32
  0
VERTEX
  8
0
  5
1E805
 10
151.626
 20
105.922
 30
0.000000
  70
    32
  0
VERTEX
  8
0
  5
1E806
 10
151.664
 20
105.932
 30
0.000000
  70
    32
  0
VERTEX
  8
0
  5
1E807
 10
151.702
 20
105.941
 30
0.000000
  70
    32
  0
VERTEX
  8
0
  5
1E808
 10
151.740
 20
105.950
 30
0.000000
  70
    32
  0
VERTEX
  8
0
  5
1E809
 10
151.778
 20
105.960
 30
0.000000
  70
    32
  0
VERTEX
  8
0
  5
1E80A
 10
151.816
 20
105.969
 30
0.000000
  70
    32
  0
VERTEX
  8
0
  5
1E80B
 10
151.853
 20
105.978
 30
0.000000
  70
    32
  0
VERTEX
  8
0
  5
1E80C
 10
151.891
 20
105.988
 30
0.000000
  70
    32
  0
VERTEX
  8
0
  5
1E80D
 10
151.929
 20
105.997
 30
0.000000
  70
    32
  0
VERTEX
  8
0
  5
1E80E
 10
151.967
 20
106.007
 30
0.000000
  70
    32
  0
VERTEX
  8
0
  5
1E80F
 10
152.005
 20
106.016
 30
0.000000
  70
    32
  0
VERTEX
  8
0
  5
1E810
 10
152.043
 20
106.026
 30
0.000000
  70
    32
  0
VERTEX
  8
0
  5
1E811
 10
152.081
 20
106.035
 30
0.000000
  70
    32
  0
VERTEX
  8
0
  5
1E812
 10
152.119
 20
106.045
 30
0.000000
  70
    32
  0
VERTEX
  8
0
  5
1E813
 10
152.156
 20
106.055
 30
0.000000
  70
    32
  0
VERTEX
  8
0
  5
1E814
 10
152.194
 20
106.064
 30
0.000000
  70
    32
  0
VERTEX
  8
0
  5
1E815
 10
152.232
 20
106.074
 30
0.000000
  70
    32
  0
VERTEX
  8
0
  5
1E816
 10
152.270
 20
106.084
 30
0.000000
  70
    32
  0
VERTEX
  8
0
  5
1E817
 10
152.308
 20
106.094
 30
0.000000
  70
    32
  0
VERTEX
  8
0
  5
1E818
 10
152.345
 20
106.103
 30
0.000000
  70
    32
  0
VERTEX
  8
0
  5
1E819
 10
152.383
 20
106.113
 30
0.000000
  70
    32
  0
VERTEX
  8
0
  5
1E81A
 10
152.421
 20
106.123
 30
0.000000
  70
    32
  0
VERTEX
  8
0
  5
1E81B
 10
152.459
 20
106.133
 30
0.000000
  70
    32
  0
VERTEX
  8
0
  5
1E81C
 10
152.497
 20
106.143
 30
0.000000
  70
    32
  0
VERTEX
  8
0
  5
1E81D
 10
152.534
 20
106.153
 30
0.000000
  70
    32
  0
VERTEX
  8
0
  5
1E81E
 10
152.572
 20
106.163
 30
0.000000
  70
    32
  0
VERTEX
  8
0
  5
1E81F
 10
152.610
 20
106.173
 30
0.000000
  70
    32
  0
VERTEX
  8
0
  5
1E820
 10
152.648
 20
106.183
 30
0.000000
  70
    32
  0
VERTEX
  8
0
  5
1E821
 10
152.685
 20
106.193
 30
0.000000
  70
    32
  0
VERTEX
  8
0
  5
1E822
 10
152.723
 20
106.203
 30
0.000000
  70
    32
  0
VERTEX
  8
0
  5
1E823
 10
152.761
 20
106.213
 30
0.000000
  70
    32
  0
VERTEX
  8
0
  5
1E824
 10
152.799
 20
106.223
 30
0.000000
  70
    32
  0
VERTEX
  8
0
  5
1E825
 10
152.836
 20
106.234
 30
0.000000
  70
    32
  0
VERTEX
  8
0
  5
1E826
 10
152.874
 20
106.244
 30
0.000000
  70
    32
  0
VERTEX
  8
0
  5
1E827
 10
152.912
 20
106.254
 30
0.000000
  70
    32
  0
VERTEX
  8
0
  5
1E828
 10
152.949
 20
106.264
 30
0.000000
  70
    32
  0
VERTEX
  8
0
  5
1E829
 10
152.987
 20
106.275
 30
0.000000
  70
    32
  0
VERTEX
  8
0
  5
1E82A
 10
153.025
 20
106.285
 30
0.000000
  70
    32
  0
VERTEX
  8
0
  5
1E82B
 10
153.062
 20
106.295
 30
0.000000
  70
    32
  0
VERTEX
  8
0
  5
1E82C
 10
153.100
 20
106.306
 30
0.000000
  70
    32
  0
VERTEX
  8
0
  5
1E82D
 10
153.138
 20
106.316
 30
0.000000
  70
    32
  0
VERTEX
  8
0
  5
1E82E
 10
153.175
 20
106.327
 30
0.000000
  70
    32
  0
VERTEX
  8
0
  5
1E82F
 10
153.213
 20
106.337
 30
0.000000
  70
    32
  0
SEQEND
  8
0
  5
1E830
  0
LINE
  5
1D46B
  8
0
 10
134.66531606109299
 20
104.9677808797888
 30
0.0
 11
145.83468393890749
 21
104.9677808797888
 31
0.0
  0
LINE
  5
1D46D
  8
0
 10
147.00000000000031
 20
85.391666666666637
 30
0.0
 11
147.00000000000031
 21
88.499999999999986
 31
0.0
  0
LINE
  5
1D46E
  8
0
 10
133.50000000000031
 20
88.499999999999986
 30
0.0
 11
133.50000000000031
 21
85.391666666666637
 31
0.0
  0
LINE
  5
1D46F
  8
0
 10
133.50000000000031
 20
85.391666666666637
 30
0.0
 11
147.00000000000031
 21
85.391666666666637
 31
0.0
  0
LINE
  5
1D471
  8
0
 10
147.00000000000031
 20
83.0
 30
0.0
 11
147.00000000000031
 21
84.275000000000006
 31
0.0
  0
LINE
  5
1D472
  8
0
 10
133.50000000000031
 20
84.275000000000006
 30
0.0
 11
133.50000000000031
 21
83.0
 31
0.0
  0
LINE
  5
1D473
  8
0
 10
133.50000000000031
 20
83.0
 30
0.0
 11
147.00000000000031
 21
83.0
 31
0.0
  0
LINE
  5
1D474
  8
0
 10
133.50000000000031
 20
84.275000000000006
 30
0.0
 11
147.00000000000031
 21
84.275000000000006
 31
0.0
  0
LINE
  5
1D475
  8
0
 10
160.36706341702879
 20
85.291666666666657
 30
0.0
 11
133.9583333333336
 21
85.291666666666657
 31
0.0
  0
LINE
  5
1D476
  8
0
 10
133.9583333333336
 20
84.375
 30
0.0
 11
160.36706341702879
 21
84.375
 31
0.0
  0
ARC
  5
1D477
  8
0
 10
133.9583333333336
 20
84.833333333333343
 30
0.0
 40
0.4583333333333333
 50
90.0
 51
270.0
  0
LINE
  5
1D595
  8
2
 10
163.74468024894199
 20
170.22744460202739
 30
0.0
 11
158.8333333333336
 21
170.22744460202739
 31
0.0
  0
LINE
  5
1D596
  8
2
 10
158.8333333333336
 20
169.22744460202739
 30
0.0
 11
163.74468024894199
 21
169.22744460202739
 31
0.0
  0
ARC
  5
1D598
  8
2
 10
158.8333333333336
 20
169.72744460202739
 30
0.0
 40
0.5
 50
90.0
 51
270.0
  0
LINE
  5
1D59C
  8
0
 10
173.8333333333336
 20
170.22744460202739
 30
0.0
 11
163.74468024894199
 21
170.22744460202739
 31
0.0
  0
LINE
  5
1D59D
  8
0
 10
163.74468024894199
 20
169.22744460202739
 30
0.0
 11
173.8333333333336
 21
169.22744460202739
 31
0.0
  0
ARC
  5
1D59E
  8
0
 10
173.8333333333336
 20
169.72744460202739
 30
0.0
 40
0.5
 50
270.0
 51
90.0
  0
LINE
  5
1D5A1
  8
2
 10
158.62905957422919
 20
172.48096855633449
 30
0.0
 11
156.9108790771981
 21
172.87060433044019
 31
0.0
  0
LINE
  5
1D5A2
  8
2
 10
153.7095241988319
 20
172.65664170236701
 30
0.0
 11
158.42633229696739
 21
171.58700019625019
 31
0.0
  0
ARC
  5
1D5A4
  8
2
 10
158.00119940128619
 20
169.72744460202739
 30
0.0
 40
2.8241994553698571
 50
282.84500458833821
 51
77.154995411662853
  0
LINE
  5
1D5AC
  8
2
 10
158.42633229696739
 20
167.86788900780451
 30
0.0
 11
153.7095241988319
 21
166.7982475016878
 31
0.0
  0
LINE
  5
1D5AD
  8
2
 10
156.9108790771981
 20
166.58428487361459
 30
0.0
 11
158.62905957422919
 21
166.97392064772029
 31
0.0
  0
LINE
  5
1D5C5
  8
1
 10
140.25000000000031
 20
159.97744460202739
 30
0.0
 11
140.25000000000031
 21
179.47744460202739
 31
0.0
  0
LINE
  5
1D5C6
  8
1
 10
252.8333333333336
 20
169.72744460202739
 30
0.0
 11
113.7500000000005
 21
169.72744460202739
 31
0.0
  0
LINE
  5
1D5CD
  8
0
 10
156.9108790771981
 20
172.87060433044019
 30
0.0
 11
141.74280995074599
 21
176.31030252628449
 31
0.0
  0
LINE
  5
1D5CE
  8
0
 10
144.8522653341478
 20
174.6652228265028
 30
0.0
 11
153.7095241988319
 21
172.65664170236701
 31
0.0
  0
LINE
  5
1D5CF
  8
0
 10
153.7095241988319
 20
166.7982475016878
 30
0.0
 11
144.8522653341478
 21
164.7896663775519
 31
0.0
  0
LINE
  5
1D5D0
  8
0
 10
141.74280995074599
 20
163.14458667777029
 30
0.0
 11
156.9108790771981
 21
166.58428487361459
 31
0.0
  0
LINE
  5
1D5D1
  8
0
 10
132.16198493211769
 20
172.29763676413171
 30
0.0
 11
118.2500000000002
 21
173.22744460202739
 31
0.0
  0
LINE
  5
1D5D2
  8
0
 10
148.33801506788279
 20
167.15725243992301
 30
0.0
 11
162.25000000000031
 21
166.22744460202739
 31
0.0
  0
LINE
  5
1D5D3
  8
0
 10
118.2500000000002
 20
166.22744460202739
 30
0.0
 11
132.16198493211769
 21
167.15725243992301
 31
0.0
  0
LINE
  5
1D5D4
  8
0
 10
162.25000000000031
 20
173.22744460202739
 30
0.0
 11
148.33801506788279
 21
172.29763676413171
 31
0.0
  0
POLYLINE
  5
1D5D5
  8
0
 66
     1
 10
0.0
 20
0.0
 30
0.0
  0
VERTEX
  5
1E466
  8
0
 10
134.66531606109299
 20
165.9361644353144
 30
0.0
  0
VERTEX
  5
1E467
  8
0
 10
134.47718798662629
 20
166.18236068706921
 30
0.0
  0
VERTEX
  5
1E468
  8
0
 10
134.26254765058539
 20
166.4070000174695
 30
0.0
  0
VERTEX
  5
1E469
  8
0
 10
134.025502669346
 20
166.60588449743221
 30
0.0
  0
VERTEX
  5
1E46A
  8
0
 10
133.76811414312741
 20
166.77679841390579
 30
0.0
  0
VERTEX
  5
1E46B
  8
0
 10
133.49312891702419
 20
166.91869441530341
 30
0.0
  0
VERTEX
  5
1E46C
  8
0
 10
133.20570775885579
 20
167.0291087688812
 30
0.0
  0
VERTEX
  5
1E46D
  8
0
 10
132.90595991525461
 20
167.1072623958878
 30
0.0
  0
VERTEX
  5
1E46E
  8
0
 10
132.59913699467941
 20
167.1520559547379
 30
0.0
  0
VERTEX
  5
1E46F
  8
0
 10
132.2908296411733
 20
167.16288702643479
 30
0.0
  0
VERTEX
  5
1E470
  8
0
 10
132.16198493211769
 20
167.15725243992301
 30
0.0
  0
SEQEND
  5
1E471
  8
0
  0
ARC
  5
1D5D6
  8
0
 10
140.25000000000031
 20
169.72744460202739
 30
0.0
 40
6.75
 50
214.17144687970281
 51
325.82855312029722
  0
POLYLINE
  5
1D5D7
  8
0
 66
     1
 10
0.0
 20
0.0
 30
0.0
  0
VERTEX
  5
1E472
  8
0
 10
148.33801506788279
 20
167.15725243992301
 30
0.0
  0
VERTEX
  5
1E473
  8
0
 10
148.10634054397769
 20
167.1631083434167
 30
0.0
  0
VERTEX
  5
1E474
  8
0
 10
147.87462824059679
 20
167.14978321003139
 30
0.0
  0
VERTEX
  5
1E475
  8
0
 10
147.63789394348149
 20
167.1159961840151
 30
0.0
  0
VERTEX
  5
1E476
  8
0
 10
147.40452003186061
 20
167.0620643772005
 30
0.0
  0
VERTEX
  5
1E477
  8
0
 10
147.1824488289337
 20
166.9905069267117
 30
0.0
  0
VERTEX
  5
1E478
  8
0
 10
146.9667727470806
 20
166.9005919562689
 30
0.0
  0
VERTEX
  5
1E479
  8
0
 10
146.75300831888529
 20
166.78932232361649
 30
0.0
  0
VERTEX
  5
1E47A
  8
0
 10
146.54932544647281
 20
166.65993863409881
 30
0.0
  0
VERTEX
  5
1E47B
  8
0
 10
146.3502046219451
 20
166.50730048648319
 30
0.0
  0
VERTEX
  5
1E47C
  8
0
 10
146.1653545934069
 20
166.33732576786309
 30
0.0
  0
VERTEX
  5
1E47D
  8
0
 10
145.99073759351921
 20
166.14445143953361
 30
0.0
  0
VERTEX
  5
1E47E
  8
0
 10
145.83468393890749
 20
165.9361644353144
 30
0.0
  0
SEQEND
  5
1E47F
  8
0
  0
POLYLINE
  5
1D5D8
  8
0
 66
     1
 10
0.0
 20
0.0
 30
0.0
  0
VERTEX
  5
1E480
  8
0
 10
145.83468393890749
 20
173.5187247687403
 30
0.0
  0
VERTEX
  5
1E481
  8
0
 10
146.02281201337419
 20
173.27252851698549
 30
0.0
  0
VERTEX
  5
1E482
  8
0
 10
146.23745234941509
 20
173.04788918658531
 30
0.0
  0
VERTEX
  5
1E483
  8
0
 10
146.4744973306546
 20
172.84900470662251
 30
0.0
  0
VERTEX
  5
1E484
  8
0
 10
146.73188585687311
 20
172.6780907901489
 30
0.0
  0
VERTEX
  5
1E485
  8
0
 10
147.0068710829764
 20
172.53619478875129
 30
0.0
  0
VERTEX
  5
1E486
  8
0
 10
147.29429224114469
 20
172.42578043517361
 30
0.0
  0
VERTEX
  5
1E487
  8
0
 10
147.5940400847459
 20
172.34762680816689
 30
0.0
  0
VERTEX
  5
1E488
  8
0
 10
147.9008630053211
 20
172.3028332493169
 30
0.0
  0
VERTEX
  5
1E489
  8
0
 10
148.20917035882721
 20
172.29200217761991
 30
0.0
  0
VERTEX
  5
1E48A
  8
0
 10
148.33801506788279
 20
172.29763676413171
 30
0.0
  0
SEQEND
  5
1E48B
  8
0
  0
ARC
  5
1D5D9
  8
0
 10
140.25000000000031
 20
169.72744460202739
 30
0.0
 40
6.7499999999999991
 50
34.171446879702692
 51
145.82855312029719
  0
POLYLINE
  5
1D5DA
  8
0
 66
     1
 10
0.0
 20
0.0
 30
0.0
  0
VERTEX
  5
1E48C
  8
0
 10
132.16198493211769
 20
172.29763676413171
 30
0.0
  0
VERTEX
  5
1E48D
  8
0
 10
132.3936594560229
 20
172.291780860638
 30
0.0
  0
VERTEX
  5
1E48E
  8
0
 10
132.62537175940381
 20
172.30510599402331
 30
0.0
  0
VERTEX
  5
1E48F
  8
0
 10
132.862106056519
 20
172.33889302003971
 30
0.0
  0
VERTEX
  5
1E490
  8
0
 10
133.09547996814001
 20
172.39282482685419
 30
0.0
  0
VERTEX
  5
1E491
  8
0
 10
133.31755117106681
 20
172.46438227734311
 30
0.0
  0
VERTEX
  5
1E492
  8
0
 10
133.53322725291989
 20
172.5542972477858
 30
0.0
  0
VERTEX
  5
1E493
  8
0
 10
133.74699168111519
 20
172.66556688043821
 30
0.0
  0
VERTEX
  5
1E494
  8
0
 10
133.95067455352779
 20
172.79495056995589
 30
0.0
  0
VERTEX
  5
1E495
  8
0
 10
134.1497953780555
 20
172.94758871757159
 30
0.0
  0
VERTEX
  5
1E496
  8
0
 10
134.33464540659369
 20
173.1175634361916
 30
0.0
  0
VERTEX
  5
1E497
  8
0
 10
134.5092624064813
 20
173.31043776452111
 30
0.0
  0
VERTEX
  5
1E498
  8
0
 10
134.66531606109299
 20
173.5187247687403
 30
0.0
  0
SEQEND
  5
1E499
  8
0
  0
POLYLINE
  5
1D5DB
  8
0
 66
     1
 10
0.0
 20
0.0
 30
0.0
  0
VERTEX
  5
1E49A
  8
0
 10
143.39285713500021
 20
170.2774446020274
 30
0.0
  0
VERTEX
  5
1E49B
  8
0
 10
143.29351768738439
 20
170.26834718750831
 30
0.0
  0
VERTEX
  5
1E49C
  8
0
 10
143.19608333101601
 20
170.24103984155511
 30
0.0
  0
VERTEX
  5
1E49D
  8
0
 10
143.1032907588426
 20
170.19495114379629
 30
0.0
  0
VERTEX
  5
1E49E
  8
0
 10
143.0191076707834
 20
170.13094347191131
 30
0.0
  0
VERTEX
  5
1E49F
  8
0
 10
142.9529609909022
 20
170.05744186134231
 30
0.0
  0
VERTEX
  5
1E4A0
  8
0
 10
142.90015430057579
 20
169.97187029001881
 30
0.0
  0
VERTEX
  5
1E4A1
  8
0
 10
142.866374086929
 20
169.88630718665209
 30
0.0
  0
VERTEX
  5
1E4A2
  8
0
 10
142.84709599020081
 20
169.7955971722441
 30
0.0
  0
VERTEX
  5
1E4A3
  8
0
 10
142.84324301314589
 20
169.70846932340621
 30
0.0
  0
VERTEX
  5
1E4A4
  8
0
 10
142.8530801978649
 20
169.62189433847129
 30
0.0
  0
VERTEX
  5
1E4A5
  8
0
 10
142.87585099197759
 20
169.53996093893849
 30
0.0
  0
VERTEX
  5
1E4A6
  8
0
 10
142.9105338345976
 20
169.4631261692825
 30
0.0
  0
VERTEX
  5
1E4A7
  8
0
 10
142.9571590147664
 20
169.39185661791021
 30
0.0
  0
VERTEX
  5
1E4A8
  8
0
 10
143.0132701979166
 20
169.32943234443289
 30
0.0
  0
VERTEX
  5
1E4A9
  8
0
 10
143.0811713882417
 20
169.27433460515539
 30
0.0
  0
VERTEX
  5
1E4AA
  8
0
 10
143.15555207563349
 20
169.23127294947261
 30
0.0
  0
VERTEX
  5
1E4AB
  8
0
 10
143.2414319828097
 20
169.19873918727171
 30
0.0
  0
VERTEX
  5
1E4AC
  8
0
 10
143.3301397422664
 20
169.18103218576229
 30
0.0
  0
VERTEX
  5
1E4AD
  8
0
 10
143.42811934725569
 20
169.17861447650901
 30
0.0
  0
VERTEX
  5
1E4AE
  8
0
 10
143.5244166804066
 20
169.193410814695
 30
0.0
  0
VERTEX
  5
1E4AF
  8
0
 10
143.6229667206122
 20
169.22794652659559
 30
0.0
  0
VERTEX
  5
1E4B0
  8
0
 10
143.7141714536302
 20
169.28106235703609
 30
0.0
  0
VERTEX
  5
1E4B1
  8
0
 10
143.79434958699491
 20
169.35165266005819
 30
0.0
  0
VERTEX
  5
1E4B2
  8
0
 10
143.8609948196858
 20
169.43874560968879
 30
0.0
  0
VERTEX
  5
1E4B3
  8
0
 10
143.89856303997709
 20
169.51131765432399
 30
0.0
  0
VERTEX
  5
1E4B4
  8
0
 10
143.9254571096117
 20
169.59019567837461
 30
0.0
  0
VERTEX
  5
1E4B5
  8
0
 10
143.94017465043419
 20
169.67392282701451
 30
0.0
  0
VERTEX
  5
1E4B6
  8
0
 10
143.94192614347
 20
169.75943247376071
 30
0.0
  0
VERTEX
  5
1E4B7
  8
0
 10
143.93181786306951
 20
169.83685413622479
 30
0.0
  0
VERTEX
  5
1E4B8
  8
0
 10
143.9112227102666
 20
169.9112845606293
 30
0.0
  0
VERTEX
  5
1E4B9
  8
0
 10
143.8803737383117
 20
169.98199265548041
 30
0.0
  0
VERTEX
  5
1E4BA
  8
0
 10
143.8408638302661
 20
170.04649005489739
 30
0.0
  0
VERTEX
  5
1E4BB
  8
0
 10
143.7879120117795
 20
170.11007370912751
 30
0.0
  0
VERTEX
  5
1E4BC
  8
0
 10
143.7273587782939
 20
170.1640321083006
 30
0.0
  0
VERTEX
  5
1E4BD
  8
0
 10
143.64982405308029
 20
170.21369345682939
 30
0.0
  0
VERTEX
  5
1E4BE
  8
0
 10
143.5661253788831
 20
170.24943896565759
 30
0.0
  0
VERTEX
  5
1E4BF
  8
0
 10
143.48069528388089
 20
170.2703609777104
 30
0.0
  0
VERTEX
  5
1E4C0
  8
0
 10
143.39285713500021
 20
170.2774446020274
 30
0.0
  0
SEQEND
  5
1E4C1
  8
0
  0
POLYLINE
  5
1D5DC
  8
0
 66
     1
 10
0.0
 20
0.0
 30
0.0
  0
VERTEX
  5
1E4C2
  8
0
 10
137.1071428650003
 20
170.2774446020274
 30
0.0
  0
VERTEX
  5
1E4C3
  8
0
 10
136.9838803322975
 20
170.2633590898966
 30
0.0
  0
VERTEX
  5
1E4C4
  8
0
 10
136.86673756655449
 20
170.22212155972721
 30
0.0
  0
VERTEX
  5
1E4C5
  8
0
 10
136.77588172193171
 20
170.1664214304831
 30
0.0
  0
VERTEX
  5
1E4C6
  8
0
 10
136.69590694360051
 20
170.09266373754801
 30
0.0
  0
VERTEX
  5
1E4C7
  8
0
 10
136.64398172273511
 20
170.0239811668626
 30
0.0
  0
VERTEX
  5
1E4C8
  8
0
 10
136.60252980096519
 20
169.94622681246781
 30
0.0
  0
VERTEX
  5
1E4C9
  8
0
 10
136.5735096942704
 20
169.860267869257
 30
0.0
  0
VERTEX
  5
1E4CA
  8
0
 10
136.5587425329727
 20
169.76936209040679
 30
0.0
  0
VERTEX
  5
1E4CB
  8
0
 10
136.5586148864914
 20
169.6880536419597
 30
0.0
  0
VERTEX
  5
1E4CC
  8
0
 10
136.57028317893361
 20
169.60793862947219
 30
0.0
  0
VERTEX
  5
1E4CD
  8
0
 10
136.59212173463209
 20
169.53453423431219
 30
0.0
  0
VERTEX
  5
1E4CE
  8
0
 10
136.62326678635401
 20
169.4659796129487
 30
0.0
  0
VERTEX
  5
1E4CF
  8
0
 10
136.66613536811039
 20
169.39883522894519
 30
0.0
  0
VERTEX
  5
1E4D0
  8
0
 10
136.71704626551769
 20
169.3397273815275
 30
0.0
  0
VERTEX
  5
1E4D1
  8
0
 10
136.78365255753249
 20
169.28266723641539
 30
0.0
  0
VERTEX
  5
1E4D2
  8
0
 10
136.85718584864841
 20
169.2375247208463
 30
0.0
  0
VERTEX
  5
1E4D3
  8
0
 10
136.94781317143119
 20
169.2010643677244
 30
0.0
  0
VERTEX
  5
1E4D4
  8
0
 10
137.04308557175079
 20
169.1811876449261
 30
0.0
  0
VERTEX
  5
1E4D5
  8
0
 10
137.1482758179265
 20
169.1790429091985
 30
0.0
  0
VERTEX
  5
1E4D6
  8
0
 10
137.25316421828671
 20
169.1971826249025
 30
0.0
  0
VERTEX
  5
1E4D7
  8
0
 10
137.3522353785628
 20
169.23516562087781
 30
0.0
  0
VERTEX
  5
1E4D8
  8
0
 10
137.44399395142401
 20
169.2926672502999
 30
0.0
  0
VERTEX
  5
1E4D9
  8
0
 10
137.51753779837131
 20
169.3614116395693
 30
0.0
  0
VERTEX
  5
1E4DA
  8
0
 10
137.5784258174767
 20
169.4439091038881
 30
0.0
  0
VERTEX
  5
1E4DB
  8
0
 10
137.61956124393529
 20
169.52783155022479
 30
0.0
  0
VERTEX
  5
1E4DC
  8
0
 10
137.6462264578127
 20
169.61840846141149
 30
0.0
  0
VERTEX
  5
1E4DD
  8
0
 10
137.65665822293539
 20
169.7058625393833
 30
0.0
  0
VERTEX
  5
1E4DE
  8
0
 10
137.653106083593
 20
169.79395899102639
 30
0.0
  0
VERTEX
  5
1E4DF
  8
0
 10
137.63619807208929
 20
169.87759168801119
 30
0.0
  0
VERTEX
  5
1E4E0
  8
0
 10
137.60690586460009
 20
169.9570898593939
 30
0.0
  0
VERTEX
  5
1E4E1
  8
0
 10
137.56554469120951
 20
170.03128433779841
 30
0.0
  0
VERTEX
  5
1E4E2
  8
0
 10
137.51408758262431
 20
170.09743919225531
 30
0.0
  0
VERTEX
  5
1E4E3
  8
0
 10
137.45083729453751
 20
170.1567812407375
 30
0.0
  0
VERTEX
  5
1E4E4
  8
0
 10
137.38036305787551
 20
170.2047817221063
 30
0.0
  0
VERTEX
  5
1E4E5
  8
0
 10
137.29823498224181
 20
170.24314072905199
 30
0.0
  0
VERTEX
  5
1E4E6
  8
0
 10
137.21237308017089
 20
170.2672840242773
 30
0.0
  0
VERTEX
  5
1E4E7
  8
0
 10
137.1071428650003
 20
170.2774446020274
 30
0.0
  0
SEQEND
  5
1E4E8
  8
0
  0
CIRCLE
  5
1D5DD
  8
0
 10
140.25000000000031
 20
169.72744460202739
 30
0.0
 40
5.0099999999999989
  0
POLYLINE
  5
1D5DE
  8
0
 66
     1
 10
0.0
 20
0.0
 30
0.0
  0
VERTEX
  5
1E4E9
  8
0
 10
141.82142857142881
 20
169.17744460202729
 30
0.0
  0
VERTEX
  5
1E4EA
  8
0
 10
141.72831041052891
 20
169.18544003523269
 30
0.0
  0
VERTEX
  5
1E4EB
  8
0
 10
141.63748446267331
 20
169.20911597571569
 30
0.0
  0
VERTEX
  5
1E4EC
  8
0
 10
141.55156896597049
 20
169.2482696480121
 30
0.0
  0
VERTEX
  5
1E4ED
  8
0
 10
141.47321564769081
 20
169.3017125739371
 30
0.0
  0
VERTEX
  5
1E4EE
  8
0
 10
141.4061583092944
 20
169.3669116423435
 30
0.0
  0
VERTEX
  5
1E4EF
  8
0
 10
141.35086635323361
 20
169.4427145565331
 30
0.0
  0
VERTEX
  5
1E4F0
  8
0
 10
141.30988693059581
 20
169.5255494971436
 30
0.0
  0
VERTEX
  5
1E4F1
  8
0
 10
141.2832165564148
 20
169.61418460514159
 30
0.0
  0
VERTEX
  5
1E4F2
  8
0
 10
141.271929720934
 20
169.7053218007851
 30
0.0
  0
VERTEX
  5
1E4F3
  8
0
 10
141.27585538260661
 20
169.79708579413631
 30
0.0
  0
VERTEX
  5
1E4F4
  8
0
 10
141.29501907018081
 20
169.8866056989074
 30
0.0
  0
VERTEX
  5
1E4F5
  8
0
 10
141.32861646282061
 20
169.97164989600989
 30
0.0
  0
VERTEX
  5
1E4F6
  8
0
 10
141.37589925771289
 20
170.0498472773437
 30
0.0
  0
VERTEX
  5
1E4F7
  8
0
 10
141.43521981872959
 20
170.1190346929879
 30
0.0
  0
VERTEX
  5
1E4F8
  8
0
 10
141.50542385821339
 20
170.1775360493134
 30
0.0
  0
VERTEX
  5
1E4F9
  8
0
 10
141.58395450681471
 20
170.22353538871431
 30
0.0
  0
VERTEX
  5
1E4FA
  8
0
 10
141.66984372247711
 20
170.25608960451501
 30
0.0
  0
VERTEX
  5
1E4FB
  8
0
 10
141.75952297967859
 20
170.27394958618581
 30
0.0
  0
VERTEX
  5
1E4FC
  8
0
 10
141.85256605023679
 20
170.27651230298969
 30
0.0
  0
VERTEX
  5
1E4FD
  8
0
 10
141.94446951862841
 20
170.26350516326301
 30
0.0
  0
VERTEX
  5
1E4FE
  8
0
 10
142.03471178395651
 20
170.2343499936012
 30
0.0
  0
VERTEX
  5
1E4FF
  8
0
 10
142.11874773811999
 20
170.19015543302021
 30
0.0
  0
VERTEX
  5
1E500
  8
0
 10
142.19460975051169
 20
170.1313894033288
 30
0.0
  0
VERTEX
  5
1E501
  8
0
 10
142.2595084426589
 20
170.05998937558891
 30
0.0
  0
VERTEX
  5
1E502
  8
0
 10
142.31008212708929
 20
169.97972539694129
 30
0.0
  0
VERTEX
  5
1E503
  8
0
 10
142.34640994730611
 20
169.89144019642549
 30
0.0
  0
VERTEX
  5
1E504
  8
0
 10
142.36627230777529
 20
169.80211297729301
 30
0.0
  0
VERTEX
  5
1E505
  8
0
 10
142.37116821097129
 20
169.7105233516084
 30
0.0
  0
VERTEX
  5
1E506
  8
0
 10
142.3613115197536
 20
169.62272124664091
 30
0.0
  0
VERTEX
  5
1E507
  8
0
 10
142.3377194824385
 20
169.5378563766314
 30
0.0
  0
VERTEX
  5
1E508
  8
0
 10
142.30093524441821
 20
169.4581443533902
 30
0.0
  0
VERTEX
  5
1E509
  8
0
 10
142.25233848254089
 20
169.3856600960805
 30
0.0
  0
VERTEX
  5
1E50A
  8
0
 10
142.19084555988101
 20
169.3200349518051
 30
0.0
  0
VERTEX
  5
1E50B
  8
0
 10
142.11991510550661
 20
169.26548595780241
 30
0.0
  0
VERTEX
  5
1E50C
  8
0
 10
142.0376147034834
 20
169.2217663546385
 30
0.0
  0
VERTEX
  5
1E50D
  8
0
 10
141.94925798502209
 20
169.19250568867329
 30
0.0
  0
VERTEX
  5
1E50E
  8
0
 10
141.82142857142881
 20
169.17744460202729
 30
0.0
  0
SEQEND
  5
1E50F
  8
0
  0
POLYLINE
  5
1D5DF
  8
0
 66
     1
 10
0.0
 20
0.0
 30
0.0
  0
VERTEX
  5
1E510
  8
0
 10
138.6785714285717
 20
169.17744460202729
 30
0.0
  0
VERTEX
  5
1E511
  8
0
 10
138.58340693201629
 20
169.18579539204029
 30
0.0
  0
VERTEX
  5
1E512
  8
0
 10
138.49124392281001
 20
169.21032913563221
 30
0.0
  0
VERTEX
  5
1E513
  8
0
 10
138.4047074890469
 20
169.25053866550871
 30
0.0
  0
VERTEX
  5
1E514
  8
0
 10
138.32615148470779
 20
169.30518853852209
 30
0.0
  0
VERTEX
  5
1E515
  8
0
 10
138.25821522303821
 20
169.37285607965941
 30
0.0
  0
VERTEX
  5
1E516
  8
0
 10
138.20265718681779
 20
169.4517534079427
 30
0.0
  0
VERTEX
  5
1E517
  8
0
 10
138.16277567917331
 20
169.5367040527328
 30
0.0
  0
VERTEX
  5
1E518
  8
0
 10
138.13769928687839
 20
169.6276581984439
 30
0.0
  0
VERTEX
  5
1E519
  8
0
 10
138.12872349220069
 20
169.71741180581429
 30
0.0
  0
VERTEX
  5
1E51A
  8
0
 10
138.13442314164371
 20
169.80746111178229
 30
0.0
  0
VERTEX
  5
1E51B
  8
0
 10
138.154138870606
 20
169.89301861497549
 30
0.0
  0
VERTEX
  5
1E51C
  8
0
 10
138.18694712757869
 20
169.9740324092547
 30
0.0
  0
VERTEX
  5
1E51D
  8
0
 10
138.23278249367999
 20
170.04950533020801
 30
0.0
  0
VERTEX
  5
1E51E
  8
0
 10
138.28965799310569
 20
170.11634862580971
 30
0.0
  0
VERTEX
  5
1E51F
  8
0
 10
138.35919607890469
 20
170.1751610495518
 30
0.0
  0
VERTEX
  5
1E520
  8
0
 10
138.43711927800871
 20
170.22161143518039
 30
0.0
  0
VERTEX
  5
1E521
  8
0
 10
138.52502183856541
 20
170.2555227704319
 30
0.0
  0
VERTEX
  5
1E522
  8
0
 10
138.61743342392731
 20
170.27403598906901
 30
0.0
  0
VERTEX
  5
1E523
  8
0
 10
138.71324510565611
 20
170.27629169246049
 30
0.0
  0
VERTEX
  5
1E524
  8
0
 10
138.80836776703961
 20
170.26190967153181
 30
0.0
  0
VERTEX
  5
1E525
  8
0
 10
138.89875786424599
 20
170.2313782062696
 30
0.0
  0
VERTEX
  5
1E526
  8
0
 10
138.98294851773471
 20
170.18554348610439
 30
0.0
  0
VERTEX
  5
1E527
  8
0
 10
139.05643847038991
 20
170.12700558967319
 30
0.0
  0
VERTEX
  5
1E528
  8
0
 10
139.11918930982549
 20
170.05661914952361
 30
0.0
  0
VERTEX
  5
1E529
  8
0
 10
139.168154624696
 20
169.97793206866911
 30
0.0
  0
VERTEX
  5
1E52A
  8
0
 10
139.2033754646975
 20
169.89200682024909
 30
0.0
  0
VERTEX
  5
1E52B
  8
0
 10
139.22340289747069
 20
169.80225545818601
 30
0.0
  0
VERTEX
  5
1E52C
  8
0
 10
139.22830657286681
 20
169.7103779348995
 30
0.0
  0
VERTEX
  5
1E52D
  8
0
 10
139.21779202433731
 20
169.61936962713341
 30
0.0
  0
VERTEX
  5
1E52E
  8
0
 10
139.19244775755209
 20
169.53140603818429
 30
0.0
  0
VERTEX
  5
1E52F
  8
0
 10
139.15282734453291
 20
169.4490187590776
 30
0.0
  0
VERTEX
  5
1E530
  8
0
 10
139.1003278126079
 20
169.374426822695
 30
0.0
  0
VERTEX
  5
1E531
  8
0
 10
139.03604014773799
 20
169.30952489474879
 30
0.0
  0
VERTEX
  5
1E532
  8
0
 10
138.96225197718709
 20
169.25624894591701
 30
0.0
  0
VERTEX
  5
1E533
  8
0
 10
138.88004710811941
 20
169.2157313954342
 30
0.0
  0
VERTEX
  5
1E534
  8
0
 10
138.79269313297729
 20
169.18941464321139
 30
0.0
  0
VERTEX
  5
1E535
  8
0
 10
138.67857142857179
 20
169.1774446020269
 30
0.0
  0
SEQEND
  5
1E536
  8
0
  0
POLYLINE
  5
1D5E0
  8
0
 66
     1
 10
0.0
 20
0.0
 30
0.0
  0
VERTEX
  5
1E537
  8
0
 10
140.25000000000031
 20
169.17744460202729
 30
0.0
  0
VERTEX
  5
1E538
  8
0
 10
140.15784496143431
 20
169.18527639975571
 30
0.0
  0
VERTEX
  5
1E539
  8
0
 10
140.0682917143769
 20
169.20832794949561
 30
0.0
  0
VERTEX
  5
1E53A
  8
0
 10
139.98394260076071
 20
169.24614081750519
 30
0.0
  0
VERTEX
  5
1E53B
  8
0
 10
139.90707404839461
 20
169.29744251864241
 30
0.0
  0
VERTEX
  5
1E53C
  8
0
 10
139.83983380673101
 20
169.3611066674269
 30
0.0
  0
VERTEX
  5
1E53D
  8
0
 10
139.7841376009826
 20
169.4350882694784
 30
0.0
  0
VERTEX
  5
1E53E
  8
0
 10
139.7416829904241
 20
169.51755772819189
 30
0.0
  0
VERTEX
  5
1E53F
  8
0
 10
139.71358034481671
 20
169.60597874866599
 30
0.0
  0
VERTEX
  5
1E540
  8
0
 10
139.70086144358811
 20
169.69769022376741
 30
0.0
  0
VERTEX
  5
1E541
  8
0
 10
139.70359702069899
 20
169.79024415784349
 30
0.0
  0
VERTEX
  5
1E542
  8
0
 10
139.72186326123881
 20
169.88077784862151
 30
0.0
  0
VERTEX
  5
1E543
  8
0
 10
139.7549100475635
 20
169.9669982264962
 30
0.0
  0
VERTEX
  5
1E544
  8
0
 10
139.80205998077571
 20
170.04648986653069
 30
0.0
  0
VERTEX
  5
1E545
  8
0
 10
139.8617623885352
 20
170.11702329374941
 30
0.0
  0
VERTEX
  5
1E546
  8
0
 10
139.9327259716429
 20
170.17664011507139
 30
0.0
  0
VERTEX
  5
1E547
  8
0
 10
140.01265096174291
 20
170.22359521831069
 30
0.0
  0
VERTEX
  5
1E548
  8
0
 10
140.09939946447571
 20
170.25636607269149
 30
0.0
  0
VERTEX
  5
1E549
  8
0
 10
140.19042060298329
 20
170.27420807506769
 30
0.0
  0
VERTEX
  5
1E54A
  8
0
 10
140.28288998259211
 20
170.2764045253671
 30
0.0
  0
VERTEX
  5
1E54B
  8
0
 10
140.37443014336421
 20
170.26318440773761
 30
0.0
  0
VERTEX
  5
1E54C
  8
0
 10
140.46228988456269
 20
170.2347638750966
 30
0.0
  0
VERTEX
  5
1E54D
  8
0
 10
140.5441864685954
 20
170.1921534589427
 30
0.0
  0
VERTEX
  5
1E54E
  8
0
 10
140.6178782011651
 20
170.13623019752509
 30
0.0
  0
VERTEX
  5
1E54F
  8
0
 10
140.6812302124635
 20
170.06882489416341
 30
0.0
  0
VERTEX
  5
1E550
  8
0
 10
140.7324103484203
 20
169.99148868761571
 30
0.0
  0
VERTEX
  5
1E551
  8
0
 10
140.76997677979631
 20
169.90667670984541
 30
0.0
  0
VERTEX
  5
1E552
  8
0
 10
140.79263329657161
 20
169.8168172881312
 30
0.0
  0
VERTEX
  5
1E553
  8
0
 10
140.79999170365801
 20
169.7244236903
 30
0.0
  0
VERTEX
  5
1E554
  8
0
 10
140.79166715090449
 20
169.63238769936109
 30
0.0
  0
VERTEX
  5
1E555
  8
0
 10
140.7681617947766
 20
169.54303106013251
 30
0.0
  0
VERTEX
  5
1E556
  8
0
 10
140.7299450830088
 20
169.45894358832331
 30
0.0
  0
VERTEX
  5
1E557
  8
0
 10
140.67829846301831
 20
169.3823932629829
 30
0.0
  0
VERTEX
  5
1E558
  8
0
 10
140.61429843438319
 20
169.3154659362738
 30
0.0
  0
VERTEX
  5
1E559
  8
0
 10
140.54003678055321
 20
169.26013457011439
 30
0.0
  0
VERTEX
  5
1E55A
  8
0
 10
140.45735748960601
 20
169.21809056254949
 30
0.0
  0
VERTEX
  5
1E55B
  8
0
 10
140.36879814625149
 20
169.19042784209589
 30
0.0
  0
VERTEX
  5
1E55C
  8
0
 10
140.25000000000031
 20
169.17744460202729
 30
0.0
  0
SEQEND
  5
1E55D
  8
0
  0
POLYLINE
  5
1D5E2
  8
0
 66
     1
 10
0.0
 20
0.0
 30
0.0
  0
VERTEX
  5
1E55E
  8
0
 10
163.64366515203901
 20
167.49441286148081
 30
0.0
  0
VERTEX
  5
1E55F
  8
0
 10
163.64298012149919
 20
167.4874218142071
 30
0.0
  0
VERTEX
  5
1E560
  8
0
 10
163.6225186457529
 20
167.3514198856567
 30
0.0
  0
VERTEX
  5
1E561
  8
0
 10
163.5886966864297
 20
167.2176993375727
 30
0.0
  0
VERTEX
  5
1E562
  8
0
 10
163.54120406479711
 20
167.0863439379477
 30
0.0
  0
VERTEX
  5
1E563
  8
0
 10
163.48028310513439
 20
166.95931027330181
 30
0.0
  0
VERTEX
  5
1E564
  8
0
 10
163.40410676620141
 20
166.83495646890989
 30
0.0
  0
VERTEX
  5
1E565
  8
0
 10
163.31396089645759
 20
166.71750657622039
 30
0.0
  0
VERTEX
  5
1E566
  8
0
 10
163.20887163717589
 20
166.6073615533461
 30
0.0
  0
VERTEX
  5
1E567
  8
0
 10
163.0896630276273
 20
166.50719195193631
 30
0.0
  0
VERTEX
  5
1E568
  8
0
 10
162.9168488670372
 20
166.39646426565659
 30
0.0
  0
VERTEX
  5
1E569
  8
0
 10
162.72034694146689
 20
166.3088188952201
 30
0.0
  0
VERTEX
  5
1E56A
  8
0
 10
162.6114998105366
 20
166.27491990705241
 30
0.0
  0
VERTEX
  5
1E56B
  8
0
 10
162.49706522532409
 20
166.2494174707866
 30
0.0
  0
VERTEX
  5
1E56C
  8
0
 10
162.37610533409759
 20
166.2331327879551
 30
0.0
  0
VERTEX
  5
1E56D
  8
0
 10
162.25000000000031
 20
166.22744460202739
 30
0.0
  0
SEQEND
  5
1E56E
  8
0
  0
POLYLINE
  5
1D5E3
  8
0
 66
     1
 10
0.0
 20
0.0
 30
0.0
  0
VERTEX
  5
1E56F
  8
0
 10
162.25000000000031
 20
173.22744460202739
 30
0.0
  0
VERTEX
  5
1E570
  8
0
 10
162.4417582926614
 20
173.21426430340139
 30
0.0
  0
VERTEX
  5
1E571
  8
0
 10
162.62097992964991
 20
173.17739789447759
 30
0.0
  0
VERTEX
  5
1E572
  8
0
 10
162.79010830188949
 20
173.11907349444479
 30
0.0
  0
VERTEX
  5
1E573
  8
0
 10
162.9446133483676
 20
173.0429742381408
 30
0.0
  0
VERTEX
  5
1E574
  8
0
 10
163.09293887421481
 20
172.94525363159079
 30
0.0
  0
VERTEX
  5
1E575
  8
0
 10
163.22410342833359
 20
172.8330025398686
 30
0.0
  0
VERTEX
  5
1E576
  8
0
 10
163.33776130094731
 20
172.708793200575
 30
0.0
  0
VERTEX
  5
1E577
  8
0
 10
163.43628220225489
 20
172.5709018384581
 30
0.0
  0
VERTEX
  5
1E578
  8
0
 10
163.51633163194921
 20
172.42442881637041
 30
0.0
  0
VERTEX
  5
1E579
  8
0
 10
163.57774362822511
 20
172.27140052068191
 30
0.0
  0
VERTEX
  5
1E57A
  8
0
 10
163.6188491757004
 20
172.121131398096
 30
0.0
  0
VERTEX
  5
1E57B
  8
0
 10
163.64298012149931
 20
171.96746738984621
 30
0.0
  0
VERTEX
  5
1E57C
  8
0
 10
163.64366515838529
 20
171.96047627623679
 30
0.0
  0
SEQEND
  5
1E57D
  8
0
  0
ARC
  5
1D5E4
  8
0
 10
140.2500000000002
 20
169.72744460202739
 30
0.0
 40
23.500000000000341
 50
354.5474212249967
 51
5.4525747012121144
  0
POLYLINE
  5
1D5E6
  8
0
 66
     1
 10
0.0
 20
0.0
 30
0.0
  0
VERTEX
  5
1E57E
  8
0
 10
116.85633484796151
 20
171.960476342574
 30
0.0
  0
VERTEX
  5
1E57F
  8
0
 10
116.8570198785014
 20
171.9674673898476
 30
0.0
  0
VERTEX
  5
1E580
  8
0
 10
116.87748135424761
 20
172.10346931839811
 30
0.0
  0
VERTEX
  5
1E581
  8
0
 10
116.9113033135709
 20
172.23718986648211
 30
0.0
  0
VERTEX
  5
1E582
  8
0
 10
116.9587959352034
 20
172.36854526610711
 30
0.0
  0
VERTEX
  5
1E583
  8
0
 10
117.01971689486609
 20
172.49557893075291
 30
0.0
  0
VERTEX
  5
1E584
  8
0
 10
117.0958932337992
 20
172.61993273514491
 30
0.0
  0
VERTEX
  5
1E585
  8
0
 10
117.1860391035428
 20
172.73738262783439
 30
0.0
  0
VERTEX
  5
1E586
  8
0
 10
117.29112836282469
 20
172.8475276507086
 30
0.0
  0
VERTEX
  5
1E587
  8
0
 10
117.4103369723732
 20
172.94769725211839
 30
0.0
  0
VERTEX
  5
1E588
  8
0
 10
117.58315113296329
 20
173.0584249383981
 30
0.0
  0
VERTEX
  5
1E589
  8
0
 10
117.7796530585336
 20
173.1460703088346
 30
0.0
  0
VERTEX
  5
1E58A
  8
0
 10
117.8885001894639
 20
173.17996929700229
 30
0.0
  0
VERTEX
  5
1E58B
  8
0
 10
118.0029347746764
 20
173.2054717332681
 30
0.0
  0
VERTEX
  5
1E58C
  8
0
 10
118.1238946659029
 20
173.22175641609959
 30
0.0
  0
VERTEX
  5
1E58D
  8
0
 10
118.2500000000002
 20
173.22744460202739
 30
0.0
  0
SEQEND
  5
1E58E
  8
0
  0
POLYLINE
  5
1D5E7
  8
0
 66
     1
 10
0.0
 20
0.0
 30
0.0
  0
VERTEX
  5
1E58F
  8
0
 10
118.2500000000002
 20
166.22744460202739
 30
0.0
  0
VERTEX
  5
1E590
  8
0
 10
118.05824170733921
 20
166.2406249006533
 30
0.0
  0
VERTEX
  5
1E591
  8
0
 10
117.87902007035071
 20
166.2774913095771
 30
0.0
  0
VERTEX
  5
1E592
  8
0
 10
117.70989169811099
 20
166.3358157096099
 30
0.0
  0
VERTEX
  5
1E593
  8
0
 10
117.5553866516329
 20
166.41191496591401
 30
0.0
  0
VERTEX
  5
1E594
  8
0
 10
117.4070611257858
 20
166.50963557246399
 30
0.0
  0
VERTEX
  5
1E595
  8
0
 10
117.27589657166691
 20
166.62188666418609
 30
0.0
  0
VERTEX
  5
1E596
  8
0
 10
117.1622386990532
 20
166.74609600347969
 30
0.0
  0
VERTEX
  5
1E597
  8
0
 10
117.0637177977456
 20
166.8839873655966
 30
0.0
  0
VERTEX
  5
1E598
  8
0
 10
116.9836683680514
 20
167.03046038768429
 30
0.0
  0
VERTEX
  5
1E599
  8
0
 10
116.9222563717754
 20
167.1834886833729
 30
0.0
  0
VERTEX
  5
1E59A
  8
0
 10
116.88115082430009
 20
167.33375780595881
 30
0.0
  0
VERTEX
  5
1E59B
  8
0
 10
116.8570198785013
 20
167.48742181420829
 30
0.0
  0
VERTEX
  5
1E59C
  8
0
 10
116.85633484161519
 20
167.4944129278179
 30
0.0
  0
SEQEND
  5
1E59D
  8
0
  0
ARC
  5
1D5E8
  8
0
 10
140.25000000000051
 20
169.72744460202739
 30
0.0
 40
23.50000000000049
 50
174.54734649757211
 51
185.45267901805821
  0
LINE
  5
1D9CA
  8
0
 10
46.0
 20
79.833333333333314
 30
0.0
 11
46.0
 21
80.833333333333314
 31
0.0
  0
LINE
  5
1D9CB
  8
0
 10
46.0
 20
79.833333333333314
 30
0.0
 11
46.999999999999993
 21
79.833333333333314
 31
0.0
  0
LINE
  5
1D9CC
  8
0
 10
54.0
 20
80.833333333333314
 30
0.0
 11
54.0
 21
79.833333333333314
 31
0.0
  0
LINE
  5
1D9CD
  8
0
 10
53.0
 20
79.833333333333314
 30
0.0
 11
54.0
 21
79.833333333333314
 31
0.0
  0
LINE
  5
1D9D6
  8
0
 10
46.999999999999993
 20
80.022965276373824
 30
0.0
 11
46.0
 21
80.022965276373824
 31
0.0
  0
LINE
  5
1D9D9
  8
0
 10
54.0
 20
80.022965276373824
 30
0.0
 11
53.0
 21
80.022965276373824
 31
0.0
  0
LINE
  5
1D9DA
  8
0
 10
45.0
 20
80.833333333333314
 30
0.0
 11
45.0
 21
83.0
 31
0.0
  0
LINE
  5
1D9DB
  8
0
 10
46.999999999999993
 20
80.833333333333314
 30
0.0
 11
45.0
 21
80.833333333333314
 31
0.0
  0
LINE
  5
1D9DC
  8
0
 10
55.0
 20
80.833333333333314
 30
0.0
 11
53.0
 21
80.833333333333314
 31
0.0
  0
LINE
  5
1D9DD
  8
0
 10
55.0
 20
83.0
 30
0.0
 11
55.0
 21
80.833333333333314
 31
0.0
  0
LINE
  5
1DA8C
  8
1
 10
50.0
 20
50.0
 30
0.0
 11
50.0
 21
110.0000000000001
 31
0.0
  0
LINE
  5
1DA8F
  8
1
 10
44.189583333333303
 20
84.833333333333385
 30
0.0
 11
43.227083333333383
 21
84.833333333333385
 31
0.0
  0
LINE
  5
1DA91
  8
1
 10
58.24999999999995
 20
84.833333333333371
 30
0.0
 11
41.750000000000028
 21
84.833333333333371
 31
0.0
  0
ARC
  5
1DA97
  8
0
 10
50.0
 20
100.2830104273674
 30
0.0
 40
6.7169895726326123
 50
44.222845804198208
 51
60.259232360214789
  0
ARC
  5
1DA98
  8
0
 10
50.000000000000227
 20
100.2830104273671
 30
0.0
 40
6.7169895726329489
 50
119.7348522607024
 51
135.7771541957994
  0
ARC
  5
1DA99
  8
0
 10
56.581612318840598
 20
84.833333333333343
 30
0.0
 40
0.5982789855072606
 50
230.00373096165811
 51
248.944427760075
  0
ARC
  5
1DA9A
  8
0
 10
56.581612318840598
 20
84.833333333333343
 30
0.0
 40
0.5982789855072472
 50
111.0555722399249
 51
129.99626903834189
  0
ARC
  5
1DA9B
  8
0
 10
43.418387681159402
 20
84.833333333333343
 30
0.0
 40
0.5982789855072375
 50
50.0037309616581
 51
68.944427760075015
  0
ARC
  5
1DA9C
  8
0
 10
43.418387681159402
 20
84.833333333333286
 30
0.0
 40
0.5982789855072054
 50
291.05557223992503
 51
309.99626903834172
  0
LINE
  5
1DA9D
  8
0
 10
43.25
 20
83.0
 30
0.0
 11
56.75
 21
83.0
 31
0.0
  0
LINE
  5
1DA9E
  8
0
 10
43.25
 20
84.275000000000006
 30
0.0
 11
56.75
 21
84.275000000000006
 31
0.0
  0
LINE
  5
1DA9F
  8
0
 10
56.75
 20
83.0
 30
0.0
 11
56.75
 21
84.275000000000006
 31
0.0
  0
LINE
  5
1DAA0
  8
0
 10
43.25
 20
84.275000000000006
 30
0.0
 11
43.25
 21
83.0
 31
0.0
  0
LINE
  5
1DAA1
  8
0
 10
56.291666666666622
 20
85.291666666666657
 30
0.0
 11
43.708333333333371
 21
85.291666666666657
 31
0.0
  0
LINE
  5
1DAA2
  8
0
 10
43.708333333333371
 20
84.375
 30
0.0
 11
56.291666666666622
 21
84.375
 31
0.0
  0
ARC
  5
1DAA3
  8
0
 10
56.291666666666622
 20
84.833333333333343
 30
0.0
 40
0.4583333333333333
 50
270.0
 51
90.0
  0
ARC
  5
1DAA4
  8
0
 10
43.708333333333371
 20
84.833333333333343
 30
0.0
 40
0.4583333333333333
 50
90.0
 51
270.0
  0
LINE
  5
1DAA5
  8
0
 10
43.25
 20
85.39166666666668
 30
0.0
 11
56.75
 21
85.39166666666668
 31
0.0
  0
LINE
  5
1DAA6
  8
0
 10
56.75
 20
85.39166666666668
 30
0.0
 11
56.75
 21
104.9677808797888
 31
0.0
  0
LINE
  5
1DAA7
  8
0
 10
43.25
 20
104.9677808797888
 30
0.0
 11
43.25
 21
85.39166666666668
 31
0.0
  0
LINE
  5
1DAA8
  8
0
 10
53.791280166712959
 20
104.9677808797888
 30
0.0
 11
53.791280166712959
 21
88.499999999999986
 31
0.0
  0
LINE
  5
1DAA9
  8
0
 10
52.563959346986557
 20
88.916892127594636
 30
0.0
 11
52.570192162104092
 21
88.968049536206536
 31
0.0
  0
LINE
  5
1DAAA
  8
0
 10
46.208719833287027
 20
104.9677808797888
 30
0.0
 11
46.208719833287027
 21
88.499999999999986
 31
0.0
  0
POLYLINE
  5
1DAAB
  8
0
 66
     1
 10
0.0
 20
0.0
 30
0.0
  0
VERTEX
  5
1E59E
  8
0
 10
46.566585764534118
 20
104.97521744812801
 30
0.0
  0
VERTEX
  5
1E59F
  8
0
 10
46.417006837506221
 20
104.97016978994949
 30
0.0
  0
VERTEX
  5
1E5A0
  8
0
 10
46.208719833285947
 20
104.96778087978871
 30
0.0
  0
SEQEND
  5
1E5A1
  8
0
  0
LINE
  5
1DAAC
  8
0
 10
47.436040652968352
 20
88.916895017365306
 30
0.0
 11
47.435656140295009
 21
88.904700366110148
 31
0.0
  0
LINE
  5
1DAAD
  8
0
 10
47.435656140295009
 20
88.904700366110148
 30
0.0
 11
47.422193085792387
 21
88.844080592686694
 31
0.0
  0
LINE
  5
1DAAE
  8
0
 10
47.422193085792387
 20
88.844080592686694
 30
0.0
 11
47.388044261690929
 21
88.785133927344589
 31
0.0
  0
LINE
  5
1DAAF
  8
0
 10
47.388044261690929
 20
88.785133927344589
 30
0.0
 11
47.333389551177959
 21
88.730165381120955
 31
0.0
  0
LINE
  5
1DAB0
  8
0
 10
47.333389551177959
 20
88.730165381120955
 30
0.0
 11
47.260577197458808
 21
88.681043842498923
 31
0.0
  0
LINE
  5
1DAB1
  8
0
 10
47.260577197458808
 20
88.681043842498923
 30
0.0
 11
47.168768704447189
 21
88.636771210501479
 31
0.0
  0
LINE
  5
1DAB2
  8
0
 10
47.168768704447189
 20
88.636771210501479
 30
0.0
 11
47.054565485056621
 21
88.596765352222249
 31
0.0
  0
LINE
  5
1DAB3
  8
0
 10
47.054565485056621
 20
88.596765352222249
 30
0.0
 11
46.921307911307387
 21
88.563034761646733
 31
0.0
  0
LINE
  5
1DAB4
  8
0
 10
46.921307911307387
 20
88.563034761646733
 30
0.0
 11
46.770828079459697
 21
88.536268899408725
 31
0.0
  0
LINE
  5
1DAB5
  8
0
 10
46.770828079459697
 20
88.536268899408725
 30
0.0
 11
46.603508747102907
 21
88.516628841329336
 31
0.0
  0
LINE
  5
1DAB6
  8
0
 10
46.603508747102907
 20
88.516628841329336
 30
0.0
 11
46.413611601199818
 21
88.504190654992954
 31
0.0
  0
LINE
  5
1DAB7
  8
0
 10
46.413611601199818
 20
88.504190654992954
 30
0.0
 11
46.2087198332855
 21
88.499999999999716
 31
0.0
  0
POLYLINE
  5
1DAB8
  8
0
 66
     1
 10
0.0
 20
0.0
 30
0.0
  0
VERTEX
  5
1E5A2
  8
0
 10
53.791280166712959
 20
104.9677808797888
 30
0.0
  0
VERTEX
  5
1E5A3
  8
0
 10
53.54508391495812
 20
104.9712028843786
 30
0.0
  0
VERTEX
  5
1E5A4
  8
0
 10
53.431676426745071
 20
104.975295048318
 30
0.0
  0
SEQEND
  5
1E5A5
  8
0
  0
LINE
  5
1DAB9
  8
0
 10
53.791280166712959
 20
104.9677808797888
 30
0.0
 11
56.75
 21
104.9677808797888
 31
0.0
  0
LINE
  5
1DABA
  8
0
 10
43.25
 20
104.9677808797888
 30
0.0
 11
46.208719833287027
 21
104.9677808797888
 31
0.0
  0
LINE
  5
1DABB
  8
0
 10
47.42980783789573
 20
88.968049536206564
 30
0.0
 11
47.337409454062652
 21
89.373205721900831
 31
0.0
  0
LINE
  5
1DABC
  8
0
 10
47.337409454062652
 20
89.373205721900831
 30
0.0
 11
47.245731061887447
 21
89.814423045617374
 31
0.0
  0
LINE
  5
1DABD
  8
0
 10
47.245731061887447
 20
89.814423045617374
 30
0.0
 11
47.154857602321151
 21
90.290899093604793
 31
0.0
  0
LINE
  5
1DABE
  8
0
 10
47.154857602321151
 20
90.290899093604793
 30
0.0
 11
47.064287827631681
 21
90.805347383797113
 31
0.0
  0
LINE
  5
1DABF
  8
0
 10
47.064287827631681
 20
90.805347383797113
 30
0.0
 11
46.974614827176367
 21
91.354623318338867
 31
0.0
  0
LINE
  5
1DAC0
  8
0
 10
46.974614827176367
 20
91.354623318338867
 30
0.0
 11
46.885924792324317
 21
91.938093482462904
 31
0.0
  0
LINE
  5
1DAC1
  8
0
 10
46.885924792324317
 20
91.938093482462904
 30
0.0
 11
46.807629672489043
 21
92.487464519815575
 31
0.0
  0
LINE
  5
1DAC2
  8
0
 10
46.807629672489043
 20
92.487464519815575
 30
0.0
 11
46.73015062766035
 21
93.063786161782588
 31
0.0
  0
LINE
  5
1DAC3
  8
0
 10
53.26984937233965
 20
93.063786161782588
 30
0.0
 11
53.186091011850351
 21
92.442196695028684
 31
0.0
  0
LINE
  5
1DAC4
  8
0
 10
53.186091011850351
 20
92.442196695028684
 30
0.0
 11
53.101335782314777
 21
91.851774875409973
 31
0.0
  0
LINE
  5
1DAC5
  8
0
 10
53.101335782314777
 20
91.851774875409973
 30
0.0
 11
53.015422685888041
 21
91.291598128933614
 31
0.0
  0
LINE
  5
1DAC6
  8
0
 10
53.015422685888041
 20
91.291598128933614
 30
0.0
 11
52.928609532266869
 21
90.763547465051573
 31
0.0
  0
LINE
  5
1DAC7
  8
0
 10
52.928609532266869
 20
90.763547465051573
 30
0.0
 11
52.840284002454602
 21
90.264427721745449
 31
0.0
  0
LINE
  5
1DAC8
  8
0
 10
52.840284002454602
 20
90.264427721745449
 30
0.0
 11
52.751149310114151
 21
89.798781054032005
 31
0.0
  0
LINE
  5
1DAC9
  8
0
 10
52.751149310114151
 20
89.798781054032005
 30
0.0
 11
52.661025536196291
 21
89.366029637233396
 31
0.0
  0
LINE
  5
1DACA
  8
0
 10
52.661025536196291
 20
89.366029637233396
 30
0.0
 11
52.57019216210432
 21
88.968049536206564
 31
0.0
  0
LINE
  5
1DACB
  8
0
 10
47.42980783789573
 20
88.968049536206564
 30
0.0
 11
47.436040652968352
 21
88.916895017365306
 31
0.0
  0
LINE
  5
1DACC
  8
0
 10
46.208719833287027
 20
88.499999999999986
 30
0.0
 11
53.791280166712959
 21
88.499999999999986
 31
0.0
  0
LINE
  5
1DACD
  8
0
 10
53.791280166712959
 20
88.499999999999986
 30
0.0
 11
53.551425545924872
 21
88.505897099002325
 31
0.0
  0
LINE
  5
1DACE
  8
0
 10
53.551425545924872
 20
88.505897099002325
 30
0.0
 11
53.332068194322339
 21
88.523216537279964
 31
0.0
  0
LINE
  5
1DACF
  8
0
 10
53.332068194322339
 20
88.523216537279964
 30
0.0
 11
53.137277222832502
 21
88.551400526738647
 31
0.0
  0
LINE
  5
1DAD0
  8
0
 10
53.137277222832502
 20
88.551400526738647
 30
0.0
 11
52.969219367420749
 21
88.589974324156486
 31
0.0
  0
LINE
  5
1DAD1
  8
0
 10
52.969219367420749
 20
88.589974324156486
 30
0.0
 11
52.828457285121658
 21
88.638042962459252
 31
0.0
  0
LINE
  5
1DAD2
  8
0
 10
52.828457285121658
 20
88.638042962459252
 30
0.0
 11
52.717068857466472
 21
88.694341752659625
 31
0.0
  0
LINE
  5
1DAD3
  8
0
 10
52.717068857466472
 20
88.694341752659625
 30
0.0
 11
52.634137953707523
 21
88.759934919190655
 31
0.0
  0
LINE
  5
1DAD4
  8
0
 10
52.634137953707523
 20
88.759934919190655
 30
0.0
 11
52.583004760187691
 21
88.832360246471154
 31
0.0
  0
LINE
  5
1DAD5
  8
0
 10
52.583004760187691
 20
88.832360246471154
 30
0.0
 11
52.564073635718607
 21
88.910098517775396
 31
0.0
  0
LINE
  5
1DAD6
  8
0
 10
52.564073635718607
 20
88.910098517775396
 30
0.0
 11
52.563959346986557
 21
88.916892127594636
 31
0.0
  0
LINE
  5
1DAD7
  8
0
 10
46.5
 20
103.8149000939285
 30
0.0
 11
46.5
 21
95.785099906061163
 31
0.0
  0
LINE
  5
1DAD8
  8
0
 10
53.5
 20
103.8149000939285
 30
0.0
 11
53.5
 21
95.785099906071778
 31
0.0
  0
POLYLINE
  5
1DAD9
  8
0
 66
     1
 10
0.0
 20
0.0
 30
0.0
  0
VERTEX
  5
1E5A6
  8
0
 10
46.5
 20
103.8149000939285
 30
0.0
  0
VERTEX
  5
1E5A7
  8
0
 10
46.51148520054943
 20
104.0591162249834
 30
0.0
  0
VERTEX
  5
1E5A8
  8
0
 10
46.523636392278938
 20
104.29597435799209
 30
0.0
  0
VERTEX
  5
1E5A9
  8
0
 10
46.536524433038707
 20
104.5266334375421
 30
0.0
  0
VERTEX
  5
1E5AA
  8
0
 10
46.550043471057393
 20
104.7490221390252
 30
0.0
  0
VERTEX
  5
1E5AB
  8
0
 10
46.564485090748292
 20
104.9673147287624
 30
0.0
  0
VERTEX
  5
1E5AC
  8
0
 10
46.579533998079341
 20
105.1761795343717
 30
0.0
  0
VERTEX
  5
1E5AD
  8
0
 10
46.595280210015169
 20
105.37666199129841
 30
0.0
  0
VERTEX
  5
1E5AE
  8
0
 10
46.611585247537043
 20
105.5668347200745
 30
0.0
  0
VERTEX
  5
1E5AF
  8
0
 10
46.627819403656069
 20
105.7402245452143
 30
0.0
  0
VERTEX
  5
1E5B0
  8
0
 10
46.64451752869342
 20
105.9034060915189
 30
0.0
  0
VERTEX
  5
1E5B1
  8
0
 10
46.661771123483611
 20
106.0571174435897
 30
0.0
  0
VERTEX
  5
1E5B2
  8
0
 10
46.679435765790167
 20
106.19994500872239
 30
0.0
  0
VERTEX
  5
1E5B3
  8
0
 10
46.697874835021139
 20
106.33436116188101
 30
0.0
  0
VERTEX
  5
1E5B4
  8
0
 10
46.716677282866328
 20
106.4569364671092
 30
0.0
  0
VERTEX
  5
1E5B5
  8
0
 10
46.735949748547341
 20
106.5682090519871
 30
0.0
  0
VERTEX
  5
1E5B6
  8
0
 10
46.75552100537891
 20
106.667061632383
 30
0.0
  0
VERTEX
  5
1E5B7
  8
0
 10
46.774732964482887
 20
106.750814435612
 30
0.0
  0
VERTEX
  5
1E5B8
  8
0
 10
46.794158863976179
 20
106.8226184462161
 30
0.0
  0
VERTEX
  5
1E5B9
  8
0
 10
46.813901140880709
 20
106.88272053522179
 30
0.0
  0
VERTEX
  5
1E5BA
  8
0
 10
46.833792559966689
 20
106.930502813733
 30
0.0
  0
VERTEX
  5
1E5BB
  8
0
 10
46.854229696123532
 20
106.9665068301407
 30
0.0
  0
VERTEX
  5
1E5BC
  8
0
 10
46.874750041086543
 20
106.9895293554041
 30
0.0
  0
VERTEX
  5
1E5BD
  8
0
 10
46.895465768744032
 20
106.99955418923101
 30
0.0
  0
VERTEX
  5
1E5BE
  8
0
 10
46.900332422677302
 20
107.0000000000001
 30
0.0
  0
SEQEND
  5
1E5BF
  8
0
  0
LINE
  5
1DADC
  8
0
 10
46.73015062766035
 20
93.063786161782588
 30
0.0
 11
46.705426770209669
 21
93.21473073156838
 31
0.0
  0
LINE
  5
1DADD
  8
0
 10
46.705426770209669
 20
93.21473073156838
 30
0.0
 11
46.681276957090972
 21
93.386013349113014
 31
0.0
  0
LINE
  5
1DADE
  8
0
 10
46.681276957090972
 20
93.386013349113014
 30
0.0
 11
46.657812195226477
 21
93.576871313512115
 31
0.0
  0
LINE
  5
1DADF
  8
0
 10
46.657812195226477
 20
93.576871313512115
 30
0.0
 11
46.63444376420329
 21
93.793313429786707
 31
0.0
  0
LINE
  5
1DAE0
  8
0
 10
46.63444376420329
 20
93.793313429786707
 30
0.0
 11
46.611915831229112
 21
94.029528535128264
 31
0.0
  0
LINE
  5
1DAE1
  8
0
 10
46.611915831229112
 20
94.029528535128264
 30
0.0
 11
46.590338812121551
 21
94.284384307147008
 31
0.0
  0
LINE
  5
1DAE2
  8
0
 10
46.590338812121551
 20
94.284384307147008
 30
0.0
 11
46.565409483133507
 21
94.619357037620574
 31
0.0
  0
LINE
  5
1DAE3
  8
0
 10
46.565409483133507
 20
94.619357037620574
 30
0.0
 11
46.542092712383919
 21
94.979496779623474
 31
0.0
  0
LINE
  5
1DAE4
  8
0
 10
46.542092712383919
 20
94.979496779623474
 30
0.0
 11
46.520091578662573
 21
95.371080759221826
 31
0.0
  0
LINE
  5
1DAE5
  8
0
 10
46.520091578662573
 20
95.371080759221826
 30
0.0
 11
46.5
 21
95.785099906061163
 31
0.0
  0
LINE
  5
1DAE7
  8
0
 10
53.5
 20
95.785099906071778
 30
0.0
 11
53.484483816772922
 21
95.460087318816676
 31
0.0
  0
LINE
  5
1DAE8
  8
0
 10
53.484483816772922
 20
95.460087318816676
 30
0.0
 11
53.467776712933592
 21
95.148236069445574
 31
0.0
  0
LINE
  5
1DAE9
  8
0
 10
53.467776712933592
 20
95.148236069445574
 30
0.0
 11
53.449956528942607
 21
94.850977860975064
 31
0.0
  0
LINE
  5
1DAEA
  8
0
 10
53.449956528942607
 20
94.850977860975064
 30
0.0
 11
53.430495184428757
 21
94.561067247276554
 31
0.0
  0
LINE
  5
1DAEB
  8
0
 10
53.430495184428757
 20
94.561067247276554
 30
0.0
 11
53.409947633633351
 21
94.288024363493136
 31
0.0
  0
LINE
  5
1DAEC
  8
0
 10
53.409947633633351
 20
94.288024363493136
 30
0.0
 11
53.38841475246295
 21
94.033165279925726
 31
0.0
  0
LINE
  5
1DAED
  8
0
 10
53.38841475246295
 20
94.033165279925726
 30
0.0
 11
53.360831756801701
 21
93.747296002899105
 31
0.0
  0
LINE
  5
1DAEE
  8
0
 10
53.360831756801701
 20
93.747296002899105
 30
0.0
 11
53.33199207325378
 21
93.490824263814801
 31
0.0
  0
LINE
  5
1DAEF
  8
0
 10
53.33199207325378
 20
93.490824263814801
 30
0.0
 11
53.301424138583293
 21
93.260833363005275
 31
0.0
  0
LINE
  5
1DAF0
  8
0
 10
53.301424138583293
 20
93.260833363005275
 30
0.0
 11
53.26984937233965
 21
93.063786161782588
 31
0.0
  0
LINE
  5
1DAF3
  8
0
 10
53.099636563179729
 20
107.0000000000001
 30
0.0
 11
46.900332422677302
 21
107.0000000000001
 31
0.0
  0
POLYLINE
  5
1DAF4
  8
0
 66
     1
 10
0.0
 20
0.0
 30
0.0
  0
VERTEX
  5
1E5C0
  8
0
 10
53.099636563179729
 20
107.0000000000001
 30
0.0
  0
VERTEX
  5
1E5C1
  8
0
 10
53.118223368559079
 20
106.9944106515122
 30
0.0
  0
VERTEX
  5
1E5C2
  8
0
 10
53.138619068403841
 20
106.97601754859539
 30
0.0
  0
VERTEX
  5
1E5C3
  8
0
 10
53.15939193611154
 20
106.94396962513611
 30
0.0
  0
VERTEX
  5
1E5C4
  8
0
 10
53.18005397067548
 20
106.89858644046031
 30
0.0
  0
VERTEX
  5
1E5C5
  8
0
 10
53.200719639596173
 20
106.8394385471035
 30
0.0
  0
VERTEX
  5
1E5C6
  8
0
 10
53.221195105912777
 20
106.7669265800712
 30
0.0
  0
VERTEX
  5
1E5C7
  8
0
 10
53.240604863682961
 20
106.6849902050192
 30
0.0
  0
VERTEX
  5
1E5C8
  8
0
 10
53.259770639687638
 20
106.59102278503561
 30
0.0
  0
VERTEX
  5
1E5C9
  8
0
 10
53.278790319823827
 20
106.4843820510938
 30
0.0
  0
VERTEX
  5
1E5CA
  8
0
 10
53.297495008400908
 20
106.3658736904395
 30
0.0
  0
VERTEX
  5
1E5CB
  8
0
 10
53.316251913410319
 20
106.2326849561241
 30
0.0
  0
VERTEX
  5
1E5CC
  8
0
 10
53.334610214983122
 20
106.0875439959449
 30
0.0
  0
VERTEX
  5
1E5CD
  8
0
 10
53.352667837710392
 20
105.9294807325456
 30
0.0
  0
VERTEX
  5
1E5CE
  8
0
 10
53.370251924729821
 20
105.75983657078601
 30
0.0
  0
VERTEX
  5
1E5CF
  8
0
 10
53.386618388723491
 20
105.5867735786729
 30
0.0
  0
VERTEX
  5
1E5D0
  8
0
 10
53.402491234032929
 20
105.40366360045761
 30
0.0
  0
VERTEX
  5
1E5D1
  8
0
 10
53.417947903103872
 20
105.2094237436967
 30
0.0
  0
VERTEX
  5
1E5D2
  8
0
 10
53.4328484255023
 20
105.0056456393875
 30
0.0
  0
VERTEX
  5
1E5D3
  8
0
 10
53.447473965676402
 20
104.7878885621825
 30
0.0
  0
VERTEX
  5
1E5D4
  8
0
 10
53.46146374766289
 20
104.5609326752037
 30
0.0
  0
VERTEX
  5
1E5D5
  8
0
 10
53.474887963416222
 20
104.32339192510381
 30
0.0
  0
VERTEX
  5
1E5D6
  8
0
 10
53.487615034843998
 20
104.07737329365951
 30
0.0
  0
VERTEX
  5
1E5D7
  8
0
 10
53.5
 20
103.8149000939285
 30
0.0
  0
SEQEND
  5
1E5D8
  8
0
  0
LINE
  5
1DD18
  8
0
 10
249.83333333333371
 20
170.57744460202741
 30
0.0
 11
249.83333333333371
 21
173.1274446020274
 31
0.0
  0
LINE
  5
1DD19
  8
0
 10
249.83333333333371
 20
166.32744460202741
 30
0.0
 11
249.83333333333371
 21
168.87744460202751
 31
0.0
  0
LINE
  5
1DD1A
  8
0
 10
187.83333333333351
 20
170.2274446020275
 30
0.0
 11
187.83333333333351
 21
171.74589369102449
 31
0.0
  0
LINE
  5
1DD1B
  8
0
 10
187.83333333333351
 20
167.7089955130304
 30
0.0
 11
187.83333333333351
 21
169.2274446020275
 31
0.0
  0
ARC
  5
1DD1C
  8
0
 10
220.33333333333371
 20
169.7274446020275
 30
0.0
 40
2.249999999999984
 50
192.8395884069061
 51
347.16041159309549
  0
ARC
  5
1DD1D
  8
0
 10
214.33333333333371
 20
169.7274446020275
 30
0.0
 40
2.25
 50
12.83958840690619
 51
167.16041159309711
  0
ARC
  5
1DD1E
  8
0
 10
214.33333333333371
 20
169.7274446020275
 30
0.0
 40
2.249999999999984
 50
192.83958840690451
 51
347.16041159309549
  0
ARC
  5
1DD1F
  8
0
 10
226.33333333333371
 20
169.7274446020275
 30
0.0
 40
2.249999999999984
 50
192.8395884069061
 51
347.16041159309549
  0
ARC
  5
1DD20
  8
0
 10
190.33333333333351
 20
169.7274446020275
 30
0.0
 40
2.2500000000000062
 50
12.83958840690452
 51
167.1604115930954
  0
ARC
  5
1DD21
  8
0
 10
190.33333333333351
 20
169.7274446020275
 30
0.0
 40
2.2500000000000062
 50
192.83958840690281
 51
347.16041159309719
  0
ARC
  5
1DD22
  8
0
 10
202.3333333333336
 20
169.7274446020275
 30
0.0
 40
2.2500000000000062
 50
192.83958840690451
 51
347.16041159309719
  0
ARC
  5
1DD23
  8
0
 10
234.33333333333371
 20
169.7274446020275
 30
0.0
 40
2.2500000000000129
 50
245.23573932699639
 51
114.62431835217591
  0
ARC
  5
1DD24
  8
0
 10
196.33333333333351
 20
169.7274446020275
 30
0.0
 40
2.2500000000000062
 50
192.83958840690281
 51
347.16041159309719
  0
ARC
  5
1DD25
  8
0
 10
208.33333333333351
 20
169.7274446020275
 30
0.0
 40
2.2500000000000342
 50
192.8395884069061
 51
286.16814915248051
  0
ARC
  5
1DD26
  8
0
 10
208.33333333333351
 20
169.7274446020275
 30
0.0
 40
2.25
 50
43.635208626986227
 51
167.16041159309381
  0
LINE
  5
1DD27
  8
0
 10
216.52707443018161
 20
169.2274446020275
 30
0.0
 11
218.1395922364857
 21
169.2274446020275
 31
0.0
  0
LINE
  5
1DD28
  8
0
 10
218.1395922364857
 20
170.2274446020275
 30
0.0
 11
216.52707443018161
 21
170.2274446020275
 31
0.0
  0
LINE
  5
1DD29
  8
0
 10
228.52707443018161
 20
169.2274446020275
 30
0.0
 11
230.86470636673329
 21
169.2274446020275
 31
0.0
  0
LINE
  5
1DD2A
  8
0
 10
230.86470636673329
 20
170.2274446020275
 30
0.0
 11
228.52707443018161
 21
170.2274446020275
 31
0.0
  0
LINE
  5
1DD2B
  8
0
 10
204.52707443018161
 20
169.2274446020275
 30
0.0
 11
206.1395922364855
 21
169.2274446020275
 31
0.0
  0
LINE
  5
1DD2C
  8
0
 10
206.1395922364855
 20
170.2274446020275
 30
0.0
 11
204.52707443018161
 21
170.2274446020275
 31
0.0
  0
LINE
  5
1DD2D
  8
0
 10
222.52707443018161
 20
169.2274446020275
 30
0.0
 11
224.1395922364857
 21
169.2274446020275
 31
0.0
  0
LINE
  5
1DD2E
  8
0
 10
224.1395922364857
 20
170.2274446020275
 30
0.0
 11
222.52707443018161
 21
170.2274446020275
 31
0.0
  0
LINE
  5
1DD2F
  8
0
 10
198.52707443018161
 20
169.2274446020275
 30
0.0
 11
200.1395922364855
 21
169.2274446020275
 31
0.0
  0
LINE
  5
1DD30
  8
0
 10
200.1395922364855
 20
170.2274446020275
 30
0.0
 11
198.52707443018161
 21
170.2274446020275
 31
0.0
  0
LINE
  5
1DD31
  8
0
 10
192.52707443018161
 20
169.2274446020275
 30
0.0
 11
194.1395922364855
 21
169.2274446020275
 31
0.0
  0
LINE
  5
1DD32
  8
0
 10
194.1395922364855
 20
170.2274446020275
 30
0.0
 11
192.52707443018161
 21
170.2274446020275
 31
0.0
  0
LINE
  5
1DD33
  8
0
 10
187.83333333333351
 20
169.2274446020275
 30
0.0
 11
188.1395922364855
 21
169.2274446020275
 31
0.0
  0
LINE
  5
1DD34
  8
0
 10
188.1395922364855
 20
170.2274446020275
 30
0.0
 11
187.83333333333351
 21
170.2274446020275
 31
0.0
  0
LINE
  5
1DD35
  8
0
 10
210.9547489544843
 20
169.2274446020275
 30
0.0
 11
212.1395922364857
 21
169.2274446020275
 31
0.0
  0
LINE
  5
1DD36
  8
0
 10
212.1395922364857
 20
170.2274446020275
 30
0.0
 11
211.7279071155252
 21
170.2274446020275
 31
0.0
  0
POLYLINE
  5
1DD37
  8
0
 66
     1
 10
0.0
 20
0.0
 30
0.0
 70
   128
  0
VERTEX
  5
1E5D9
  8
0
 10
249.83333333333371
 20
170.57744460202741
 30
0.0
  0
VERTEX
  5
1E5DA
  8
0
 10
249.83331410249309
 20
170.57467116246659
 30
0.0
  0
VERTEX
  5
1E5DB
  8
0
 10
249.72994867837471
 20
170.40232899704949
 30
0.0
  0
VERTEX
  5
1E5DC
  8
0
 10
249.6333333333337
 20
170.37744460202751
 30
0.0
  0
SEQEND
  5
1E5DD
  8
0
  0
LINE
  5
1DD38
  8
0
 10
234.83333333333371
 20
173.7274446020275
 30
0.0
 11
249.2333333333336
 21
173.7274446020275
 31
0.0
  0
POLYLINE
  5
1DD39
  8
0
 66
     1
 10
0.0
 20
0.0
 30
0.0
 70
   128
  0
VERTEX
  5
1E5DE
  8
0
 10
249.2333333333336
 20
173.7274446020275
 30
0.0
  0
VERTEX
  5
1E5DF
  8
0
 10
249.60926172178611
 20
173.59507463394959
 30
0.0
  0
VERTEX
  5
1E5E0
  8
0
 10
249.8333154761346
 20
173.1320736762444
 30
0.0
  0
VERTEX
  5
1E5E1
  8
0
 10
249.83333333333371
 20
173.1274446020274
 30
0.0
  0
SEQEND
  5
1E5E2
  8
0
  0
LINE
  5
1DD3A
  8
0
 10
244.3333333333336
 20
170.37744460202751
 30
0.0
 11
249.6333333333337
 21
170.37744460202751
 31
0.0
  0
ARC
  5
1DD3B
  8
0
 10
244.3333333333336
 20
170.87744460202731
 30
0.0
 40
0.5
 50
179.99999999999349
 51
270.0
  0
POLYLINE
  5
1DD3C
  8
0
 66
     1
 10
0.0
 20
0.0
 30
0.0
 70
   128
  0
VERTEX
  5
1E5E3
  8
0
 10
249.83333333333371
 20
166.32744460202741
 30
0.0
  0
VERTEX
  5
1E5E4
  8
0
 10
249.8333154761346
 20
166.32281552781069
 30
0.0
  0
VERTEX
  5
1E5E5
  8
0
 10
249.60926172178611
 20
165.8598145701053
 30
0.0
  0
VERTEX
  5
1E5E6
  8
0
 10
249.2333333333336
 20
165.7274446020275
 30
0.0
  0
SEQEND
  5
1E5E7
  8
0
  0
LINE
  5
1DD3D
  8
0
 10
249.2333333333336
 20
165.7274446020275
 30
0.0
 11
234.83333333333371
 21
165.7274446020275
 31
0.0
  0
POLYLINE
  5
1DD3E
  8
0
 66
     1
 10
0.0
 20
0.0
 30
0.0
 70
   128
  0
VERTEX
  5
1E5E8
  8
0
 10
249.6333333333337
 20
169.07744460202741
 30
0.0
  0
VERTEX
  5
1E5E9
  8
0
 10
249.72994867837471
 20
169.0525602070054
 30
0.0
  0
VERTEX
  5
1E5EA
  8
0
 10
249.83331410249309
 20
168.8802180415891
 30
0.0
  0
VERTEX
  5
1E5EB
  8
0
 10
249.83333333333371
 20
168.87744460202751
 30
0.0
  0
SEQEND
  5
1E5EC
  8
0
  0
LINE
  5
1DD3F
  8
0
 10
243.83333333333371
 20
168.87744460202751
 30
0.0
 11
243.83333333333371
 21
168.57744460202741
 31
0.0
  0
ARC
  5
1DD40
  8
0
 10
244.03333333333359
 20
168.87744460202751
 30
0.0
 40
0.1999999999999815
 50
90.0
 51
180.0
  0
LINE
  5
1DD41
  8
0
 10
249.6333333333337
 20
169.07744460202741
 30
0.0
 11
244.03333333333359
 21
169.07744460202741
 31
0.0
  0
ARC
  5
1DD42
  8
0
 10
234.83333333333371
 20
169.7274446020275
 30
0.0
 40
4.0000000000001226
 50
90.0
 51
180.0
  0
ARC
  5
1DD43
  8
0
 10
237.6194205274852
 20
173.2612411647319
 30
0.0
 40
1.9999999999997899
 50
231.74733416214849
 51
266.50000000000711
  0
ARC
  5
1DD44
  8
0
 10
234.83333333333371
 20
169.7274446020275
 30
0.0
 40
2.500000000000099
 50
51.74733416215328
 51
308.25266938692192
  0
ARC
  5
1DD45
  8
0
 10
237.6194205274856
 20
166.1936480393226
 30
0.0
 40
2.000000000000151
 50
93.50000000000621
 51
128.25266140151101
  0
ARC
  5
1DD46
  8
0
 10
234.83333333333371
 20
169.7274446020275
 30
0.0
 40
4.0000000000001226
 50
180.0
 51
270.0
  0
LINE
  5
1DD47
  8
0
 10
243.83333333333371
 20
168.57744460202741
 30
0.0
 11
237.4973234484157
 21
168.1899176361664
 31
0.0
  0
LINE
  5
1DD48
  8
0
 10
237.4973234484157
 20
171.26497156788841
 30
0.0
 11
243.83333333333371
 21
170.87744460202751
 31
0.0
  0
ARC
  5
1DD49
  8
0
 10
175.6804195807124
 20
166.72744460202739
 30
0.0
 40
8.0000000000001137
 50
77.50000000000226
 51
90.0
  0
LINE
  5
1DD4A
  8
0
 10
187.3631971016963
 20
172.33167129529659
 30
0.0
 11
177.41193649221731
 21
174.53781265898689
 31
0.0
  0
LINE
  5
1DD4B
  8
0
 10
177.41193649221731
 20
164.91707654506791
 30
0.0
 11
187.36319710169661
 21
167.12321790875851
 31
0.0
  0
ARC
  5
1DD4C
  8
0
 10
175.6804195807124
 20
172.7274446020277
 30
0.0
 40
8.0000000000002931
 50
270.0
 51
282.50000000000068
  0
LINE
  5
1DD4D
  8
0
 10
175.6804195807124
 20
164.7274446020275
 30
0.0
 11
173.83333333333351
 21
164.7274446020275
 31
0.0
  0
ARC
  5
1DD4E
  8
0
 10
173.83333333333351
 20
169.7274446020275
 30
0.0
 40
5.0000000000000302
 50
208.3576365763283
 51
270.0
  0
ARC
  5
1DD4F
  8
0
 10
173.83333333333351
 20
169.7274446020275
 30
0.0
 40
5.0000000000000302
 50
90.0
 51
151.64236342367161
  0
LINE
  5
1DD50
  8
0
 10
175.6804195807124
 20
174.7274446020275
 30
0.0
 11
173.83333333333351
 21
174.7274446020275
 31
0.0
  0
ARC
  5
1DD51
  8
0
 10
173.83333333333351
 20
169.7274446020275
 30
0.0
 40
4.0000000000000142
 50
187.18075578145829
 51
172.81924421854171
  0
ARC
  5
1DD52
  8
0
 10
173.83333333333351
 20
169.7274446020275
 30
0.0
 40
2.5000000000000351
 50
191.5369590328165
 51
168.4630409671835
  0
POLYLINE
  5
1DD53
  8
0
 66
     1
 10
0.0
 20
0.0
 30
0.0
 70
   128
  0
VERTEX
  5
1E5ED
  8
0
 10
187.36319710169639
 20
167.12321790875839
 30
0.0
  0
VERTEX
  5
1E5EE
  8
0
 10
187.7045451895977
 20
167.33756666854461
 30
0.0
  0
VERTEX
  5
1E5EF
  8
0
 10
187.83331594196389
 20
167.7044272151623
 30
0.0
  0
VERTEX
  5
1E5F0
  8
0
 10
187.83333333333351
 20
167.7089955130304
 30
0.0
  0
SEQEND
  5
1E5F1
  8
0
  0
POLYLINE
  5
1DD54
  8
0
 66
     1
 10
0.0
 20
0.0
 30
0.0
 70
   128
  0
VERTEX
  5
1E5F2
  8
0
 10
187.83333333333351
 20
171.74589369102449
 30
0.0
  0
VERTEX
  5
1E5F3
  8
0
 10
187.83331594196389
 20
171.7504619888924
 30
0.0
  0
VERTEX
  5
1E5F4
  8
0
 10
187.7045451895977
 20
172.1173225355104
 30
0.0
  0
VERTEX
  5
1E5F5
  8
0
 10
187.36319710169639
 20
172.33167129529639
 30
0.0
  0
SEQEND
  5
1E5F6
  8
0
  0
POLYLINE
  5
1DD55
  8
0
 66
     1
 10
0.0
 20
0.0
 30
0.0
 70
   128
  0
VERTEX
  5
1E5F7
  8
0
 10
187.83333333333351
 20
169.2274446020275
 30
0.0
  0
VERTEX
  5
1E5F8
  8
0
 10
187.82993805159791
 20
169.25537546084911
 30
0.0
  0
VERTEX
  5
1E5F9
  8
0
 10
187.82122779213961
 20
169.33590633496331
 30
0.0
  0
VERTEX
  5
1E5FA
  8
0
 10
187.81091586520591
 20
169.46068104031789
 30
0.0
  0
VERTEX
  5
1E5FB
  8
0
 10
187.8035208571396
 20
169.61613883314951
 30
0.0
  0
VERTEX
  5
1E5FC
  8
0
 10
187.8023558291533
 20
169.7834764886926
 30
0.0
  0
VERTEX
  5
1E5FD
  8
0
 10
187.80784104420201
 20
169.9435731372869
 30
0.0
  0
VERTEX
  5
1E5FE
  8
0
 10
187.81757898179691
 20
170.07988379862579
 30
0.0
  0
VERTEX
  5
1E5FF
  8
0
 10
187.827393143672
 20
170.17745990016931
 30
0.0
  0
VERTEX
  5
1E600
  8
0
 10
187.8329367935012
 20
170.2242623136535
 30
0.0
  0
VERTEX
  5
1E601
  8
0
 10
187.83333333333351
 20
170.2274446020275
 30
0.0
  0
SEQEND
  5
1E602
  8
0
  0
POLYLINE
  5
1DD56
  8
0
 66
     1
 10
0.0
 20
0.0
 30
0.0
 70
   128
  0
VERTEX
  5
1E603
  8
0
 10
169.43333333333351
 20
172.10231301943509
 30
0.0
  0
VERTEX
  5
1E604
  8
0
 10
169.057404944881
 20
171.20748109764949
 30
0.0
  0
VERTEX
  5
1E605
  8
0
 10
168.90769141452211
 20
170.2274446020275
 30
0.0
  0
SEQEND
  5
1E606
  8
0
  0
POLYLINE
  5
1DD57
  8
0
 66
     1
 10
0.0
 20
0.0
 30
0.0
 70
   128
  0
VERTEX
  5
1E607
  8
0
 10
168.90769141452211
 20
169.2274446020275
 30
0.0
  0
VERTEX
  5
1E608
  8
0
 10
169.057404944881
 20
168.24740810640529
 30
0.0
  0
VERTEX
  5
1E609
  8
0
 10
169.43333333333351
 20
167.35257618461989
 30
0.0
  0
SEQEND
  5
1E60A
  8
0
  0
LINE
  5
1DD58
  8
0
 10
222.52707443018161
 20
169.2274446020275
 30
0.0
 11
222.52707443018161
 21
170.2274446020275
 31
0.0
  0
LINE
  5
1DD59
  8
0
 10
218.1395922364857
 20
170.2274446020275
 30
0.0
 11
218.1395922364857
 21
169.2274446020275
 31
0.0
  0
LINE
  5
1DD5A
  8
0
 10
216.52707443018161
 20
169.2274446020275
 30
0.0
 11
216.52707443018161
 21
170.2274446020275
 31
0.0
  0
LINE
  5
1DD5B
  8
0
 10
212.1395922364857
 20
170.2274446020275
 30
0.0
 11
212.1395922364857
 21
169.2274446020275
 31
0.0
  0
LINE
  5
1DD5C
  8
0
 10
228.52707443018161
 20
169.2274446020275
 30
0.0
 11
228.52707443018161
 21
170.2274446020275
 31
0.0
  0
LINE
  5
1DD5D
  8
0
 10
224.1395922364857
 20
170.2274446020275
 30
0.0
 11
224.1395922364857
 21
169.2274446020275
 31
0.0
  0
LINE
  5
1DD5E
  8
0
 10
192.52707443018161
 20
169.2274446020275
 30
0.0
 11
192.52707443018161
 21
170.2274446020275
 31
0.0
  0
LINE
  5
1DD5F
  8
0
 10
188.1395922364855
 20
170.2274446020275
 30
0.0
 11
188.1395922364855
 21
169.2274446020275
 31
0.0
  0
LINE
  5
1DD60
  8
0
 10
204.52707443018161
 20
169.2274446020275
 30
0.0
 11
204.52707443018161
 21
170.2274446020275
 31
0.0
  0
LINE
  5
1DD61
  8
0
 10
200.1395922364855
 20
170.2274446020275
 30
0.0
 11
200.1395922364855
 21
169.2274446020275
 31
0.0
  0
LINE
  5
1DD62
  8
0
 10
198.52707443018161
 20
169.2274446020275
 30
0.0
 11
198.52707443018161
 21
170.2274446020275
 31
0.0
  0
LINE
  5
1DD63
  8
0
 10
194.1395922364855
 20
170.2274446020275
 30
0.0
 11
194.1395922364855
 21
169.2274446020275
 31
0.0
  0
LINE
  5
1DD64
  8
0
 10
206.1395922364855
 20
170.2274446020275
 30
0.0
 11
206.1395922364855
 21
169.2274446020275
 31
0.0
  0
POLYLINE
  5
1DD65
  8
4
 66
     1
 10
0.0
 20
0.0
 30
0.0
  0
VERTEX
  5
1DD66
  8
4
 10
211.5880536912905
 20
166.65555662370579
 30
0.0
 42
-0.0744127175610667
  0
VERTEX
  5
1DD67
  8
4
 10
211.06355853410119
 20
167.3495226176754
 30
0.0
 42
-0.1536795722212451
  0
VERTEX
  5
1DD68
  8
4
 10
210.79982575833509
 20
168.6941896380095
 30
0.0
 42
-0.1847247553159499
  0
VERTEX
  5
1DD69
  8
4
 10
211.3333319940084
 20
169.7274446020275
 30
0.0
 42
0.1729818233278114
  0
VERTEX
  5
1DD6A
  8
4
 10
211.92560097813481
 20
170.8131641842084
 30
0.0
 42
0.1305645647028073
  0
VERTEX
  5
1DD6B
  8
4
 10
211.77018682237431
 20
172.31897061541949
 30
0.0
 42
0.0267269543158863
  0
VERTEX
  5
1DD6C
  8
4
 10
211.62150994377279
 20
172.65555662370579
 30
0.0
  0
SEQEND
  5
1DD6D
  8
4
  0
POLYLINE
  5
1DD6E
  8
4
 66
     1
 10
0.0
 20
0.0
 30
0.0
  0
VERTEX
  5
1DD6F
  8
4
 10
209.58805369132381
 20
166.65555662370579
 30
0.0
 42
-0.0744127175610667
  0
VERTEX
  5
1DD70
  8
4
 10
209.06355853413459
 20
167.3495226176754
 30
0.0
 42
-0.1536795722212451
  0
VERTEX
  5
1DD71
  8
4
 10
208.79982575836851
 20
168.6941896380095
 30
0.0
 42
-0.1847247553159499
  0
VERTEX
  5
1DD72
  8
4
 10
209.33333199404191
 20
169.7274446020275
 30
0.0
 42
0.1729818233278114
  0
VERTEX
  5
1DD73
  8
4
 10
209.92560097816829
 20
170.8131641842084
 30
0.0
 42
0.1305645647028073
  0
VERTEX
  5
1DD74
  8
4
 10
209.77018682240779
 20
172.31897061541949
 30
0.0
 42
0.0267269543158863
  0
VERTEX
  5
1DD75
  8
4
 10
209.62150994380619
 20
172.65555662370579
 30
0.0
  0
SEQEND
  5
1DD76
  8
4
  0
ARC
  5
1DD77
  8
0
 10
202.3333333333336
 20
169.7274446020275
 30
0.0
 40
2.2500000000000062
 50
12.83958840690118
 51
167.16041159309879
  0
ARC
  5
1DD78
  8
0
 10
196.33333333333351
 20
169.7274446020275
 30
0.0
 40
2.2500000000000062
 50
12.83958840690118
 51
167.16041159309879
  0
ARC
  5
1DD79
  8
0
 10
220.33333333333371
 20
169.7274446020275
 30
0.0
 40
2.249999999999984
 50
12.839588406907859
 51
167.16041159309211
  0
ARC
  5
1DD7A
  8
0
 10
226.33333333333371
 20
169.7274446020275
 30
0.0
 40
2.249999999999984
 50
12.839588406907859
 51
167.16041159309211
  0
LINE
  5
1DD7B
  8
2
 10
247.33333333333371
 20
172.2274446020275
 30
0.0
 11
242.3333333333336
 21
172.2274446020275
 31
0.0
  0
LINE
  5
1DD7C
  8
2
 10
247.33333333333371
 20
167.2274446020275
 30
0.0
 11
242.3333333333336
 21
167.2274446020275
 31
0.0
  0
LINE
  5
1DD7D
  8
2
 10
240.83333333333371
 20
173.7274446020275
 30
0.0
 11
242.3333333333336
 21
172.2274446020275
 31
0.0
  0
LINE
  5
1DD7E
  8
2
 10
247.33333333333371
 20
172.2274446020275
 30
0.0
 11
248.8333333333336
 21
173.7274446020275
 31
0.0
  0
LINE
  5
1DD7F
  8
2
 10
248.8333333333336
 20
165.7274446020275
 30
0.0
 11
247.33333333333371
 21
167.2274446020275
 31
0.0
  0
LINE
  5
1DD80
  8
2
 10
242.3333333333336
 20
167.2274446020275
 30
0.0
 11
240.83333333333371
 21
165.7274446020275
 31
0.0
  0
LINE
  5
1DD81
  8
2
 10
247.33333333333371
 20
170.37744460202751
 30
0.0
 11
247.33333333333371
 21
172.2274446020275
 31
0.0
  0
LINE
  5
1DD82
  8
2
 10
242.3333333333336
 20
172.2274446020275
 30
0.0
 11
242.3333333333336
 21
170.96918853225321
 31
0.0
  0
LINE
  5
1DD83
  8
2
 10
247.33333333333371
 20
167.2274446020275
 30
0.0
 11
247.33333333333371
 21
169.0774446020275
 31
0.0
  0
LINE
  5
1DD84
  8
2
 10
242.3333333333336
 20
168.48570067180171
 30
0.0
 11
242.3333333333336
 21
167.2274446020275
 31
0.0
  0
LINE
  5
1DD85
  8
1
 10
173.83333333333351
 20
176.2274446020275
 30
0.0
 11
173.83333333333351
 21
163.2274446020275
 31
0.0
  0
LINE
  5
1DD86
  8
1
 10
184.3333333333336
 20
174.53979519274961
 30
0.0
 11
184.3333333333336
 21
164.9150940113054
 31
0.0
  0
LINE
  5
1DD87
  8
1
 10
234.33333333333371
 20
173.4774446020275
 30
0.0
 11
234.33333333333371
 21
165.9774446020275
 31
0.0
  0
LINE
  5
1DD88
  8
1
 10
244.83333333333371
 20
175.2274446020275
 30
0.0
 11
244.83333333333371
 21
164.2274446020275
 31
0.0
  0
LINE
  5
1DD89
  8
0
 10
168.8333333333336
 20
88.233333333375768
 30
0.0
 11
168.8333333333336
 21
85.683333333375813
 31
0.0
  0
LINE
  5
1DD8A
  8
0
 10
168.8333333333336
 20
83.983333333375782
 30
0.0
 11
168.8333333333336
 21
81.433333333375828
 31
0.0
  0
LINE
  5
1DD8B
  8
0
 10
230.83333333333371
 20
84.333337285534554
 30
0.0
 11
230.83333333333371
 21
82.814884244336227
 31
0.0
  0
LINE
  5
1DD8C
  8
0
 10
230.83333333333371
 20
86.851782422330444
 30
0.0
 11
230.83333333333371
 21
85.33328959622807
 31
0.0
  0
ARC
  5
1DD8D
  8
0
 10
184.33333333333371
 20
84.833333333375805
 30
0.0
 40
2.2500000000000431
 50
65.375681647842441
 51
294.64854223596609
  0
ARC
  5
1DD8E
  8
0
 10
202.33333333333371
 20
84.833333333375805
 30
0.0
 40
2.2499999999999969
 50
192.83958840690451
 51
347.16041159309719
  0
ARC
  5
1DD8F
  8
0
 10
226.33333333333371
 20
84.833333333333385
 30
0.0
 40
2.249999999999984
 50
192.83958840690789
 51
347.16041159309549
  0
ARC
  5
1DD90
  8
0
 10
220.33333333333371
 20
84.833333333333385
 30
0.0
 40
2.249999999999984
 50
192.83958840690789
 51
347.16041159309549
  0
ARC
  5
1DD91
  8
0
 10
196.33333333333371
 20
84.833333333375805
 30
0.0
 40
2.25000000000004
 50
192.83958840690281
 51
347.16041159309719
  0
ARC
  5
1DD92
  8
0
 10
208.33333333333371
 20
84.833333333375805
 30
0.0
 40
2.250000000000012
 50
192.8395884069061
 51
286.16814915248051
  0
ARC
  5
1DD93
  8
0
 10
214.33333333333371
 20
84.833333333333385
 30
0.0
 40
2.249999999999984
 50
192.83958840690451
 51
347.16041159309549
  0
ARC
  5
1DD94
  8
0
 10
190.33333333333371
 20
84.833333333375805
 30
0.0
 40
2.2500000000000342
 50
192.83958840690281
 51
347.16041159309719
  0
LINE
  5
1DD95
  8
0
 10
222.5270744301817
 20
84.3333333333334
 30
0.0
 11
224.13959223648561
 21
84.3333333333334
 31
0.0
  0
LINE
  5
1DD96
  8
0
 10
224.13959223648561
 20
85.3333333333334
 30
0.0
 11
222.5270744301817
 21
85.3333333333334
 31
0.0
  0
LINE
  5
1DD97
  8
0
 10
187.80196029993061
 20
84.333333333375805
 30
0.0
 11
188.13959223648561
 21
84.333333333375805
 31
0.0
  0
LINE
  5
1DD98
  8
0
 10
188.13959223648561
 20
85.333333333375805
 30
0.0
 11
187.80196029993041
 21
85.333333333375805
 31
0.0
  0
LINE
  5
1DD99
  8
0
 10
210.9547489544843
 20
84.3333333333334
 30
0.0
 11
212.1395922364857
 21
84.3333333333334
 31
0.0
  0
LINE
  5
1DD9A
  8
0
 10
212.1395922364857
 20
85.3333333333334
 30
0.0
 11
211.72790711552511
 21
85.3333333333334
 31
0.0
  0
LINE
  5
1DD9B
  8
0
 10
216.5270744301817
 20
84.3333333333334
 30
0.0
 11
218.13959223648561
 21
84.3333333333334
 31
0.0
  0
LINE
  5
1DD9C
  8
0
 10
218.13959223648561
 20
85.3333333333334
 30
0.0
 11
216.5270744301817
 21
85.3333333333334
 31
0.0
  0
LINE
  5
1DD9D
  8
0
 10
198.5270744301817
 20
84.333333333375805
 30
0.0
 11
200.13959223648561
 21
84.333333333375805
 31
0.0
  0
LINE
  5
1DD9E
  8
0
 10
200.13959223648561
 20
85.333333333375805
 30
0.0
 11
198.5270744301817
 21
85.333333333375805
 31
0.0
  0
LINE
  5
1DD9F
  8
0
 10
192.5270744301817
 20
84.333333333375805
 30
0.0
 11
194.13959223648561
 21
84.333333333375805
 31
0.0
  0
LINE
  5
1DDA0
  8
0
 10
194.13959223648561
 20
85.333333333375805
 30
0.0
 11
192.5270744301817
 21
85.333333333375805
 31
0.0
  0
LINE
  5
1DDA1
  8
0
 10
228.5270744301817
 20
84.3333333333334
 30
0.0
 11
230.83333333333371
 21
84.3333333333334
 31
0.0
  0
LINE
  5
1DDA2
  8
0
 10
230.83333333333371
 20
85.3333333333334
 30
0.0
 11
228.5270744301817
 21
85.3333333333334
 31
0.0
  0
LINE
  5
1DDA3
  8
0
 10
204.5270744301817
 20
84.333333333375805
 30
0.0
 11
206.1395922364857
 21
84.333333333375805
 31
0.0
  0
LINE
  5
1DDA4
  8
0
 10
206.1395922364857
 20
85.333333333375805
 30
0.0
 11
204.5270744301817
 21
85.333333333375805
 31
0.0
  0
POLYLINE
  5
1DDA5
  8
0
 66
     1
 10
0.0
 20
0.0
 30
0.0
 70
   128
  0
VERTEX
  5
1E60B
  8
0
 10
168.8333333333336
 20
88.233333333375768
 30
0.0
  0
VERTEX
  5
1E60C
  8
0
 10
168.83335119053291
 20
88.237962407592264
 30
0.0
  0
VERTEX
  5
1E60D
  8
0
 10
169.05740494488111
 20
88.700963365297895
 30
0.0
  0
VERTEX
  5
1E60E
  8
0
 10
169.43333333333359
 20
88.833333333375805
 30
0.0
  0
SEQEND
  5
1E60F
  8
0
  0
LINE
  5
1DDA6
  8
0
 10
174.33333333333371
 20
85.483333333375796
 30
0.0
 11
169.03333333035351
 21
85.483333333375796
 31
0.0
  0
POLYLINE
  5
1DDA7
  8
0
 66
     1
 10
0.0
 20
0.0
 30
0.0
 70
   128
  0
VERTEX
  5
1E610
  8
0
 10
169.03333333035351
 20
85.483333333375796
 30
0.0
  0
VERTEX
  5
1E611
  8
0
 10
168.9367179861606
 20
85.508217729574227
 30
0.0
  0
VERTEX
  5
1E612
  8
0
 10
168.83335256417391
 20
85.680559893814376
 30
0.0
  0
VERTEX
  5
1E613
  8
0
 10
168.8333333333336
 20
85.683333333375813
 30
0.0
  0
SEQEND
  5
1E614
  8
0
  0
LINE
  5
1DDA8
  8
0
 10
169.43333333333359
 20
88.833333333375805
 30
0.0
 11
183.83333333333371
 21
88.833333333375805
 31
0.0
  0
POLYLINE
  5
1DDA9
  8
0
 66
     1
 10
0.0
 20
0.0
 30
0.0
 70
   128
  0
VERTEX
  5
1E615
  8
0
 10
168.8333333333336
 20
83.983333333375782
 30
0.0
  0
VERTEX
  5
1E616
  8
0
 10
168.83335256417391
 20
83.986106772937234
 30
0.0
  0
VERTEX
  5
1E617
  8
0
 10
168.9367179882928
 20
84.1584489383537
 30
0.0
  0
VERTEX
  5
1E618
  8
0
 10
169.03333333333359
 20
84.183333333375828
 30
0.0
  0
SEQEND
  5
1E619
  8
0
  0
POLYLINE
  5
1DDAA
  8
0
 66
     1
 10
0.0
 20
0.0
 30
0.0
 70
   128
  0
VERTEX
  5
1E61A
  8
0
 10
169.43333333333359
 20
80.833333333375677
 30
0.0
  0
VERTEX
  5
1E61B
  8
0
 10
169.05740494488111
 20
80.965703301453587
 30
0.0
  0
VERTEX
  5
1E61C
  8
0
 10
168.83335119053291
 20
81.428704259159332
 30
0.0
  0
VERTEX
  5
1E61D
  8
0
 10
168.8333333333336
 20
81.433333333375828
 30
0.0
  0
SEQEND
  5
1E61E
  8
0
  0
LINE
  5
1DDAB
  8
0
 10
169.03333333333359
 20
84.183333333375828
 30
0.0
 11
174.63333333333361
 21
84.183333333375828
 31
0.0
  0
LINE
  5
1DDAC
  8
0
 10
183.83333333333371
 20
80.833333333375677
 30
0.0
 11
169.43333333333359
 21
80.833333333375677
 31
0.0
  0
LINE
  5
1DDAD
  8
0
 10
174.83333333333371
 20
83.683333333375828
 30
0.0
 11
174.83333333333371
 21
83.983333333375782
 31
0.0
  0
ARC
  5
1DDAE
  8
0
 10
174.63333333333361
 20
83.983333333375782
 30
0.0
 40
0.1999999999999886
 50
0.0
 51
90.0
  0
ARC
  5
1DDAF
  8
0
 10
174.33333333333371
 20
85.983333333375782
 30
0.0
 40
0.5
 50
270.0
 51
0.0
  0
ARC
  5
1DDB0
  8
0
 10
181.04724613918179
 20
81.299536770671153
 30
0.0
 40
1.999999999999994
 50
51.747334162148491
 51
86.500000000000256
  0
ARC
  5
1DDB1
  8
0
 10
183.83333333333371
 20
84.833333333375805
 30
0.0
 40
2.499999999999996
 50
231.74733416215309
 51
128.25266583785151
  0
ARC
  5
1DDB2
  8
0
 10
181.04724613918179
 20
88.367129896080456
 30
0.0
 40
2.0000000000000169
 50
273.49999999999972
 51
308.25266583785151
  0
ARC
  5
1DDB3
  8
0
 10
183.83333333333371
 20
84.833333333375805
 30
0.0
 40
4.0
 50
0.0
 51
90.0
  0
ARC
  5
1DDB4
  8
0
 10
183.83333333333371
 20
84.833333333375805
 30
0.0
 40
4.0000000000000284
 50
270.0
 51
0.0
  0
LINE
  5
1DDB5
  8
0
 10
174.83333333333371
 20
83.683333333375828
 30
0.0
 11
181.16934321825161
 21
83.295806367514871
 31
0.0
  0
LINE
  5
1DDB6
  8
0
 10
181.16934321825161
 20
86.370860299236739
 30
0.0
 11
174.83333333333371
 21
85.983333333375782
 31
0.0
  0
POLYLINE
  5
1DDB7
  8
0
 66
     1
 10
0.0
 20
0.0
 30
0.0
 70
   128
  0
VERTEX
  5
1E61F
  8
0
 10
230.83333333333371
 20
82.814884244336227
 30
0.0
  0
VERTEX
  5
1E620
  8
0
 10
230.83335072470319
 20
82.810315946469842
 30
0.0
  0
VERTEX
  5
1E621
  8
0
 10
230.96212147706979
 20
82.443455399850464
 30
0.0
  0
VERTEX
  5
1E622
  8
0
 10
231.30346956497081
 20
82.229106640064316
 30
0.0
  0
SEQEND
  5
1E623
  8
0
  0
POLYLINE
  5
1DDB8
  8
0
 66
     1
 10
0.0
 20
0.0
 30
0.0
 70
   128
  0
VERTEX
  5
1E624
  8
0
 10
231.30346956497081
 20
87.43756002660237
 30
0.0
  0
VERTEX
  5
1E625
  8
0
 10
230.96212147706979
 20
87.223211266816335
 30
0.0
  0
VERTEX
  5
1E626
  8
0
 10
230.83335072470319
 20
86.856350720198662
 30
0.0
  0
VERTEX
  5
1E627
  8
0
 10
230.83333333333371
 20
86.851782422330444
 30
0.0
  0
SEQEND
  5
1E628
  8
0
  0
ARC
  5
1DDB9
  8
0
 10
226.8338653028342
 20
84.831354269568948
 30
0.0
 40
4.0308415497430179
 50
0.0281310997347572
 51
7.1532512242516351
  0
ARC
  5
1DDBA
  8
0
 10
226.83428294483929
 20
84.835246250701644
 30
0.0
 40
4.0304238758512341
 50
352.8463812965631
 51
359.9728063103932
  0
ARC
  5
1DDBB
  8
0
 10
242.98624708595469
 20
81.833333333333968
 30
0.0
 40
7.9999999999994031
 50
90.0
 51
102.4999999999977
  0
LINE
  5
1DDBC
  8
0
 10
231.3034695649705
 20
87.43756002660237
 30
0.0
 11
241.2547301744502
 21
89.643701390292819
 31
0.0
  0
CIRCLE
  5
1DDBD
  8
0
 10
244.83333333333371
 20
84.833333333333385
 30
0.0
 40
4.0
  0
LINE
  5
1DDBE
  8
0
 10
241.2547301744502
 20
80.022965276373867
 30
0.0
 11
231.30346956497081
 21
82.229106640064316
 31
0.0
  0
LINE
  5
1DDBF
  8
0
 10
242.98624708595469
 20
79.833333333333286
 30
0.0
 11
244.83333333333371
 21
79.833333333333286
 31
0.0
  0
LINE
  5
1DDC0
  8
0
 10
194.13959223648561
 20
85.333333333375805
 30
0.0
 11
194.13959223648561
 21
84.333333333375805
 31
0.0
  0
ARC
  5
1DDC1
  8
0
 10
242.98624708595469
 20
87.833333333331467
 30
0.0
 40
7.9999999999981242
 50
257.49999999999909
 51
270.0
  0
LINE
  5
1DDC2
  8
0
 10
242.98624708595469
 20
89.833333333333385
 30
0.0
 11
244.83333333333371
 21
89.833333333333385
 31
0.0
  0
LINE
  5
1DDC3
  8
0
 10
206.1395922364857
 20
85.333333333375805
 30
0.0
 11
206.1395922364857
 21
84.333333333375805
 31
0.0
  0
ARC
  5
1DDC4
  8
0
 10
244.83333333333371
 20
84.833333333333385
 30
0.0
 40
5.0000000000000284
 50
270.0
 51
0.0000000004852763
  0
ARC
  5
1DDC5
  8
0
 10
244.83333333333371
 20
84.833333333333385
 30
0.0
 40
5.0
 50
0.0000000004852763
 51
90.0
  0
CIRCLE
  5
1DDC6
  8
0
 10
244.83333333333371
 20
84.833333333333385
 30
0.0
 40
2.5
  0
LINE
  5
1DDC7
  8
0
 10
204.5270744301817
 20
84.333333333375805
 30
0.0
 11
204.5270744301817
 21
85.333333333375805
 31
0.0
  0
LINE
  5
1DDC8
  8
0
 10
200.13959223648561
 20
85.333333333375805
 30
0.0
 11
200.13959223648561
 21
84.333333333375805
 31
0.0
  0
LINE
  5
1DDC9
  8
0
 10
228.5270744301817
 20
84.3333333333334
 30
0.0
 11
228.5270744301817
 21
85.3333333333334
 31
0.0
  0
POLYLINE
  5
1DDCA
  8
4
 66
     1
 10
0.0
 20
0.0
 30
0.0
  0
VERTEX
  5
1DDCB
  8
4
 10
209.58805369132389
 20
81.761445354969311
 30
0.0
 42
-0.0744127175610667
  0
VERTEX
  5
1DDCC
  8
4
 10
209.0635585341347
 20
82.455411348938966
 30
0.0
 42
-0.1536795722212451
  0
VERTEX
  5
1DDCD
  8
4
 10
208.79982575836851
 20
83.800078369273052
 30
0.0
 42
-0.1847247553159499
  0
VERTEX
  5
1DDCE
  8
4
 10
209.333331994042
 20
84.833333333290994
 30
0.0
 42
0.1729818233278114
  0
VERTEX
  5
1DDCF
  8
4
 10
209.9256009781684
 20
85.919052915471894
 30
0.0
 42
0.1305645647028073
  0
VERTEX
  5
1DDD0
  8
4
 10
209.77018682240779
 20
87.424859346682993
 30
0.0
 42
0.0267269543158863
  0
VERTEX
  5
1DDD1
  8
4
 10
209.6215099438063
 20
87.761445354969297
 30
0.0
  0
SEQEND
  5
1DDD2
  8
4
  0
LINE
  5
1DDD3
  8
0
 10
224.13959223648561
 20
85.3333333333334
 30
0.0
 11
224.13959223648561
 21
84.3333333333334
 31
0.0
  0
ARC
  5
1DDD4
  8
0
 10
196.33333333333371
 20
84.833333333375805
 30
0.0
 40
2.25000000000004
 50
12.83958840690118
 51
167.16041159309879
  0
ARC
  5
1DDD5
  8
0
 10
190.33333333333371
 20
84.833333333375805
 30
0.0
 40
2.2500000000000342
 50
12.83958840690118
 51
167.16041159309879
  0
LINE
  5
1DDD6
  8
0
 10
222.5270744301817
 20
84.3333333333334
 30
0.0
 11
222.5270744301817
 21
85.3333333333334
 31
0.0
  0
LINE
  5
1DDD7
  8
0
 10
218.13959223648561
 20
85.3333333333334
 30
0.0
 11
218.13959223648561
 21
84.3333333333334
 31
0.0
  0
ARC
  5
1DDD8
  8
0
 10
202.33333333333371
 20
84.833333333375805
 30
0.0
 40
2.25000000000004
 50
12.83958840690118
 51
167.16041159309879
  0
LINE
  5
1DDD9
  8
0
 10
198.5270744301817
 20
84.333333333375805
 30
0.0
 11
198.5270744301817
 21
85.333333333375805
 31
0.0
  0
ARC
  5
1DDDA
  8
0
 10
226.33333333333371
 20
84.833333333333385
 30
0.0
 40
2.249999999999984
 50
12.839588406907859
 51
167.16041159309211
  0
ARC
  5
1DDDB
  8
0
 10
220.33333333333371
 20
84.833333333333385
 30
0.0
 40
2.249999999999984
 50
12.839588406907859
 51
167.16041159309211
  0
LINE
  5
1DDDC
  8
0
 10
216.5270744301817
 20
84.3333333333334
 30
0.0
 11
216.5270744301817
 21
85.3333333333334
 31
0.0
  0
LINE
  5
1DDDD
  8
0
 10
212.1395922364857
 20
85.3333333333334
 30
0.0
 11
212.1395922364857
 21
84.3333333333334
 31
0.0
  0
LINE
  5
1DDDE
  8
0
 10
192.5270744301817
 20
84.333333333375805
 30
0.0
 11
192.5270744301817
 21
85.333333333375805
 31
0.0
  0
LINE
  5
1DDDF
  8
0
 10
188.13959223648561
 20
85.333333333375805
 30
0.0
 11
188.13959223648561
 21
84.333333333375805
 31
0.0
  0
POLYLINE
  5
1DDE0
  8
4
 66
     1
 10
0.0
 20
0.0
 30
0.0
  0
VERTEX
  5
1DDE1
  8
4
 10
211.5880536912905
 20
81.761445354969311
 30
0.0
 42
-0.0744127175610667
  0
VERTEX
  5
1DDE2
  8
4
 10
211.06355853410119
 20
82.455411348938966
 30
0.0
 42
-0.1536795722212451
  0
VERTEX
  5
1DDE3
  8
4
 10
210.79982575833509
 20
83.800078369273052
 30
0.0
 42
-0.1847247553159499
  0
VERTEX
  5
1DDE4
  8
4
 10
211.3333319940086
 20
84.833333333290994
 30
0.0
 42
0.1729818233278114
  0
VERTEX
  5
1DDE5
  8
4
 10
211.9256009781349
 20
85.919052915471894
 30
0.0
 42
0.1305645647028073
  0
VERTEX
  5
1DDE6
  8
4
 10
211.7701868223744
 20
87.424859346682993
 30
0.0
 42
0.0267269543158863
  0
VERTEX
  5
1DDE7
  8
4
 10
211.62150994377291
 20
87.761445354969297
 30
0.0
  0
SEQEND
  5
1DDE8
  8
4
  0
LINE
  5
1DDE9
  8
2
 10
171.3333333333336
 20
87.333333333375577
 30
0.0
 11
171.3333333333336
 21
85.483333333375796
 31
0.0
  0
LINE
  5
1DDEA
  8
2
 10
176.33333333333371
 20
86.075077263601443
 30
0.0
 11
176.33333333333371
 21
87.333333333375805
 31
0.0
  0
LINE
  5
1DDEB
  8
2
 10
171.3333333333336
 20
84.183333333375828
 30
0.0
 11
171.3333333333336
 21
82.333333333375919
 31
0.0
  0
LINE
  5
1DDEC
  8
2
 10
176.33333333333371
 20
82.333333333375805
 30
0.0
 11
176.33333333333371
 21
83.591589403150024
 31
0.0
  0
ARC
  5
1DDED
  8
0
 10
208.33333333333371
 20
84.833333333375805
 30
0.0
 40
2.25000000000004
 50
43.635208626997617
 51
167.16041159309879
  0
LINE
  5
1DDEE
  8
2
 10
171.3333333333334
 20
87.333333333375805
 30
0.0
 11
169.8333333333334
 21
88.833333333375805
 31
0.0
  0
LINE
  5
1DDEF
  8
1
 10
173.83333333333371
 20
90.333333333375805
 30
0.0
 11
173.83333333333371
 21
79.333333333375691
 31
0.0
  0
ARC
  5
1DDF0
  8
0
 10
214.33333333333371
 20
84.833333333333385
 30
0.0
 40
2.249999999999984
 50
12.839588406907859
 51
167.16041159309879
  0
LINE
  5
1DDF1
  8
2
 10
171.33333333333221
 20
82.333333333374554
 30
0.0
 11
176.33333333333371
 21
82.333333333376956
 31
0.0
  0
LINE
  5
1DDF2
  8
2
 10
171.33333333333459
 20
87.333333333374554
 30
0.0
 11
176.33333333333249
 21
87.333333333376956
 31
0.0
  0
LINE
  5
1DDF3
  8
2
 10
177.83333333333371
 20
80.833333333375677
 30
0.0
 11
176.33333333333371
 21
82.333333333375805
 31
0.0
  0
LINE
  5
1DDF4
  8
2
 10
176.33333333333371
 20
87.333333333375805
 30
0.0
 11
177.83333333333371
 21
88.833333333375805
 31
0.0
  0
LINE
  5
1DDF5
  8
2
 10
169.8333333333334
 20
80.833333333375677
 30
0.0
 11
171.3333333333334
 21
82.333333333375805
 31
0.0
  0
LINE
  5
1DDF6
  8
1
 10
244.83333333333371
 20
90.3333333333334
 30
0.0
 11
244.83333333333371
 21
79.333333333333286
 31
0.0
  0
LINE
  5
1DDF7
  8
1
 10
184.33333333333371
 20
88.583333333375805
 30
0.0
 11
184.33333333333371
 21
81.083333333375691
 31
0.0
  0
LINE
  5
1DDF8
  8
1
 10
234.33333333333371
 20
89.645683924055376
 30
0.0
 11
234.33333333333371
 21
80.020982742611196
 31
0.0
  0
LINE
  5
1DDFC
  8
1
 10
252.8333333333336
 20
84.833333333333343
 30
0.0
 11
132.0000000000002
 21
84.833333333333343
 31
0.0
  0
LINE
  5
1E216
  8
0
 10
137.86350000000019
 20
53.0
 30
0.0
 11
142.6365000000003
 21
53.0
 31
0.0
  0
LINE
  5
1E217
  8
0
 10
142.6365000000003
 20
53.0
 30
0.0
 11
143.2500000000002
 21
53.613499999999981
 31
0.0
  0
LINE
  5
1E218
  8
0
 10
137.25000000000031
 20
53.613499999999981
 30
0.0
 11
137.86350000000019
 21
53.0
 31
0.0
  0
LINE
  5
1E219
  8
0
 10
137.25000000000031
 20
53.613499999999981
 30
0.0
 11
143.2500000000002
 21
53.613499999999981
 31
0.0
  0
LINE
  5
1E21A
  8
0
 10
143.2500000000002
 20
53.613499999999981
 30
0.0
 11
143.2500000000002
 21
83.0
 31
0.0
  0
LINE
  5
1E21B
  8
0
 10
137.25000000000031
 20
83.0
 30
0.0
 11
137.25000000000031
 21
53.613499999999981
 31
0.0
  0
LINE
  5
1E21C
  8
3
 10
137.86350000000019
 20
53.0
 30
0.0
 11
137.86350000000019
 21
83.0
 31
0.0
  0
LINE
  5
1E21D
  8
3
 10
142.6365000000003
 20
53.0
 30
0.0
 11
142.6365000000003
 21
83.0
 31
0.0
  0
LINE
  5
1E21E
  8
0
 10
47.613499999999988
 20
53.0
 30
0.0
 11
52.386500000000012
 21
53.0
 31
0.0
  0
LINE
  5
1E21F
  8
0
 10
52.386500000000012
 20
53.0
 30
0.0
 11
53.0
 21
53.613499999999981
 31
0.0
  0
LINE
  5
1E220
  8
0
 10
47.0
 20
53.613499999999981
 30
0.0
 11
47.613499999999988
 21
53.0
 31
0.0
  0
LINE
  5
1E221
  8
0
 10
47.0
 20
53.613499999999981
 30
0.0
 11
53.0
 21
53.613499999999981
 31
0.0
  0
LINE
  5
1E222
  8
0
 10
53.0
 20
53.613499999999981
 30
0.0
 11
53.0
 21
83.0
 31
0.0
  0
LINE
  5
1E223
  8
0
 10
47.0
 20
83.0
 30
0.0
 11
47.0
 21
53.613499999999981
 31
0.0
  0
LINE
  5
1E224
  8
3
 10
47.613499999999988
 20
53.0
 30
0.0
 11
47.613499999999988
 21
83.0
 31
0.0
  0
LINE
  5
1E225
  8
3
 10
52.386500000000012
 20
53.0
 30
0.0
 11
52.386500000000012
 21
83.0
 31
0.0
  0
ARC
  5
1E280
  8
2
 10
158.0010324068686
 20
169.72744460202739
 30
0.0
 40
1.9075709697213421
 50
282.88257391891472
 51
77.117426081085398
  0
ENDSEC
  0
EOF
